  0
SECTION
  2
HEADER
  9
$ACADVER
  1
AC1018
  9
$ACADMAINTVER
 70
     0
  9
$DWGCODEPAGE
  3
ANSI_936
  9
$INSBASE
 10
0.0
 20
0.0
 30
0.0
  9
$EXTMIN
 10
0.0000651781178335
 20
412.4477440750074
 30
0.0
  9
$EXTMAX
 10
46.00019562413893
 20
590.4477440987324
 30
0.0
  9
$LIMMIN
 10
0.0
 20
0.0
  9
$LIMMAX
 10
12.0
 20
9.0
  9
$ORTHOMODE
 70
     0
  9
$REGENMODE
 70
     1
  9
$FILLMODE
 70
     1
  9
$QTEXTMODE
 70
     0
  9
$MIRRTEXT
 70
     1
  9
$LTSCALE
 40
1.0
  9
$ATTMODE
 70
     1
  9
$TEXTSIZE
 40
0.2
  9
$TRACEWID
 40
0.05
  9
$TEXTSTYLE
  7
Standard
  9
$CLAYER
  8
E37327
  9
$CELTYPE
  6
ByLayer
  9
$CECOLOR
 62
   256
  9
$CELTSCALE
 40
1.0
  9
$DISPSILH
 70
     0
  9
$DIMSCALE
 40
1.0
  9
$DIMASZ
 40
0.18
  9
$DIMEXO
 40
0.0625
  9
$DIMDLI
 40
0.38
  9
$DIMRND
 40
0.0
  9
$DIMDLE
 40
0.0
  9
$DIMEXE
 40
0.18
  9
$DIMTP
 40
0.0
  9
$DIMTM
 40
0.0
  9
$DIMTXT
 40
0.18
  9
$DIMCEN
 40
0.09
  9
$DIMTSZ
 40
0.0
  9
$DIMTOL
 70
     0
  9
$DIMLIM
 70
     0
  9
$DIMTIH
 70
     1
  9
$DIMTOH
 70
     1
  9
$DIMSE1
 70
     0
  9
$DIMSE2
 70
     0
  9
$DIMTAD
 70
     0
  9
$DIMZIN
 70
     0
  9
$DIMBLK
  1

  9
$DIMASO
 70
     1
  9
$DIMSHO
 70
     1
  9
$DIMPOST
  1

  9
$DIMAPOST
  1

  9
$DIMALT
 70
     0
  9
$DIMALTD
 70
     2
  9
$DIMALTF
 40
25.4
  9
$DIMLFAC
 40
1.0
  9
$DIMTOFL
 70
     0
  9
$DIMTVP
 40
0.0
  9
$DIMTIX
 70
     0
  9
$DIMSOXD
 70
     0
  9
$DIMSAH
 70
     0
  9
$DIMBLK1
  1

  9
$DIMBLK2
  1

  9
$DIMSTYLE
  2
Standard
  9
$DIMCLRD
 70
     0
  9
$DIMCLRE
 70
     0
  9
$DIMCLRT
 70
     0
  9
$DIMTFAC
 40
1.0
  9
$DIMGAP
 40
0.09
  9
$DIMJUST
 70
     0
  9
$DIMSD1
 70
     0
  9
$DIMSD2
 70
     0
  9
$DIMTOLJ
 70
     1
  9
$DIMTZIN
 70
     0
  9
$DIMALTZ
 70
     0
  9
$DIMALTTZ
 70
     0
  9
$DIMUPT
 70
     0
  9
$DIMDEC
 70
     4
  9
$DIMTDEC
 70
     4
  9
$DIMALTU
 70
     2
  9
$DIMALTTD
 70
     2
  9
$DIMTXSTY
  7
Standard
  9
$DIMAUNIT
 70
     0
  9
$DIMADEC
 70
     0
  9
$DIMALTRND
 40
0.0
  9
$DIMAZIN
 70
     0
  9
$DIMDSEP
 70
    46
  9
$DIMATFIT
 70
     3
  9
$DIMFRAC
 70
     0
  9
$DIMLDRBLK
  1

  9
$DIMLUNIT
 70
     2
  9
$DIMLWD
 70
    -2
  9
$DIMLWE
 70
    -2
  9
$DIMTMOVE
 70
     2
  9
$LUNITS
 70
     2
  9
$LUPREC
 70
     2
  9
$SKETCHINC
 40
0.1
  9
$FILLETRAD
 40
0.5
  9
$AUNITS
 70
     0
  9
$AUPREC
 70
     0
  9
$MENU
  1
.
  9
$ELEVATION
 40
0.0
  9
$PELEVATION
 40
0.0
  9
$THICKNESS
 40
0.0
  9
$LIMCHECK
 70
     0
  9
$CHAMFERA
 40
0.5
  9
$CHAMFERB
 40
0.5
  9
$CHAMFERC
 40
1.0
  9
$CHAMFERD
 40
0.0
  9
$SKPOLY
 70
     0
  9
$TDCREATE
 40
2456723.655567581
  9
$TDUCREATE
 40
2456723.322234248
  9
$TDUPDATE
 40
2456723.655568368
  9
$TDUUPDATE
 40
2456723.322235035
  9
$TDINDWG
 40
0.0000000116
  9
$TDUSRTIMER
 40
0.0000000116
  9
$USRTIMER
 70
     1
  9
$ANGBASE
 50
0.0
  9
$ANGDIR
 70
     0
  9
$PDMODE
 70
     0
  9
$PDSIZE
 40
0.0
  9
$PLINEWID
 40
0.0
  9
$SPLFRAME
 70
     0
  9
$SPLINETYPE
 70
     6
  9
$SPLINESEGS
 70
     8
  9
$HANDSEED
  5
23F
  9
$SURFTAB1
 70
     6
  9
$SURFTAB2
 70
     6
  9
$SURFTYPE
 70
     6
  9
$SURFU
 70
     6
  9
$SURFV
 70
     6
  9
$UCSBASE
  2

  9
$UCSNAME
  2

  9
$UCSORG
 10
0.0
 20
0.0
 30
0.0
  9
$UCSXDIR
 10
1.0
 20
0.0
 30
0.0
  9
$UCSYDIR
 10
0.0
 20
1.0
 30
0.0
  9
$UCSORTHOREF
  2

  9
$UCSORTHOVIEW
 70
     0
  9
$UCSORGTOP
 10
0.0
 20
0.0
 30
0.0
  9
$UCSORGBOTTOM
 10
0.0
 20
0.0
 30
0.0
  9
$UCSORGLEFT
 10
0.0
 20
0.0
 30
0.0
  9
$UCSORGRIGHT
 10
0.0
 20
0.0
 30
0.0
  9
$UCSORGFRONT
 10
0.0
 20
0.0
 30
0.0
  9
$UCSORGBACK
 10
0.0
 20
0.0
 30
0.0
  9
$PUCSBASE
  2

  9
$PUCSNAME
  2

  9
$PUCSORG
 10
0.0
 20
0.0
 30
0.0
  9
$PUCSXDIR
 10
1.0
 20
0.0
 30
0.0
  9
$PUCSYDIR
 10
0.0
 20
1.0
 30
0.0
  9
$PUCSORTHOREF
  2

  9
$PUCSORTHOVIEW
 70
     0
  9
$PUCSORGTOP
 10
0.0
 20
0.0
 30
0.0
  9
$PUCSORGBOTTOM
 10
0.0
 20
0.0
 30
0.0
  9
$PUCSORGLEFT
 10
0.0
 20
0.0
 30
0.0
  9
$PUCSORGRIGHT
 10
0.0
 20
0.0
 30
0.0
  9
$PUCSORGFRONT
 10
0.0
 20
0.0
 30
0.0
  9
$PUCSORGBACK
 10
0.0
 20
0.0
 30
0.0
  9
$USERI1
 70
     0
  9
$USERI2
 70
     0
  9
$USERI3
 70
     0
  9
$USERI4
 70
     0
  9
$USERI5
 70
     0
  9
$USERR1
 40
0.0
  9
$USERR2
 40
0.0
  9
$USERR3
 40
0.0
  9
$USERR4
 40
0.0
  9
$USERR5
 40
0.0
  9
$WORLDVIEW
 70
     1
  9
$SHADEDGE
 70
     3
  9
$SHADEDIF
 70
    70
  9
$TILEMODE
 70
     1
  9
$MAXACTVP
 70
    64
  9
$PINSBASE
 10
0.0
 20
0.0
 30
0.0
  9
$PLIMCHECK
 70
     0
  9
$PEXTMIN
 10
1.000000000000000E+20
 20
1.000000000000000E+20
 30
1.000000000000000E+20
  9
$PEXTMAX
 10
-1.000000000000000E+20
 20
-1.000000000000000E+20
 30
-1.000000000000000E+20
  9
$PLIMMIN
 10
0.0
 20
0.0
  9
$PLIMMAX
 10
12.0
 20
9.0
  9
$UNITMODE
 70
     0
  9
$VISRETAIN
 70
     1
  9
$PLINEGEN
 70
     0
  9
$PSLTSCALE
 70
     1
  9
$TREEDEPTH
 70
  3020
  9
$CMLSTYLE
  2
Standard
  9
$CMLJUST
 70
     0
  9
$CMLSCALE
 40
1.0
  9
$PROXYGRAPHICS
 70
     1
  9
$MEASUREMENT
 70
     0
  9
$CELWEIGHT
370
    -1
  9
$ENDCAPS
280
     0
  9
$JOINSTYLE
280
     0
  9
$LWDISPLAY
290
     0
  9
$INSUNITS
 70
     4
  9
$HYPERLINKBASE
  1

  9
$STYLESHEET
  1

  9
$XEDIT
290
     1
  9
$CEPSNTYPE
380
     0
  9
$PSTYLEMODE
290
     1
  9
$FINGERPRINTGUID
  2
{8E0C5CD5-8B94-41E0-A914-DEA950D69260}
  9
$VERSIONGUID
  2
{FAEB1C32-E019-11D5-929B-00C0DF256EC4}
  9
$EXTNAMES
290
     1
  9
$PSVPSCALE
 40
0.0
  9
$OLESTARTUP
290
     0
  9
$SORTENTS
280
   127
  9
$INDEXCTL
280
     0
  9
$HIDETEXT
280
     1
  9
$XCLIPFRAME
290
     0
  9
$HALOGAP
280
     0
  9
$OBSCOLOR
 70
   257
  9
$OBSLTYPE
280
     0
  9
$INTERSECTIONDISPLAY
280
     0
  9
$INTERSECTIONCOLOR
 70
   257
  9
$DIMASSOC
280
     2
  9
$PROJECTNAME
  1

  0
ENDSEC
  0
SECTION
  2
CLASSES
  0
CLASS
  1
ACDBDICTIONARYWDFLT
  2
AcDbDictionaryWithDefault
  3
ObjectDBX Classes
 90
        0
 91
        4
280
     0
281
     0
  0
CLASS
  1
VISUALSTYLE
  2
AcDbVisualStyle
  3
ObjectDBX Classes
 90
     4095
 91
        4
280
     0
281
     0
  0
CLASS
  1
MATERIAL
  2
AcDbMaterial
  3
ObjectDBX Classes
 90
     1153
 91
        4
280
     0
281
     0
  0
CLASS
  1
SCALE
  2
AcDbScale
  3
ObjectDBX Classes
 90
     1153
 91
        4
280
     0
281
     0
  0
CLASS
  1
SUN
  2
AcDbSun
  3
SCENEOE
 90
     1153
 91
        4
280
     0
281
     0
  0
CLASS
  1
DICTIONARYVAR
  2
AcDbDictionaryVar
  3
ObjectDBX Classes
 90
        0
 91
        4
280
     0
281
     0
  0
ENDSEC
  0
SECTION
  2
TABLES
  0
TABLE
  2
VPORT
  5
8
330
0
100
AcDbSymbolTable
 70
     1
  0
VPORT
  5
29
330
8
100
AcDbSymbolTableRecord
100
AcDbViewportTableRecord
  2
*Active
 70
     0
 10
0.0
 20
0.0
 11
1.0
 21
1.0
 12
23.00013040112839
 22
501.4477440987324
 13
0.0
 23
0.0
 14
0.5
 24
0.5
 15
0.5
 25
0.5
 16
0.0
 26
0.0
 36
1.0
 17
0.0
 27
0.0
 37
0.0
 40
181.5600000000001
 41
0.2584276988827436
 42
50.0
 43
0.0
 44
0.0
 50
0.0
 51
0.0
 71
     0
 72
   100
 73
     1
 74
     3
 75
     0
 76
     0
 77
     0
 78
     0
281
     0
 65
     1
110
0.0
120
0.0
130
0.0
111
1.0
121
0.0
131
0.0
112
0.0
122
1.0
132
0.0
 79
     0
146
0.0
  0
ENDTAB
  0
TABLE
  2
LTYPE
  5
5
330
0
100
AcDbSymbolTable
 70
     1
  0
LTYPE
  5
14
330
5
100
AcDbSymbolTableRecord
100
AcDbLinetypeTableRecord
  2
ByBlock
 70
     0
  3

 72
    65
 73
     0
 40
0.0
  0
LTYPE
  5
15
330
5
100
AcDbSymbolTableRecord
100
AcDbLinetypeTableRecord
  2
ByLayer
 70
     0
  3

 72
    65
 73
     0
 40
0.0
  0
LTYPE
  5
16
330
5
100
AcDbSymbolTableRecord
100
AcDbLinetypeTableRecord
  2
Continuous
 70
     0
  3
Solid line
 72
    65
 73
     0
 40
0.0
  0
ENDTAB
  0
TABLE
  2
LAYER
  5
2
330
0
100
AcDbSymbolTable
 70
     3
  0
LAYER
  5
10
330
2
100
AcDbSymbolTableRecord
100
AcDbLayerTableRecord
  2
0
 70
     0
 62
     7
  6
Continuous
370
    -3
390
F
  0
LAYER
  5
62
330
2
100
AcDbSymbolTableRecord
100
AcDbLayerTableRecord
  2
Make2D$可见线$普通线
 70
     0
 62
    18
420
        0
  6
Continuous
370
    -3
390
F
  0
LAYER
  5
9B
330
2
100
AcDbSymbolTableRecord
100
AcDbLayerTableRecord
  2
E37327
 70
     0
 62
    18
420
        0
  6
Continuous
370
    -3
390
F
  0
ENDTAB
  0
TABLE
  2
STYLE
  5
3
330
0
100
AcDbSymbolTable
 70
     1
  0
STYLE
  5
11
330
3
100
AcDbSymbolTableRecord
100
AcDbTextStyleTableRecord
  2
Standard
 70
     0
 40
0.0
 41
1.0
 50
0.0
 71
     0
 42
0.2
  3
txt
  4

  0
ENDTAB
  0
TABLE
  2
VIEW
  5
6
330
0
100
AcDbSymbolTable
 70
     0
  0
ENDTAB
  0
TABLE
  2
UCS
  5
7
330
0
100
AcDbSymbolTable
 70
     0
  0
ENDTAB
  0
TABLE
  2
APPID
  5
9
330
0
100
AcDbSymbolTable
 70
     1
  0
APPID
  5
12
330
9
100
AcDbSymbolTableRecord
100
AcDbRegAppTableRecord
  2
ACAD
 70
     0
  0
ENDTAB
  0
TABLE
  2
DIMSTYLE
  5
A
330
0
100
AcDbSymbolTable
 70
     1
100
AcDbDimStyleTable
  0
DIMSTYLE
105
27
330
A
100
AcDbSymbolTableRecord
100
AcDbDimStyleTableRecord
  2
Standard
 70
     0
178
     0
340
11
  0
ENDTAB
  0
TABLE
  2
BLOCK_RECORD
  5
1
330
0
100
AcDbSymbolTable
 70
     1
  0
BLOCK_RECORD
  5
1F
330
1
100
AcDbSymbolTableRecord
100
AcDbBlockTableRecord
  2
*Model_Space
340
22
  0
BLOCK_RECORD
  5
1B
330
1
100
AcDbSymbolTableRecord
100
AcDbBlockTableRecord
  2
*Paper_Space
340
1E
  0
BLOCK_RECORD
  5
23
330
1
100
AcDbSymbolTableRecord
100
AcDbBlockTableRecord
  2
*Paper_Space0
340
26
  0
ENDTAB
  0
ENDSEC
  0
SECTION
  2
BLOCKS
  0
BLOCK
  5
20
330
1F
100
AcDbEntity
  8
0
100
AcDbBlockBegin
  2
*Model_Space
 70
     0
 10
0.0
 20
0.0
 30
0.0
  3
*Model_Space
  1
*Model_Space
  0
ENDBLK
  5
21
330
1F
100
AcDbEntity
  8
0
100
AcDbBlockEnd
  0
BLOCK
  5
1C
330
1B
100
AcDbEntity
 67
     1
  8
0
100
AcDbBlockBegin
  2
*Paper_Space
 70
     0
 10
0.0
 20
0.0
 30
0.0
  3
*Paper_Space
  1
*Paper_Space
  0
ENDBLK
  5
1D
330
1B
100
AcDbEntity
 67
     1
  8
0
100
AcDbBlockEnd
  0
BLOCK
  5
24
330
23
100
AcDbEntity
  8
0
100
AcDbBlockBegin
  2
*Paper_Space0
 70
     0
 10
0.0
 20
0.0
 30
0.0
  3
*Paper_Space0
  1
*Paper_Space0
  0
ENDBLK
  5
25
330
23
100
AcDbEntity
  8
0
100
AcDbBlockEnd
  0
ENDSEC
  0
SECTION
  2
ENTITIES
  0
LINE
  5
63
330
1F
100
AcDbEntity
  8
Make2D$可见线$普通线
100
AcDbLine
 10
46.00013040112843
 20
587.1264807420309
 30
0.0
 11
46.00013040112842
 21
587.0493671103932
 31
0.0
  0
LINE
  5
64
330
1F
100
AcDbEntity
  8
Make2D$可见线$普通线
100
AcDbLine
 10
0.0001304011284162
 20
587.1264807420308
 30
0.0
 11
0.0001304011284162
 21
587.0493671103918
 31
0.0
  0
LINE
  5
65
330
1F
100
AcDbEntity
  8
Make2D$可见线$普通线
100
AcDbLine
 10
46.00013040112843
 20
515.1264807420308
 30
0.0
 11
46.00013040112843
 21
515.049367110397
 31
0.0
  0
LINE
  5
66
330
1F
100
AcDbEntity
  8
Make2D$可见线$普通线
100
AcDbLine
 10
0.0001304011284162
 20
515.1264807420309
 30
0.0
 11
0.0001304011284162
 21
515.0493671103972
 31
0.0
  0
POLYLINE
  5
67
330
1F
100
AcDbEntity
  8
Make2D$可见线$普通线
100
AcDb2dPolyline
 66
     1
 10
0.0
 20
0.0
 30
0.0
  0
VERTEX
  5
68
330
67
100
AcDbEntity
  8
Make2D$可见线$普通线
100
AcDbVertex
100
AcDb2dVertex
 10
2.124489619954473
 20
558.4528800751588
 30
0.0
 42
0.3710653553458875
  0
VERTEX
  5
69
330
67
100
AcDbEntity
  8
Make2D$可见线$普通线
100
AcDbVertex
100
AcDb2dVertex
 10
3.022491597228544
 20
559.4001250508366
 30
0.0
 42
-0.0129776630887617
  0
VERTEX
  5
6A
330
67
100
AcDbEntity
  8
Make2D$可见线$普通线
100
AcDbVertex
100
AcDb2dVertex
 10
3.100381658996014
 20
560.4477440987322
 30
0.0
  0
SEQEND
  5
6B
330
67
100
AcDbEntity
  8
Make2D$可见线$普通线
  0
POLYLINE
  5
6C
330
1F
100
AcDbEntity
  8
Make2D$可见线$普通线
100
AcDb2dPolyline
 66
     1
 10
0.0
 20
0.0
 30
0.0
  0
VERTEX
  5
6D
330
6C
100
AcDbEntity
  8
Make2D$可见线$普通线
100
AcDbVertex
100
AcDb2dVertex
 10
45.19064316890152
 20
413.4236445099593
 30
0.0
  0
VERTEX
  5
6E
330
6C
100
AcDbEntity
  8
Make2D$可见线$普通线
100
AcDbVertex
100
AcDb2dVertex
 10
45.24138199848726
 20
413.4389709655206
 30
0.0
 42
0.3560349594779144
  0
VERTEX
  5
6F
330
6C
100
AcDbEntity
  8
Make2D$可见线$普通线
100
AcDbVertex
100
AcDb2dVertex
 10
45.00019560169262
 20
413.1477440987323
 30
0.0
  0
VERTEX
  5
70
330
6C
100
AcDbEntity
  8
Make2D$可见线$普通线
100
AcDbVertex
100
AcDb2dVertex
 10
45.00019560169258
 20
412.7477440987323
 30
0.0
 42
-0.4144434111318623
  0
VERTEX
  5
71
330
6C
100
AcDbEntity
  8
Make2D$可见线$普通线
100
AcDbVertex
100
AcDb2dVertex
 10
44.70019234164252
 20
412.4477440987324
 30
0.0
  0
VERTEX
  5
72
330
6C
100
AcDbEntity
  8
Make2D$可见线$普通线
100
AcDbVertex
100
AcDb2dVertex
 10
1.300006520056613
 20
412.4477440987323
 30
0.0
 42
-0.414372679449614
  0
VERTEX
  5
73
330
6C
100
AcDbEntity
  8
Make2D$可见线$普通线
100
AcDbVertex
100
AcDb2dVertex
 10
1.000065200564291
 20
412.7477440987323
 30
0.0
  0
VERTEX
  5
74
330
6C
100
AcDbEntity
  8
Make2D$可见线$普通线
100
AcDbVertex
100
AcDb2dVertex
 10
1.000065200564222
 20
413.1477440987323
 30
0.0
 42
0.3512342078090187
  0
VERTEX
  5
75
330
6C
100
AcDbEntity
  8
Make2D$可见线$普通线
100
AcDbVertex
100
AcDb2dVertex
 10
0.7652762530019881
 20
413.4405552064201
 30
0.0
  0
SEQEND
  5
76
330
6C
100
AcDbEntity
  8
Make2D$可见线$普通线
  0
POLYLINE
  5
77
330
1F
100
AcDbEntity
  8
Make2D$可见线$普通线
100
AcDb2dPolyline
 66
     1
 10
0.0
 20
0.0
 30
0.0
  0
VERTEX
  5
78
330
77
100
AcDbEntity
  8
Make2D$可见线$普通线
100
AcDbVertex
100
AcDb2dVertex
 10
42.89987914326082
 20
560.4477440987321
 30
0.0
 42
-0.0131325734787891
  0
VERTEX
  5
79
330
77
100
AcDbEntity
  8
Make2D$可见线$普通线
100
AcDbVertex
100
AcDb2dVertex
 10
42.97744341665948
 20
559.4001250507359
 30
0.0
 42
0.363141179463646
  0
VERTEX
  5
7A
330
77
100
AcDbEntity
  8
Make2D$可见线$普通线
100
AcDbVertex
100
AcDb2dVertex
 10
43.85260058072715
 20
558.4554426805297
 30
0.0
  0
VERTEX
  5
7B
330
77
100
AcDbEntity
  8
Make2D$可见线$普通线
100
AcDbVertex
100
AcDb2dVertex
 10
43.88989406902954
 20
558.4514847239767
 30
0.0
  0
SEQEND
  5
7C
330
77
100
AcDbEntity
  8
Make2D$可见线$普通线
  0
POLYLINE
  5
7D
330
1F
100
AcDbEntity
  8
Make2D$可见线$普通线
100
AcDb2dPolyline
 66
     1
 10
0.0
 20
0.0
 30
0.0
  0
VERTEX
  5
7E
330
7D
100
AcDbEntity
  8
Make2D$可见线$普通线
100
AcDbVertex
100
AcDb2dVertex
 10
46.00013040112843
 20
515.0903201077175
 30
0.0
  0
VERTEX
  5
7F
330
7D
100
AcDbEntity
  8
Make2D$可见线$普通线
100
AcDbVertex
100
AcDb2dVertex
 10
46.00013040112842
 20
494.4477440987808
 30
0.0
  0
VERTEX
  5
80
330
7D
100
AcDbEntity
  8
Make2D$可见线$普通线
100
AcDbVertex
100
AcDb2dVertex
 10
46.00019560169256
 20
413.7477440987323
 30
0.0
 42
-0.4144434112001184
  0
VERTEX
  5
81
330
7D
100
AcDbEntity
  8
Make2D$可见线$普通线
100
AcDbVertex
100
AcDb2dVertex
 10
45.70019234166796
 20
413.4477440987324
 30
0.0
  0
VERTEX
  5
82
330
7D
100
AcDbEntity
  8
Make2D$可见线$普通线
100
AcDbVertex
100
AcDb2dVertex
 10
0.3000684605888669
 20
413.4477440987323
 30
0.0
 42
-0.4144434111996537
  0
VERTEX
  5
83
330
7D
100
AcDbEntity
  8
Make2D$可见线$普通线
100
AcDbVertex
100
AcDb2dVertex
 10
0.0000652005641983
 20
413.7477440987323
 30
0.0
  0
VERTEX
  5
84
330
7D
100
AcDbEntity
  8
Make2D$可见线$普通线
100
AcDbVertex
100
AcDb2dVertex
 10
0.0001304011284162
 20
494.4477440987808
 30
0.0
  0
VERTEX
  5
85
330
7D
100
AcDbEntity
  8
Make2D$可见线$普通线
100
AcDbVertex
100
AcDb2dVertex
 10
0.0001304011284046
 20
515.0903298631081
 30
0.0
  0
SEQEND
  5
86
330
7D
100
AcDbEntity
  8
Make2D$可见线$普通线
  0
POLYLINE
  5
87
330
1F
100
AcDbEntity
  8
Make2D$可见线$普通线
100
AcDb2dPolyline
 66
     1
 10
0.0
 20
0.0
 30
0.0
  0
VERTEX
  5
88
330
87
100
AcDbEntity
  8
Make2D$可见线$普通线
100
AcDbVertex
100
AcDb2dVertex
 10
46.00013040112842
 20
587.0903298631697
 30
0.0
  0
VERTEX
  5
89
330
87
100
AcDbEntity
  8
Make2D$可见线$普通线
100
AcDbVertex
100
AcDb2dVertex
 10
46.00013040112842
 20
566.4477440987432
 30
0.0
  0
VERTEX
  5
8A
330
87
100
AcDbEntity
  8
Make2D$可见线$普通线
100
AcDbVertex
100
AcDb2dVertex
 10
46.00019560169259
 20
562.4477440987323
 30
0.0
 42
-0.4142429252686582
  0
VERTEX
  5
8B
330
87
100
AcDbEntity
  8
Make2D$可见线$普通线
100
AcDbVertex
100
AcDb2dVertex
 10
44.00017386815641
 20
560.4477440987323
 30
0.0
  0
VERTEX
  5
8C
330
87
100
AcDbEntity
  8
Make2D$可见线$普通线
100
AcDbVertex
100
AcDb2dVertex
 10
2.00004346704182
 20
560.4477440987322
 30
0.0
 42
-0.4142366143586138
  0
VERTEX
  5
8D
330
87
100
AcDbEntity
  8
Make2D$可见线$普通线
100
AcDbVertex
100
AcDb2dVertex
 10
0.0000652005642061
 20
562.4477440987323
 30
0.0
  0
VERTEX
  5
8E
330
87
100
AcDbEntity
  8
Make2D$可见线$普通线
100
AcDbVertex
100
AcDb2dVertex
 10
0.0001304011284162
 20
566.4477440987299
 30
0.0
  0
VERTEX
  5
8F
330
87
100
AcDbEntity
  8
Make2D$可见线$普通线
100
AcDbVertex
100
AcDb2dVertex
 10
0.0001304011284127
 20
587.0903201077831
 30
0.0
  0
SEQEND
  5
90
330
87
100
AcDbEntity
  8
Make2D$可见线$普通线
  0
POLYLINE
  5
91
330
1F
100
AcDbEntity
  8
Make2D$可见线$普通线
100
AcDb2dPolyline
 66
     1
 10
0.0
 20
0.0
 30
0.0
  0
VERTEX
  5
92
330
91
100
AcDbEntity
  8
Make2D$可见线$普通线
100
AcDbVertex
100
AcDb2dVertex
 10
46.00013040112842
 20
527.7690074554338
 30
0.0
  0
VERTEX
  5
93
330
91
100
AcDbEntity
  8
Make2D$可见线$普通线
100
AcDbVertex
100
AcDb2dVertex
 10
46.00013040112842
 20
548.4477440987323
 30
0.0
  0
VERTEX
  5
94
330
91
100
AcDbEntity
  8
Make2D$可见线$普通线
100
AcDbVertex
100
AcDb2dVertex
 10
46.00019560169258
 20
556.4477440987323
 30
0.0
 42
0.414236614359679
  0
VERTEX
  5
95
330
91
100
AcDbEntity
  8
Make2D$可见线$普通线
100
AcDbVertex
100
AcDb2dVertex
 10
44.00021733521501
 20
558.4477440987322
 30
0.0
  0
VERTEX
  5
96
330
91
100
AcDbEntity
  8
Make2D$可见线$普通线
100
AcDbVertex
100
AcDb2dVertex
 10
2.000043467041829
 20
558.4477440987323
 30
0.0
 42
0.4142365417623986
  0
VERTEX
  5
97
330
91
100
AcDbEntity
  8
Make2D$可见线$普通线
100
AcDbVertex
100
AcDb2dVertex
 10
0.0000652005642698
 20
556.4477440987323
 30
0.0
  0
VERTEX
  5
98
330
91
100
AcDbEntity
  8
Make2D$可见线$普通线
100
AcDbVertex
100
AcDb2dVertex
 10
0.0001304011284162
 20
548.4477440987484
 30
0.0
  0
VERTEX
  5
99
330
91
100
AcDbEntity
  8
Make2D$可见线$普通线
100
AcDbVertex
100
AcDb2dVertex
 10
0.0001304011284244
 20
527.7690074554338
 30
0.0
  0
SEQEND
  5
9A
330
91
100
AcDbEntity
  8
Make2D$可见线$普通线
  0
POLYLINE
  5
9C
330
1F
100
AcDbEntity
  8
E37327
100
AcDb2dPolyline
 66
     1
 10
0.0
 20
0.0
 30
0.0
  0
VERTEX
  5
9D
330
9C
100
AcDbEntity
  8
E37327
100
AcDbVertex
100
AcDb2dVertex
 10
6.000130401128416
 20
509.4477440987321
 30
0.0
  0
VERTEX
  5
9E
330
9C
100
AcDbEntity
  8
E37327
100
AcDbVertex
100
AcDb2dVertex
 10
5.630989776128416
 20
509.4536034737321
 30
0.0
  0
VERTEX
  5
9F
330
9C
100
AcDbEntity
  8
E37327
100
AcDbVertex
100
AcDb2dVertex
 10
5.273567901128415
 20
509.4711815987321
 30
0.0
  0
VERTEX
  5
A0
330
9C
100
AcDbEntity
  8
E37327
100
AcDbVertex
100
AcDb2dVertex
 10
5.099251494878414
 20
509.4843651924821
 30
0.0
  0
VERTEX
  5
A1
330
9C
100
AcDbEntity
  8
E37327
100
AcDbVertex
100
AcDb2dVertex
 10
4.927864776128414
 20
509.5004784737321
 30
0.0
  0
VERTEX
  5
A2
330
9C
100
AcDbEntity
  8
E37327
100
AcDbVertex
100
AcDb2dVertex
 10
4.759407744878414
 20
509.5195214424821
 30
0.0
  0
VERTEX
  5
A3
330
9C
100
AcDbEntity
  8
E37327
100
AcDbVertex
100
AcDb2dVertex
 10
4.593880401128414
 20
509.5414940987321
 30
0.0
  0
VERTEX
  5
A4
330
9C
100
AcDbEntity
  8
E37327
100
AcDbVertex
100
AcDb2dVertex
 10
4.431282744878414
 20
509.5663964424821
 30
0.0
  0
VERTEX
  5
A5
330
9C
100
AcDbEntity
  8
E37327
100
AcDbVertex
100
AcDb2dVertex
 10
4.271614776128414
 20
509.5942284737321
 30
0.0
  0
VERTEX
  5
A6
330
9C
100
AcDbEntity
  8
E37327
100
AcDbVertex
100
AcDb2dVertex
 10
4.114876494878414
 20
509.6249901924821
 30
0.0
  0
VERTEX
  5
A7
330
9C
100
AcDbEntity
  8
E37327
100
AcDbVertex
100
AcDb2dVertex
 10
3.961067901128414
 20
509.6586815987321
 30
0.0
  0
VERTEX
  5
A8
330
9C
100
AcDbEntity
  8
E37327
100
AcDbVertex
100
AcDb2dVertex
 10
3.810188994878414
 20
509.6953026924821
 30
0.0
  0
VERTEX
  5
A9
330
9C
100
AcDbEntity
  8
E37327
100
AcDbVertex
100
AcDb2dVertex
 10
3.662239776128414
 20
509.7348534737321
 30
0.0
  0
VERTEX
  5
AA
330
9C
100
AcDbEntity
  8
E37327
100
AcDbVertex
100
AcDb2dVertex
 10
3.517220244878414
 20
509.7773339424821
 30
0.0
  0
VERTEX
  5
AB
330
9C
100
AcDbEntity
  8
E37327
100
AcDbVertex
100
AcDb2dVertex
 10
3.375130401128414
 20
509.8227440987321
 30
0.0
  0
VERTEX
  5
AC
330
9C
100
AcDbEntity
  8
E37327
100
AcDbVertex
100
AcDb2dVertex
 10
3.235970244878414
 20
509.8710839424821
 30
0.0
  0
VERTEX
  5
AD
330
9C
100
AcDbEntity
  8
E37327
100
AcDbVertex
100
AcDb2dVertex
 10
3.099739776128414
 20
509.9223534737321
 30
0.0
  0
VERTEX
  5
AE
330
9C
100
AcDbEntity
  8
E37327
100
AcDbVertex
100
AcDb2dVertex
 10
2.966438994878414
 20
509.9765526924821
 30
0.0
  0
VERTEX
  5
AF
330
9C
100
AcDbEntity
  8
E37327
100
AcDbVertex
100
AcDb2dVertex
 10
2.836067901128414
 20
510.0336815987321
 30
0.0
  0
VERTEX
  5
B0
330
9C
100
AcDbEntity
  8
E37327
100
AcDbVertex
100
AcDb2dVertex
 10
2.708626494878414
 20
510.0937401924821
 30
0.0
  0
VERTEX
  5
B1
330
9C
100
AcDbEntity
  8
E37327
100
AcDbVertex
100
AcDb2dVertex
 10
2.584114776128414
 20
510.1567284737321
 30
0.0
  0
VERTEX
  5
B2
330
9C
100
AcDbEntity
  8
E37327
100
AcDbVertex
100
AcDb2dVertex
 10
2.462532744878414
 20
510.2226464424821
 30
0.0
  0
VERTEX
  5
B3
330
9C
100
AcDbEntity
  8
E37327
100
AcDbVertex
100
AcDb2dVertex
 10
2.343880401128414
 20
510.2914940987321
 30
0.0
  0
VERTEX
  5
B4
330
9C
100
AcDbEntity
  8
E37327
100
AcDbVertex
100
AcDb2dVertex
 10
2.228157744878414
 20
510.3632714424821
 30
0.0
  0
VERTEX
  5
B5
330
9C
100
AcDbEntity
  8
E37327
100
AcDbVertex
100
AcDb2dVertex
 10
2.115364776128414
 20
510.4379784737321
 30
0.0
  0
VERTEX
  5
B6
330
9C
100
AcDbEntity
  8
E37327
100
AcDbVertex
100
AcDb2dVertex
 10
2.005501494878414
 20
510.5156151924821
 30
0.0
  0
VERTEX
  5
B7
330
9C
100
AcDbEntity
  8
E37327
100
AcDbVertex
100
AcDb2dVertex
 10
1.898567901128414
 20
510.5961815987321
 30
0.0
  0
VERTEX
  5
B8
330
9C
100
AcDbEntity
  8
E37327
100
AcDbVertex
100
AcDb2dVertex
 10
1.794563994878414
 20
510.6796776924821
 30
0.0
  0
VERTEX
  5
B9
330
9C
100
AcDbEntity
  8
E37327
100
AcDbVertex
100
AcDb2dVertex
 10
1.693489776128414
 20
510.7661034737321
 30
0.0
  0
VERTEX
  5
BA
330
9C
100
AcDbEntity
  8
E37327
100
AcDbVertex
100
AcDb2dVertex
 10
1.595345244878414
 20
510.8554589424821
 30
0.0
  0
VERTEX
  5
BB
330
9C
100
AcDbEntity
  8
E37327
100
AcDbVertex
100
AcDb2dVertex
 10
1.500130401128414
 20
510.9477440987321
 30
0.0
  0
VERTEX
  5
BC
330
9C
100
AcDbEntity
  8
E37327
100
AcDbVertex
100
AcDb2dVertex
 10
1.407845244878414
 20
511.0429589424821
 30
0.0
  0
VERTEX
  5
BD
330
9C
100
AcDbEntity
  8
E37327
100
AcDbVertex
100
AcDb2dVertex
 10
1.318489776128414
 20
511.1411034737321
 30
0.0
  0
VERTEX
  5
BE
330
9C
100
AcDbEntity
  8
E37327
100
AcDbVertex
100
AcDb2dVertex
 10
1.232063994878414
 20
511.2421776924821
 30
0.0
  0
VERTEX
  5
BF
330
9C
100
AcDbEntity
  8
E37327
100
AcDbVertex
100
AcDb2dVertex
 10
1.148567901128414
 20
511.3461815987321
 30
0.0
  0
VERTEX
  5
C0
330
9C
100
AcDbEntity
  8
E37327
100
AcDbVertex
100
AcDb2dVertex
 10
1.068001494878414
 20
511.4531151924821
 30
0.0
  0
VERTEX
  5
C1
330
9C
100
AcDbEntity
  8
E37327
100
AcDbVertex
100
AcDb2dVertex
 10
0.9903647761284137
 20
511.5629784737321
 30
0.0
  0
VERTEX
  5
C2
330
9C
100
AcDbEntity
  8
E37327
100
AcDbVertex
100
AcDb2dVertex
 10
0.9156577448784138
 20
511.6757714424821
 30
0.0
  0
VERTEX
  5
C3
330
9C
100
AcDbEntity
  8
E37327
100
AcDbVertex
100
AcDb2dVertex
 10
0.8438804011284138
 20
511.7914940987321
 30
0.0
  0
VERTEX
  5
C4
330
9C
100
AcDbEntity
  8
E37327
100
AcDbVertex
100
AcDb2dVertex
 10
0.7750327448784138
 20
511.9101464424821
 30
0.0
  0
VERTEX
  5
C5
330
9C
100
AcDbEntity
  8
E37327
100
AcDbVertex
100
AcDb2dVertex
 10
0.7091147761284138
 20
512.0317284737321
 30
0.0
  0
VERTEX
  5
C6
330
9C
100
AcDbEntity
  8
E37327
100
AcDbVertex
100
AcDb2dVertex
 10
0.6461264948784138
 20
512.1562401924821
 30
0.0
  0
VERTEX
  5
C7
330
9C
100
AcDbEntity
  8
E37327
100
AcDbVertex
100
AcDb2dVertex
 10
0.5860679011284139
 20
512.2836815987321
 30
0.0
  0
VERTEX
  5
C8
330
9C
100
AcDbEntity
  8
E37327
100
AcDbVertex
100
AcDb2dVertex
 10
0.528938994878414
 20
512.4140526924821
 30
0.0
  0
VERTEX
  5
C9
330
9C
100
AcDbEntity
  8
E37327
100
AcDbVertex
100
AcDb2dVertex
 10
0.4747397761284141
 20
512.5473534737321
 30
0.0
  0
VERTEX
  5
CA
330
9C
100
AcDbEntity
  8
E37327
100
AcDbVertex
100
AcDb2dVertex
 10
0.4234702448784141
 20
512.6835839424821
 30
0.0
  0
VERTEX
  5
CB
330
9C
100
AcDbEntity
  8
E37327
100
AcDbVertex
100
AcDb2dVertex
 10
0.3751304011284142
 20
512.8227440987321
 30
0.0
  0
VERTEX
  5
CC
330
9C
100
AcDbEntity
  8
E37327
100
AcDbVertex
100
AcDb2dVertex
 10
0.3297202448784143
 20
512.9648339424821
 30
0.0
  0
VERTEX
  5
CD
330
9C
100
AcDbEntity
  8
E37327
100
AcDbVertex
100
AcDb2dVertex
 10
0.2872397761284144
 20
513.1098534737321
 30
0.0
  0
VERTEX
  5
CE
330
9C
100
AcDbEntity
  8
E37327
100
AcDbVertex
100
AcDb2dVertex
 10
0.2476889948784145
 20
513.2578026924821
 30
0.0
  0
VERTEX
  5
CF
330
9C
100
AcDbEntity
  8
E37327
100
AcDbVertex
100
AcDb2dVertex
 10
0.2110679011284146
 20
513.4086815987321
 30
0.0
  0
VERTEX
  5
D0
330
9C
100
AcDbEntity
  8
E37327
100
AcDbVertex
100
AcDb2dVertex
 10
0.1773764948784147
 20
513.5624901924821
 30
0.0
  0
VERTEX
  5
D1
330
9C
100
AcDbEntity
  8
E37327
100
AcDbVertex
100
AcDb2dVertex
 10
0.1466147761284148
 20
513.7192284737321
 30
0.0
  0
VERTEX
  5
D2
330
9C
100
AcDbEntity
  8
E37327
100
AcDbVertex
100
AcDb2dVertex
 10
0.1187827448784149
 20
513.8788964424821
 30
0.0
  0
VERTEX
  5
D3
330
9C
100
AcDbEntity
  8
E37327
100
AcDbVertex
100
AcDb2dVertex
 10
0.0938804011284151
 20
514.0414940987321
 30
0.0
  0
VERTEX
  5
D4
330
9C
100
AcDbEntity
  8
E37327
100
AcDbVertex
100
AcDb2dVertex
 10
0.0719077448784152
 20
514.2070214424821
 30
0.0
  0
VERTEX
  5
D5
330
9C
100
AcDbEntity
  8
E37327
100
AcDbVertex
100
AcDb2dVertex
 10
0.0528647761284153
 20
514.3754784737321
 30
0.0
  0
VERTEX
  5
D6
330
9C
100
AcDbEntity
  8
E37327
100
AcDbVertex
100
AcDb2dVertex
 10
0.0367514948784155
 20
514.5468651924821
 30
0.0
  0
VERTEX
  5
D7
330
9C
100
AcDbEntity
  8
E37327
100
AcDbVertex
100
AcDb2dVertex
 10
0.0235679011284156
 20
514.7211815987321
 30
0.0
  0
VERTEX
  5
D8
330
9C
100
AcDbEntity
  8
E37327
100
AcDbVertex
100
AcDb2dVertex
 10
0.0059897761284159
 20
515.0786034737321
 30
0.0
  0
VERTEX
  5
D9
330
9C
100
AcDbEntity
  8
E37327
100
AcDbVertex
100
AcDb2dVertex
 10
0.0001304011284162
 20
515.4477440987321
 30
0.0
  0
VERTEX
  5
DA
330
9C
100
AcDbEntity
  8
E37327
100
AcDbVertex
100
AcDb2dVertex
 10
0.0001304011284162
 20
527.4477440987323
 30
0.0
  0
VERTEX
  5
DB
330
9C
100
AcDbEntity
  8
E37327
100
AcDbVertex
100
AcDb2dVertex
 10
0.0059897761284159
 20
527.8168847237323
 30
0.0
  0
VERTEX
  5
DC
330
9C
100
AcDbEntity
  8
E37327
100
AcDbVertex
100
AcDb2dVertex
 10
0.0235679011284156
 20
528.1743065987323
 30
0.0
  0
VERTEX
  5
DD
330
9C
100
AcDbEntity
  8
E37327
100
AcDbVertex
100
AcDb2dVertex
 10
0.0367514948784155
 20
528.3486230049823
 30
0.0
  0
VERTEX
  5
DE
330
9C
100
AcDbEntity
  8
E37327
100
AcDbVertex
100
AcDb2dVertex
 10
0.0528647761284153
 20
528.5200097237323
 30
0.0
  0
VERTEX
  5
DF
330
9C
100
AcDbEntity
  8
E37327
100
AcDbVertex
100
AcDb2dVertex
 10
0.0719077448784152
 20
528.6884667549823
 30
0.0
  0
VERTEX
  5
E0
330
9C
100
AcDbEntity
  8
E37327
100
AcDbVertex
100
AcDb2dVertex
 10
0.0938804011284151
 20
528.8539940987323
 30
0.0
  0
VERTEX
  5
E1
330
9C
100
AcDbEntity
  8
E37327
100
AcDbVertex
100
AcDb2dVertex
 10
0.1187827448784149
 20
529.0165917549823
 30
0.0
  0
VERTEX
  5
E2
330
9C
100
AcDbEntity
  8
E37327
100
AcDbVertex
100
AcDb2dVertex
 10
0.1466147761284148
 20
529.1762597237323
 30
0.0
  0
VERTEX
  5
E3
330
9C
100
AcDbEntity
  8
E37327
100
AcDbVertex
100
AcDb2dVertex
 10
0.1773764948784147
 20
529.3329980049823
 30
0.0
  0
VERTEX
  5
E4
330
9C
100
AcDbEntity
  8
E37327
100
AcDbVertex
100
AcDb2dVertex
 10
0.2110679011284146
 20
529.4868065987323
 30
0.0
  0
VERTEX
  5
E5
330
9C
100
AcDbEntity
  8
E37327
100
AcDbVertex
100
AcDb2dVertex
 10
0.2476889948784145
 20
529.6376855049823
 30
0.0
  0
VERTEX
  5
E6
330
9C
100
AcDbEntity
  8
E37327
100
AcDbVertex
100
AcDb2dVertex
 10
0.2872397761284144
 20
529.7856347237323
 30
0.0
  0
VERTEX
  5
E7
330
9C
100
AcDbEntity
  8
E37327
100
AcDbVertex
100
AcDb2dVertex
 10
0.3297202448784143
 20
529.9306542549823
 30
0.0
  0
VERTEX
  5
E8
330
9C
100
AcDbEntity
  8
E37327
100
AcDbVertex
100
AcDb2dVertex
 10
0.3751304011284142
 20
530.0727440987323
 30
0.0
  0
VERTEX
  5
E9
330
9C
100
AcDbEntity
  8
E37327
100
AcDbVertex
100
AcDb2dVertex
 10
0.4234702448784141
 20
530.2119042549823
 30
0.0
  0
VERTEX
  5
EA
330
9C
100
AcDbEntity
  8
E37327
100
AcDbVertex
100
AcDb2dVertex
 10
0.4747397761284141
 20
530.3481347237323
 30
0.0
  0
VERTEX
  5
EB
330
9C
100
AcDbEntity
  8
E37327
100
AcDbVertex
100
AcDb2dVertex
 10
0.528938994878414
 20
530.4814355049823
 30
0.0
  0
VERTEX
  5
EC
330
9C
100
AcDbEntity
  8
E37327
100
AcDbVertex
100
AcDb2dVertex
 10
0.5860679011284139
 20
530.6118065987323
 30
0.0
  0
VERTEX
  5
ED
330
9C
100
AcDbEntity
  8
E37327
100
AcDbVertex
100
AcDb2dVertex
 10
0.6461264948784138
 20
530.7392480049823
 30
0.0
  0
VERTEX
  5
EE
330
9C
100
AcDbEntity
  8
E37327
100
AcDbVertex
100
AcDb2dVertex
 10
0.7091147761284138
 20
530.8637597237323
 30
0.0
  0
VERTEX
  5
EF
330
9C
100
AcDbEntity
  8
E37327
100
AcDbVertex
100
AcDb2dVertex
 10
0.7750327448784138
 20
530.9853417549823
 30
0.0
  0
VERTEX
  5
F0
330
9C
100
AcDbEntity
  8
E37327
100
AcDbVertex
100
AcDb2dVertex
 10
0.8438804011284138
 20
531.1039940987323
 30
0.0
  0
VERTEX
  5
F1
330
9C
100
AcDbEntity
  8
E37327
100
AcDbVertex
100
AcDb2dVertex
 10
0.9156577448784138
 20
531.2197167549823
 30
0.0
  0
VERTEX
  5
F2
330
9C
100
AcDbEntity
  8
E37327
100
AcDbVertex
100
AcDb2dVertex
 10
0.9903647761284137
 20
531.3325097237323
 30
0.0
  0
VERTEX
  5
F3
330
9C
100
AcDbEntity
  8
E37327
100
AcDbVertex
100
AcDb2dVertex
 10
1.068001494878414
 20
531.4423730049823
 30
0.0
  0
VERTEX
  5
F4
330
9C
100
AcDbEntity
  8
E37327
100
AcDbVertex
100
AcDb2dVertex
 10
1.148567901128414
 20
531.5493065987323
 30
0.0
  0
VERTEX
  5
F5
330
9C
100
AcDbEntity
  8
E37327
100
AcDbVertex
100
AcDb2dVertex
 10
1.232063994878414
 20
531.6533105049823
 30
0.0
  0
VERTEX
  5
F6
330
9C
100
AcDbEntity
  8
E37327
100
AcDbVertex
100
AcDb2dVertex
 10
1.318489776128414
 20
531.7543847237323
 30
0.0
  0
VERTEX
  5
F7
330
9C
100
AcDbEntity
  8
E37327
100
AcDbVertex
100
AcDb2dVertex
 10
1.407845244878414
 20
531.8525292549823
 30
0.0
  0
VERTEX
  5
F8
330
9C
100
AcDbEntity
  8
E37327
100
AcDbVertex
100
AcDb2dVertex
 10
1.500130401128414
 20
531.9477440987323
 30
0.0
  0
VERTEX
  5
F9
330
9C
100
AcDbEntity
  8
E37327
100
AcDbVertex
100
AcDb2dVertex
 10
1.595345244878414
 20
532.0400292549823
 30
0.0
  0
VERTEX
  5
FA
330
9C
100
AcDbEntity
  8
E37327
100
AcDbVertex
100
AcDb2dVertex
 10
1.693489776128414
 20
532.1293847237323
 30
0.0
  0
VERTEX
  5
FB
330
9C
100
AcDbEntity
  8
E37327
100
AcDbVertex
100
AcDb2dVertex
 10
1.794563994878414
 20
532.2158105049823
 30
0.0
  0
VERTEX
  5
FC
330
9C
100
AcDbEntity
  8
E37327
100
AcDbVertex
100
AcDb2dVertex
 10
1.898567901128414
 20
532.2993065987323
 30
0.0
  0
VERTEX
  5
FD
330
9C
100
AcDbEntity
  8
E37327
100
AcDbVertex
100
AcDb2dVertex
 10
2.005501494878414
 20
532.3798730049823
 30
0.0
  0
VERTEX
  5
FE
330
9C
100
AcDbEntity
  8
E37327
100
AcDbVertex
100
AcDb2dVertex
 10
2.115364776128414
 20
532.4575097237323
 30
0.0
  0
VERTEX
  5
FF
330
9C
100
AcDbEntity
  8
E37327
100
AcDbVertex
100
AcDb2dVertex
 10
2.228157744878414
 20
532.5322167549823
 30
0.0
  0
VERTEX
  5
100
330
9C
100
AcDbEntity
  8
E37327
100
AcDbVertex
100
AcDb2dVertex
 10
2.343880401128414
 20
532.6039940987323
 30
0.0
  0
VERTEX
  5
101
330
9C
100
AcDbEntity
  8
E37327
100
AcDbVertex
100
AcDb2dVertex
 10
2.462532744878414
 20
532.6728417549823
 30
0.0
  0
VERTEX
  5
102
330
9C
100
AcDbEntity
  8
E37327
100
AcDbVertex
100
AcDb2dVertex
 10
2.584114776128414
 20
532.7387597237323
 30
0.0
  0
VERTEX
  5
103
330
9C
100
AcDbEntity
  8
E37327
100
AcDbVertex
100
AcDb2dVertex
 10
2.708626494878414
 20
532.8017480049823
 30
0.0
  0
VERTEX
  5
104
330
9C
100
AcDbEntity
  8
E37327
100
AcDbVertex
100
AcDb2dVertex
 10
2.836067901128414
 20
532.8618065987323
 30
0.0
  0
VERTEX
  5
105
330
9C
100
AcDbEntity
  8
E37327
100
AcDbVertex
100
AcDb2dVertex
 10
2.966438994878414
 20
532.9189355049823
 30
0.0
  0
VERTEX
  5
106
330
9C
100
AcDbEntity
  8
E37327
100
AcDbVertex
100
AcDb2dVertex
 10
3.099739776128414
 20
532.9731347237323
 30
0.0
  0
VERTEX
  5
107
330
9C
100
AcDbEntity
  8
E37327
100
AcDbVertex
100
AcDb2dVertex
 10
3.235970244878414
 20
533.0244042549823
 30
0.0
  0
VERTEX
  5
108
330
9C
100
AcDbEntity
  8
E37327
100
AcDbVertex
100
AcDb2dVertex
 10
3.375130401128414
 20
533.0727440987323
 30
0.0
  0
VERTEX
  5
109
330
9C
100
AcDbEntity
  8
E37327
100
AcDbVertex
100
AcDb2dVertex
 10
3.517220244878414
 20
533.1181542549823
 30
0.0
  0
VERTEX
  5
10A
330
9C
100
AcDbEntity
  8
E37327
100
AcDbVertex
100
AcDb2dVertex
 10
3.662239776128414
 20
533.1606347237323
 30
0.0
  0
VERTEX
  5
10B
330
9C
100
AcDbEntity
  8
E37327
100
AcDbVertex
100
AcDb2dVertex
 10
3.810188994878414
 20
533.2001855049823
 30
0.0
  0
VERTEX
  5
10C
330
9C
100
AcDbEntity
  8
E37327
100
AcDbVertex
100
AcDb2dVertex
 10
3.961067901128414
 20
533.2368065987323
 30
0.0
  0
VERTEX
  5
10D
330
9C
100
AcDbEntity
  8
E37327
100
AcDbVertex
100
AcDb2dVertex
 10
4.114876494878414
 20
533.2704980049823
 30
0.0
  0
VERTEX
  5
10E
330
9C
100
AcDbEntity
  8
E37327
100
AcDbVertex
100
AcDb2dVertex
 10
4.271614776128414
 20
533.3012597237323
 30
0.0
  0
VERTEX
  5
10F
330
9C
100
AcDbEntity
  8
E37327
100
AcDbVertex
100
AcDb2dVertex
 10
4.431282744878414
 20
533.3290917549823
 30
0.0
  0
VERTEX
  5
110
330
9C
100
AcDbEntity
  8
E37327
100
AcDbVertex
100
AcDb2dVertex
 10
4.593880401128414
 20
533.3539940987323
 30
0.0
  0
VERTEX
  5
111
330
9C
100
AcDbEntity
  8
E37327
100
AcDbVertex
100
AcDb2dVertex
 10
4.759407744878414
 20
533.3759667549823
 30
0.0
  0
VERTEX
  5
112
330
9C
100
AcDbEntity
  8
E37327
100
AcDbVertex
100
AcDb2dVertex
 10
4.927864776128414
 20
533.3950097237323
 30
0.0
  0
VERTEX
  5
113
330
9C
100
AcDbEntity
  8
E37327
100
AcDbVertex
100
AcDb2dVertex
 10
5.099251494878414
 20
533.4111230049823
 30
0.0
  0
VERTEX
  5
114
330
9C
100
AcDbEntity
  8
E37327
100
AcDbVertex
100
AcDb2dVertex
 10
5.273567901128415
 20
533.4243065987323
 30
0.0
  0
VERTEX
  5
115
330
9C
100
AcDbEntity
  8
E37327
100
AcDbVertex
100
AcDb2dVertex
 10
5.630989776128416
 20
533.4418847237323
 30
0.0
  0
VERTEX
  5
116
330
9C
100
AcDbEntity
  8
E37327
100
AcDbVertex
100
AcDb2dVertex
 10
6.000130401128416
 20
533.4477440987323
 30
0.0
  0
VERTEX
  5
117
330
9C
100
AcDbEntity
  8
E37327
100
AcDbVertex
100
AcDb2dVertex
 10
40.00013040112842
 20
533.4477440987323
 30
0.0
  0
VERTEX
  5
118
330
9C
100
AcDbEntity
  8
E37327
100
AcDbVertex
100
AcDb2dVertex
 10
40.36927102612842
 20
533.4418847237323
 30
0.0
  0
VERTEX
  5
119
330
9C
100
AcDbEntity
  8
E37327
100
AcDbVertex
100
AcDb2dVertex
 10
40.72669290112842
 20
533.4243065987323
 30
0.0
  0
VERTEX
  5
11A
330
9C
100
AcDbEntity
  8
E37327
100
AcDbVertex
100
AcDb2dVertex
 10
40.90100930737842
 20
533.4111230049823
 30
0.0
  0
VERTEX
  5
11B
330
9C
100
AcDbEntity
  8
E37327
100
AcDbVertex
100
AcDb2dVertex
 10
41.07239602612842
 20
533.3950097237323
 30
0.0
  0
VERTEX
  5
11C
330
9C
100
AcDbEntity
  8
E37327
100
AcDbVertex
100
AcDb2dVertex
 10
41.24085305737842
 20
533.3759667549823
 30
0.0
  0
VERTEX
  5
11D
330
9C
100
AcDbEntity
  8
E37327
100
AcDbVertex
100
AcDb2dVertex
 10
41.40638040112842
 20
533.3539940987323
 30
0.0
  0
VERTEX
  5
11E
330
9C
100
AcDbEntity
  8
E37327
100
AcDbVertex
100
AcDb2dVertex
 10
41.56897805737842
 20
533.3290917549823
 30
0.0
  0
VERTEX
  5
11F
330
9C
100
AcDbEntity
  8
E37327
100
AcDbVertex
100
AcDb2dVertex
 10
41.72864602612842
 20
533.3012597237323
 30
0.0
  0
VERTEX
  5
120
330
9C
100
AcDbEntity
  8
E37327
100
AcDbVertex
100
AcDb2dVertex
 10
41.88538430737842
 20
533.2704980049823
 30
0.0
  0
VERTEX
  5
121
330
9C
100
AcDbEntity
  8
E37327
100
AcDbVertex
100
AcDb2dVertex
 10
42.03919290112842
 20
533.2368065987323
 30
0.0
  0
VERTEX
  5
122
330
9C
100
AcDbEntity
  8
E37327
100
AcDbVertex
100
AcDb2dVertex
 10
42.19007180737842
 20
533.2001855049823
 30
0.0
  0
VERTEX
  5
123
330
9C
100
AcDbEntity
  8
E37327
100
AcDbVertex
100
AcDb2dVertex
 10
42.33802102612842
 20
533.1606347237323
 30
0.0
  0
VERTEX
  5
124
330
9C
100
AcDbEntity
  8
E37327
100
AcDbVertex
100
AcDb2dVertex
 10
42.48304055737842
 20
533.1181542549823
 30
0.0
  0
VERTEX
  5
125
330
9C
100
AcDbEntity
  8
E37327
100
AcDbVertex
100
AcDb2dVertex
 10
42.62513040112842
 20
533.0727440987323
 30
0.0
  0
VERTEX
  5
126
330
9C
100
AcDbEntity
  8
E37327
100
AcDbVertex
100
AcDb2dVertex
 10
42.76429055737842
 20
533.0244042549823
 30
0.0
  0
VERTEX
  5
127
330
9C
100
AcDbEntity
  8
E37327
100
AcDbVertex
100
AcDb2dVertex
 10
42.90052102612842
 20
532.9731347237323
 30
0.0
  0
VERTEX
  5
128
330
9C
100
AcDbEntity
  8
E37327
100
AcDbVertex
100
AcDb2dVertex
 10
43.03382180737842
 20
532.9189355049823
 30
0.0
  0
VERTEX
  5
129
330
9C
100
AcDbEntity
  8
E37327
100
AcDbVertex
100
AcDb2dVertex
 10
43.16419290112842
 20
532.8618065987323
 30
0.0
  0
VERTEX
  5
12A
330
9C
100
AcDbEntity
  8
E37327
100
AcDbVertex
100
AcDb2dVertex
 10
43.29163430737842
 20
532.8017480049823
 30
0.0
  0
VERTEX
  5
12B
330
9C
100
AcDbEntity
  8
E37327
100
AcDbVertex
100
AcDb2dVertex
 10
43.41614602612842
 20
532.7387597237323
 30
0.0
  0
VERTEX
  5
12C
330
9C
100
AcDbEntity
  8
E37327
100
AcDbVertex
100
AcDb2dVertex
 10
43.53772805737842
 20
532.6728417549823
 30
0.0
  0
VERTEX
  5
12D
330
9C
100
AcDbEntity
  8
E37327
100
AcDbVertex
100
AcDb2dVertex
 10
43.65638040112842
 20
532.6039940987323
 30
0.0
  0
VERTEX
  5
12E
330
9C
100
AcDbEntity
  8
E37327
100
AcDbVertex
100
AcDb2dVertex
 10
43.77210305737842
 20
532.5322167549823
 30
0.0
  0
VERTEX
  5
12F
330
9C
100
AcDbEntity
  8
E37327
100
AcDbVertex
100
AcDb2dVertex
 10
43.88489602612842
 20
532.4575097237323
 30
0.0
  0
VERTEX
  5
130
330
9C
100
AcDbEntity
  8
E37327
100
AcDbVertex
100
AcDb2dVertex
 10
43.99475930737842
 20
532.3798730049823
 30
0.0
  0
VERTEX
  5
131
330
9C
100
AcDbEntity
  8
E37327
100
AcDbVertex
100
AcDb2dVertex
 10
44.10169290112842
 20
532.2993065987323
 30
0.0
  0
VERTEX
  5
132
330
9C
100
AcDbEntity
  8
E37327
100
AcDbVertex
100
AcDb2dVertex
 10
44.20569680737842
 20
532.2158105049823
 30
0.0
  0
VERTEX
  5
133
330
9C
100
AcDbEntity
  8
E37327
100
AcDbVertex
100
AcDb2dVertex
 10
44.30677102612842
 20
532.1293847237323
 30
0.0
  0
VERTEX
  5
134
330
9C
100
AcDbEntity
  8
E37327
100
AcDbVertex
100
AcDb2dVertex
 10
44.40491555737842
 20
532.0400292549823
 30
0.0
  0
VERTEX
  5
135
330
9C
100
AcDbEntity
  8
E37327
100
AcDbVertex
100
AcDb2dVertex
 10
44.50013040112842
 20
531.9477440987323
 30
0.0
  0
VERTEX
  5
136
330
9C
100
AcDbEntity
  8
E37327
100
AcDbVertex
100
AcDb2dVertex
 10
44.59241555737842
 20
531.8525292549823
 30
0.0
  0
VERTEX
  5
137
330
9C
100
AcDbEntity
  8
E37327
100
AcDbVertex
100
AcDb2dVertex
 10
44.68177102612842
 20
531.7543847237323
 30
0.0
  0
VERTEX
  5
138
330
9C
100
AcDbEntity
  8
E37327
100
AcDbVertex
100
AcDb2dVertex
 10
44.76819680737842
 20
531.6533105049823
 30
0.0
  0
VERTEX
  5
139
330
9C
100
AcDbEntity
  8
E37327
100
AcDbVertex
100
AcDb2dVertex
 10
44.85169290112842
 20
531.5493065987323
 30
0.0
  0
VERTEX
  5
13A
330
9C
100
AcDbEntity
  8
E37327
100
AcDbVertex
100
AcDb2dVertex
 10
44.93225930737842
 20
531.4423730049823
 30
0.0
  0
VERTEX
  5
13B
330
9C
100
AcDbEntity
  8
E37327
100
AcDbVertex
100
AcDb2dVertex
 10
45.00989602612842
 20
531.3325097237323
 30
0.0
  0
VERTEX
  5
13C
330
9C
100
AcDbEntity
  8
E37327
100
AcDbVertex
100
AcDb2dVertex
 10
45.08460305737842
 20
531.2197167549823
 30
0.0
  0
VERTEX
  5
13D
330
9C
100
AcDbEntity
  8
E37327
100
AcDbVertex
100
AcDb2dVertex
 10
45.15638040112842
 20
531.1039940987323
 30
0.0
  0
VERTEX
  5
13E
330
9C
100
AcDbEntity
  8
E37327
100
AcDbVertex
100
AcDb2dVertex
 10
45.22522805737842
 20
530.9853417549823
 30
0.0
  0
VERTEX
  5
13F
330
9C
100
AcDbEntity
  8
E37327
100
AcDbVertex
100
AcDb2dVertex
 10
45.29114602612842
 20
530.8637597237323
 30
0.0
  0
VERTEX
  5
140
330
9C
100
AcDbEntity
  8
E37327
100
AcDbVertex
100
AcDb2dVertex
 10
45.35413430737842
 20
530.7392480049823
 30
0.0
  0
VERTEX
  5
141
330
9C
100
AcDbEntity
  8
E37327
100
AcDbVertex
100
AcDb2dVertex
 10
45.41419290112842
 20
530.6118065987323
 30
0.0
  0
VERTEX
  5
142
330
9C
100
AcDbEntity
  8
E37327
100
AcDbVertex
100
AcDb2dVertex
 10
45.47132180737842
 20
530.4814355049823
 30
0.0
  0
VERTEX
  5
143
330
9C
100
AcDbEntity
  8
E37327
100
AcDbVertex
100
AcDb2dVertex
 10
45.52552102612842
 20
530.3481347237323
 30
0.0
  0
VERTEX
  5
144
330
9C
100
AcDbEntity
  8
E37327
100
AcDbVertex
100
AcDb2dVertex
 10
45.57679055737842
 20
530.2119042549823
 30
0.0
  0
VERTEX
  5
145
330
9C
100
AcDbEntity
  8
E37327
100
AcDbVertex
100
AcDb2dVertex
 10
45.62513040112842
 20
530.0727440987323
 30
0.0
  0
VERTEX
  5
146
330
9C
100
AcDbEntity
  8
E37327
100
AcDbVertex
100
AcDb2dVertex
 10
45.67054055737842
 20
529.9306542549823
 30
0.0
  0
VERTEX
  5
147
330
9C
100
AcDbEntity
  8
E37327
100
AcDbVertex
100
AcDb2dVertex
 10
45.71302102612842
 20
529.7856347237323
 30
0.0
  0
VERTEX
  5
148
330
9C
100
AcDbEntity
  8
E37327
100
AcDbVertex
100
AcDb2dVertex
 10
45.75257180737842
 20
529.6376855049823
 30
0.0
  0
VERTEX
  5
149
330
9C
100
AcDbEntity
  8
E37327
100
AcDbVertex
100
AcDb2dVertex
 10
45.78919290112842
 20
529.4868065987323
 30
0.0
  0
VERTEX
  5
14A
330
9C
100
AcDbEntity
  8
E37327
100
AcDbVertex
100
AcDb2dVertex
 10
45.82288430737842
 20
529.3329980049823
 30
0.0
  0
VERTEX
  5
14B
330
9C
100
AcDbEntity
  8
E37327
100
AcDbVertex
100
AcDb2dVertex
 10
45.85364602612842
 20
529.1762597237323
 30
0.0
  0
VERTEX
  5
14C
330
9C
100
AcDbEntity
  8
E37327
100
AcDbVertex
100
AcDb2dVertex
 10
45.88147805737842
 20
529.0165917549823
 30
0.0
  0
VERTEX
  5
14D
330
9C
100
AcDbEntity
  8
E37327
100
AcDbVertex
100
AcDb2dVertex
 10
45.90638040112842
 20
528.8539940987323
 30
0.0
  0
VERTEX
  5
14E
330
9C
100
AcDbEntity
  8
E37327
100
AcDbVertex
100
AcDb2dVertex
 10
45.92835305737842
 20
528.6884667549823
 30
0.0
  0
VERTEX
  5
14F
330
9C
100
AcDbEntity
  8
E37327
100
AcDbVertex
100
AcDb2dVertex
 10
45.94739602612842
 20
528.5200097237323
 30
0.0
  0
VERTEX
  5
150
330
9C
100
AcDbEntity
  8
E37327
100
AcDbVertex
100
AcDb2dVertex
 10
45.96350930737842
 20
528.3486230049823
 30
0.0
  0
VERTEX
  5
151
330
9C
100
AcDbEntity
  8
E37327
100
AcDbVertex
100
AcDb2dVertex
 10
45.97669290112842
 20
528.1743065987323
 30
0.0
  0
VERTEX
  5
152
330
9C
100
AcDbEntity
  8
E37327
100
AcDbVertex
100
AcDb2dVertex
 10
45.99427102612842
 20
527.8168847237323
 30
0.0
  0
VERTEX
  5
153
330
9C
100
AcDbEntity
  8
E37327
100
AcDbVertex
100
AcDb2dVertex
 10
46.00013040112842
 20
527.4477440987323
 30
0.0
  0
VERTEX
  5
154
330
9C
100
AcDbEntity
  8
E37327
100
AcDbVertex
100
AcDb2dVertex
 10
46.00013040112842
 20
515.4477440987321
 30
0.0
  0
VERTEX
  5
155
330
9C
100
AcDbEntity
  8
E37327
100
AcDbVertex
100
AcDb2dVertex
 10
45.99427102612842
 20
515.0786034737321
 30
0.0
  0
VERTEX
  5
156
330
9C
100
AcDbEntity
  8
E37327
100
AcDbVertex
100
AcDb2dVertex
 10
45.97669290112842
 20
514.7211815987321
 30
0.0
  0
VERTEX
  5
157
330
9C
100
AcDbEntity
  8
E37327
100
AcDbVertex
100
AcDb2dVertex
 10
45.96350930737842
 20
514.5468651924821
 30
0.0
  0
VERTEX
  5
158
330
9C
100
AcDbEntity
  8
E37327
100
AcDbVertex
100
AcDb2dVertex
 10
45.94739602612842
 20
514.3754784737321
 30
0.0
  0
VERTEX
  5
159
330
9C
100
AcDbEntity
  8
E37327
100
AcDbVertex
100
AcDb2dVertex
 10
45.92835305737842
 20
514.2070214424821
 30
0.0
  0
VERTEX
  5
15A
330
9C
100
AcDbEntity
  8
E37327
100
AcDbVertex
100
AcDb2dVertex
 10
45.90638040112842
 20
514.0414940987321
 30
0.0
  0
VERTEX
  5
15B
330
9C
100
AcDbEntity
  8
E37327
100
AcDbVertex
100
AcDb2dVertex
 10
45.88147805737842
 20
513.8788964424821
 30
0.0
  0
VERTEX
  5
15C
330
9C
100
AcDbEntity
  8
E37327
100
AcDbVertex
100
AcDb2dVertex
 10
45.85364602612842
 20
513.7192284737321
 30
0.0
  0
VERTEX
  5
15D
330
9C
100
AcDbEntity
  8
E37327
100
AcDbVertex
100
AcDb2dVertex
 10
45.82288430737842
 20
513.5624901924821
 30
0.0
  0
VERTEX
  5
15E
330
9C
100
AcDbEntity
  8
E37327
100
AcDbVertex
100
AcDb2dVertex
 10
45.78919290112842
 20
513.4086815987321
 30
0.0
  0
VERTEX
  5
15F
330
9C
100
AcDbEntity
  8
E37327
100
AcDbVertex
100
AcDb2dVertex
 10
45.75257180737842
 20
513.2578026924821
 30
0.0
  0
VERTEX
  5
160
330
9C
100
AcDbEntity
  8
E37327
100
AcDbVertex
100
AcDb2dVertex
 10
45.71302102612842
 20
513.1098534737321
 30
0.0
  0
VERTEX
  5
161
330
9C
100
AcDbEntity
  8
E37327
100
AcDbVertex
100
AcDb2dVertex
 10
45.67054055737842
 20
512.9648339424821
 30
0.0
  0
VERTEX
  5
162
330
9C
100
AcDbEntity
  8
E37327
100
AcDbVertex
100
AcDb2dVertex
 10
45.62513040112842
 20
512.8227440987321
 30
0.0
  0
VERTEX
  5
163
330
9C
100
AcDbEntity
  8
E37327
100
AcDbVertex
100
AcDb2dVertex
 10
45.57679055737842
 20
512.6835839424821
 30
0.0
  0
VERTEX
  5
164
330
9C
100
AcDbEntity
  8
E37327
100
AcDbVertex
100
AcDb2dVertex
 10
45.52552102612842
 20
512.5473534737321
 30
0.0
  0
VERTEX
  5
165
330
9C
100
AcDbEntity
  8
E37327
100
AcDbVertex
100
AcDb2dVertex
 10
45.47132180737842
 20
512.4140526924821
 30
0.0
  0
VERTEX
  5
166
330
9C
100
AcDbEntity
  8
E37327
100
AcDbVertex
100
AcDb2dVertex
 10
45.41419290112842
 20
512.2836815987321
 30
0.0
  0
VERTEX
  5
167
330
9C
100
AcDbEntity
  8
E37327
100
AcDbVertex
100
AcDb2dVertex
 10
45.35413430737842
 20
512.1562401924821
 30
0.0
  0
VERTEX
  5
168
330
9C
100
AcDbEntity
  8
E37327
100
AcDbVertex
100
AcDb2dVertex
 10
45.29114602612842
 20
512.0317284737321
 30
0.0
  0
VERTEX
  5
169
330
9C
100
AcDbEntity
  8
E37327
100
AcDbVertex
100
AcDb2dVertex
 10
45.22522805737842
 20
511.9101464424821
 30
0.0
  0
VERTEX
  5
16A
330
9C
100
AcDbEntity
  8
E37327
100
AcDbVertex
100
AcDb2dVertex
 10
45.15638040112842
 20
511.7914940987321
 30
0.0
  0
VERTEX
  5
16B
330
9C
100
AcDbEntity
  8
E37327
100
AcDbVertex
100
AcDb2dVertex
 10
45.08460305737842
 20
511.6757714424821
 30
0.0
  0
VERTEX
  5
16C
330
9C
100
AcDbEntity
  8
E37327
100
AcDbVertex
100
AcDb2dVertex
 10
45.00989602612842
 20
511.5629784737321
 30
0.0
  0
VERTEX
  5
16D
330
9C
100
AcDbEntity
  8
E37327
100
AcDbVertex
100
AcDb2dVertex
 10
44.93225930737842
 20
511.4531151924821
 30
0.0
  0
VERTEX
  5
16E
330
9C
100
AcDbEntity
  8
E37327
100
AcDbVertex
100
AcDb2dVertex
 10
44.85169290112842
 20
511.3461815987321
 30
0.0
  0
VERTEX
  5
16F
330
9C
100
AcDbEntity
  8
E37327
100
AcDbVertex
100
AcDb2dVertex
 10
44.76819680737842
 20
511.2421776924821
 30
0.0
  0
VERTEX
  5
170
330
9C
100
AcDbEntity
  8
E37327
100
AcDbVertex
100
AcDb2dVertex
 10
44.68177102612842
 20
511.1411034737321
 30
0.0
  0
VERTEX
  5
171
330
9C
100
AcDbEntity
  8
E37327
100
AcDbVertex
100
AcDb2dVertex
 10
44.59241555737842
 20
511.0429589424821
 30
0.0
  0
VERTEX
  5
172
330
9C
100
AcDbEntity
  8
E37327
100
AcDbVertex
100
AcDb2dVertex
 10
44.50013040112842
 20
510.9477440987321
 30
0.0
  0
VERTEX
  5
173
330
9C
100
AcDbEntity
  8
E37327
100
AcDbVertex
100
AcDb2dVertex
 10
44.40491555737842
 20
510.8554589424821
 30
0.0
  0
VERTEX
  5
174
330
9C
100
AcDbEntity
  8
E37327
100
AcDbVertex
100
AcDb2dVertex
 10
44.30677102612842
 20
510.7661034737321
 30
0.0
  0
VERTEX
  5
175
330
9C
100
AcDbEntity
  8
E37327
100
AcDbVertex
100
AcDb2dVertex
 10
44.20569680737842
 20
510.6796776924821
 30
0.0
  0
VERTEX
  5
176
330
9C
100
AcDbEntity
  8
E37327
100
AcDbVertex
100
AcDb2dVertex
 10
44.10169290112842
 20
510.5961815987321
 30
0.0
  0
VERTEX
  5
177
330
9C
100
AcDbEntity
  8
E37327
100
AcDbVertex
100
AcDb2dVertex
 10
43.99475930737842
 20
510.5156151924821
 30
0.0
  0
VERTEX
  5
178
330
9C
100
AcDbEntity
  8
E37327
100
AcDbVertex
100
AcDb2dVertex
 10
43.88489602612842
 20
510.4379784737321
 30
0.0
  0
VERTEX
  5
179
330
9C
100
AcDbEntity
  8
E37327
100
AcDbVertex
100
AcDb2dVertex
 10
43.77210305737842
 20
510.3632714424821
 30
0.0
  0
VERTEX
  5
17A
330
9C
100
AcDbEntity
  8
E37327
100
AcDbVertex
100
AcDb2dVertex
 10
43.65638040112842
 20
510.2914940987321
 30
0.0
  0
VERTEX
  5
17B
330
9C
100
AcDbEntity
  8
E37327
100
AcDbVertex
100
AcDb2dVertex
 10
43.53772805737842
 20
510.2226464424821
 30
0.0
  0
VERTEX
  5
17C
330
9C
100
AcDbEntity
  8
E37327
100
AcDbVertex
100
AcDb2dVertex
 10
43.41614602612842
 20
510.1567284737321
 30
0.0
  0
VERTEX
  5
17D
330
9C
100
AcDbEntity
  8
E37327
100
AcDbVertex
100
AcDb2dVertex
 10
43.29163430737842
 20
510.0937401924821
 30
0.0
  0
VERTEX
  5
17E
330
9C
100
AcDbEntity
  8
E37327
100
AcDbVertex
100
AcDb2dVertex
 10
43.16419290112842
 20
510.0336815987321
 30
0.0
  0
VERTEX
  5
17F
330
9C
100
AcDbEntity
  8
E37327
100
AcDbVertex
100
AcDb2dVertex
 10
43.03382180737842
 20
509.9765526924821
 30
0.0
  0
VERTEX
  5
180
330
9C
100
AcDbEntity
  8
E37327
100
AcDbVertex
100
AcDb2dVertex
 10
42.90052102612842
 20
509.9223534737321
 30
0.0
  0
VERTEX
  5
181
330
9C
100
AcDbEntity
  8
E37327
100
AcDbVertex
100
AcDb2dVertex
 10
42.76429055737842
 20
509.8710839424821
 30
0.0
  0
VERTEX
  5
182
330
9C
100
AcDbEntity
  8
E37327
100
AcDbVertex
100
AcDb2dVertex
 10
42.62513040112842
 20
509.8227440987321
 30
0.0
  0
VERTEX
  5
183
330
9C
100
AcDbEntity
  8
E37327
100
AcDbVertex
100
AcDb2dVertex
 10
42.48304055737842
 20
509.7773339424821
 30
0.0
  0
VERTEX
  5
184
330
9C
100
AcDbEntity
  8
E37327
100
AcDbVertex
100
AcDb2dVertex
 10
42.33802102612842
 20
509.7348534737321
 30
0.0
  0
VERTEX
  5
185
330
9C
100
AcDbEntity
  8
E37327
100
AcDbVertex
100
AcDb2dVertex
 10
42.19007180737842
 20
509.6953026924821
 30
0.0
  0
VERTEX
  5
186
330
9C
100
AcDbEntity
  8
E37327
100
AcDbVertex
100
AcDb2dVertex
 10
42.03919290112842
 20
509.6586815987321
 30
0.0
  0
VERTEX
  5
187
330
9C
100
AcDbEntity
  8
E37327
100
AcDbVertex
100
AcDb2dVertex
 10
41.88538430737842
 20
509.6249901924821
 30
0.0
  0
VERTEX
  5
188
330
9C
100
AcDbEntity
  8
E37327
100
AcDbVertex
100
AcDb2dVertex
 10
41.72864602612842
 20
509.5942284737321
 30
0.0
  0
VERTEX
  5
189
330
9C
100
AcDbEntity
  8
E37327
100
AcDbVertex
100
AcDb2dVertex
 10
41.56897805737842
 20
509.5663964424821
 30
0.0
  0
VERTEX
  5
18A
330
9C
100
AcDbEntity
  8
E37327
100
AcDbVertex
100
AcDb2dVertex
 10
41.40638040112841
 20
509.5414940987321
 30
0.0
  0
VERTEX
  5
18B
330
9C
100
AcDbEntity
  8
E37327
100
AcDbVertex
100
AcDb2dVertex
 10
41.2408530573784
 20
509.5195214424821
 30
0.0
  0
VERTEX
  5
18C
330
9C
100
AcDbEntity
  8
E37327
100
AcDbVertex
100
AcDb2dVertex
 10
41.0723960261284
 20
509.5004784737321
 30
0.0
  0
VERTEX
  5
18D
330
9C
100
AcDbEntity
  8
E37327
100
AcDbVertex
100
AcDb2dVertex
 10
40.9010093073784
 20
509.4843651924821
 30
0.0
  0
VERTEX
  5
18E
330
9C
100
AcDbEntity
  8
E37327
100
AcDbVertex
100
AcDb2dVertex
 10
40.7266929011284
 20
509.4711815987321
 30
0.0
  0
VERTEX
  5
18F
330
9C
100
AcDbEntity
  8
E37327
100
AcDbVertex
100
AcDb2dVertex
 10
40.3692710261284
 20
509.4536034737321
 30
0.0
  0
VERTEX
  5
190
330
9C
100
AcDbEntity
  8
E37327
100
AcDbVertex
100
AcDb2dVertex
 10
40.0001304011284
 20
509.4477440987321
 30
0.0
  0
VERTEX
  5
191
330
9C
100
AcDbEntity
  8
E37327
100
AcDbVertex
100
AcDb2dVertex
 10
6.000130401128416
 20
509.4477440987321
 30
0.0
  0
SEQEND
  5
192
330
9C
100
AcDbEntity
  8
E37327
  0
POLYLINE
  5
193
330
1F
100
AcDbEntity
  8
E37327
100
AcDb2dPolyline
 66
     1
 10
0.0
 20
0.0
 30
0.0
  0
VERTEX
  5
194
330
193
100
AcDbEntity
  8
E37327
100
AcDbVertex
100
AcDb2dVertex
 10
40.00013040112842
 20
581.4477440987323
 30
0.0
  0
VERTEX
  5
195
330
193
100
AcDbEntity
  8
E37327
100
AcDbVertex
100
AcDb2dVertex
 10
40.36927102612842
 20
581.4536034737323
 30
0.0
  0
VERTEX
  5
196
330
193
100
AcDbEntity
  8
E37327
100
AcDbVertex
100
AcDb2dVertex
 10
40.72669290112842
 20
581.4711815987323
 30
0.0
  0
VERTEX
  5
197
330
193
100
AcDbEntity
  8
E37327
100
AcDbVertex
100
AcDb2dVertex
 10
40.90100930737842
 20
581.4843651924823
 30
0.0
  0
VERTEX
  5
198
330
193
100
AcDbEntity
  8
E37327
100
AcDbVertex
100
AcDb2dVertex
 10
41.07239602612842
 20
581.5004784737323
 30
0.0
  0
VERTEX
  5
199
330
193
100
AcDbEntity
  8
E37327
100
AcDbVertex
100
AcDb2dVertex
 10
41.24085305737842
 20
581.5195214424823
 30
0.0
  0
VERTEX
  5
19A
330
193
100
AcDbEntity
  8
E37327
100
AcDbVertex
100
AcDb2dVertex
 10
41.40638040112842
 20
581.5414940987323
 30
0.0
  0
VERTEX
  5
19B
330
193
100
AcDbEntity
  8
E37327
100
AcDbVertex
100
AcDb2dVertex
 10
41.56897805737842
 20
581.5663964424823
 30
0.0
  0
VERTEX
  5
19C
330
193
100
AcDbEntity
  8
E37327
100
AcDbVertex
100
AcDb2dVertex
 10
41.72864602612842
 20
581.5942284737323
 30
0.0
  0
VERTEX
  5
19D
330
193
100
AcDbEntity
  8
E37327
100
AcDbVertex
100
AcDb2dVertex
 10
41.88538430737842
 20
581.6249901924823
 30
0.0
  0
VERTEX
  5
19E
330
193
100
AcDbEntity
  8
E37327
100
AcDbVertex
100
AcDb2dVertex
 10
42.03919290112842
 20
581.6586815987323
 30
0.0
  0
VERTEX
  5
19F
330
193
100
AcDbEntity
  8
E37327
100
AcDbVertex
100
AcDb2dVertex
 10
42.19007180737842
 20
581.6953026924823
 30
0.0
  0
VERTEX
  5
1A0
330
193
100
AcDbEntity
  8
E37327
100
AcDbVertex
100
AcDb2dVertex
 10
42.33802102612842
 20
581.7348534737323
 30
0.0
  0
VERTEX
  5
1A1
330
193
100
AcDbEntity
  8
E37327
100
AcDbVertex
100
AcDb2dVertex
 10
42.48304055737842
 20
581.7773339424823
 30
0.0
  0
VERTEX
  5
1A2
330
193
100
AcDbEntity
  8
E37327
100
AcDbVertex
100
AcDb2dVertex
 10
42.62513040112842
 20
581.8227440987323
 30
0.0
  0
VERTEX
  5
1A3
330
193
100
AcDbEntity
  8
E37327
100
AcDbVertex
100
AcDb2dVertex
 10
42.76429055737842
 20
581.8710839424823
 30
0.0
  0
VERTEX
  5
1A4
330
193
100
AcDbEntity
  8
E37327
100
AcDbVertex
100
AcDb2dVertex
 10
42.90052102612842
 20
581.9223534737323
 30
0.0
  0
VERTEX
  5
1A5
330
193
100
AcDbEntity
  8
E37327
100
AcDbVertex
100
AcDb2dVertex
 10
43.03382180737842
 20
581.9765526924823
 30
0.0
  0
VERTEX
  5
1A6
330
193
100
AcDbEntity
  8
E37327
100
AcDbVertex
100
AcDb2dVertex
 10
43.16419290112842
 20
582.0336815987323
 30
0.0
  0
VERTEX
  5
1A7
330
193
100
AcDbEntity
  8
E37327
100
AcDbVertex
100
AcDb2dVertex
 10
43.29163430737842
 20
582.0937401924823
 30
0.0
  0
VERTEX
  5
1A8
330
193
100
AcDbEntity
  8
E37327
100
AcDbVertex
100
AcDb2dVertex
 10
43.41614602612842
 20
582.1567284737323
 30
0.0
  0
VERTEX
  5
1A9
330
193
100
AcDbEntity
  8
E37327
100
AcDbVertex
100
AcDb2dVertex
 10
43.53772805737842
 20
582.2226464424823
 30
0.0
  0
VERTEX
  5
1AA
330
193
100
AcDbEntity
  8
E37327
100
AcDbVertex
100
AcDb2dVertex
 10
43.65638040112842
 20
582.2914940987323
 30
0.0
  0
VERTEX
  5
1AB
330
193
100
AcDbEntity
  8
E37327
100
AcDbVertex
100
AcDb2dVertex
 10
43.77210305737842
 20
582.3632714424823
 30
0.0
  0
VERTEX
  5
1AC
330
193
100
AcDbEntity
  8
E37327
100
AcDbVertex
100
AcDb2dVertex
 10
43.88489602612842
 20
582.4379784737323
 30
0.0
  0
VERTEX
  5
1AD
330
193
100
AcDbEntity
  8
E37327
100
AcDbVertex
100
AcDb2dVertex
 10
43.99475930737842
 20
582.5156151924823
 30
0.0
  0
VERTEX
  5
1AE
330
193
100
AcDbEntity
  8
E37327
100
AcDbVertex
100
AcDb2dVertex
 10
44.10169290112842
 20
582.5961815987323
 30
0.0
  0
VERTEX
  5
1AF
330
193
100
AcDbEntity
  8
E37327
100
AcDbVertex
100
AcDb2dVertex
 10
44.20569680737842
 20
582.6796776924823
 30
0.0
  0
VERTEX
  5
1B0
330
193
100
AcDbEntity
  8
E37327
100
AcDbVertex
100
AcDb2dVertex
 10
44.30677102612842
 20
582.7661034737323
 30
0.0
  0
VERTEX
  5
1B1
330
193
100
AcDbEntity
  8
E37327
100
AcDbVertex
100
AcDb2dVertex
 10
44.40491555737842
 20
582.8554589424823
 30
0.0
  0
VERTEX
  5
1B2
330
193
100
AcDbEntity
  8
E37327
100
AcDbVertex
100
AcDb2dVertex
 10
44.50013040112842
 20
582.9477440987323
 30
0.0
  0
VERTEX
  5
1B3
330
193
100
AcDbEntity
  8
E37327
100
AcDbVertex
100
AcDb2dVertex
 10
44.59241555737842
 20
583.0429589424823
 30
0.0
  0
VERTEX
  5
1B4
330
193
100
AcDbEntity
  8
E37327
100
AcDbVertex
100
AcDb2dVertex
 10
44.68177102612842
 20
583.1411034737323
 30
0.0
  0
VERTEX
  5
1B5
330
193
100
AcDbEntity
  8
E37327
100
AcDbVertex
100
AcDb2dVertex
 10
44.76819680737842
 20
583.2421776924823
 30
0.0
  0
VERTEX
  5
1B6
330
193
100
AcDbEntity
  8
E37327
100
AcDbVertex
100
AcDb2dVertex
 10
44.85169290112842
 20
583.3461815987323
 30
0.0
  0
VERTEX
  5
1B7
330
193
100
AcDbEntity
  8
E37327
100
AcDbVertex
100
AcDb2dVertex
 10
44.93225930737842
 20
583.4531151924823
 30
0.0
  0
VERTEX
  5
1B8
330
193
100
AcDbEntity
  8
E37327
100
AcDbVertex
100
AcDb2dVertex
 10
45.00989602612842
 20
583.5629784737323
 30
0.0
  0
VERTEX
  5
1B9
330
193
100
AcDbEntity
  8
E37327
100
AcDbVertex
100
AcDb2dVertex
 10
45.08460305737842
 20
583.6757714424823
 30
0.0
  0
VERTEX
  5
1BA
330
193
100
AcDbEntity
  8
E37327
100
AcDbVertex
100
AcDb2dVertex
 10
45.15638040112842
 20
583.7914940987323
 30
0.0
  0
VERTEX
  5
1BB
330
193
100
AcDbEntity
  8
E37327
100
AcDbVertex
100
AcDb2dVertex
 10
45.22522805737842
 20
583.9101464424823
 30
0.0
  0
VERTEX
  5
1BC
330
193
100
AcDbEntity
  8
E37327
100
AcDbVertex
100
AcDb2dVertex
 10
45.29114602612842
 20
584.0317284737323
 30
0.0
  0
VERTEX
  5
1BD
330
193
100
AcDbEntity
  8
E37327
100
AcDbVertex
100
AcDb2dVertex
 10
45.35413430737842
 20
584.1562401924823
 30
0.0
  0
VERTEX
  5
1BE
330
193
100
AcDbEntity
  8
E37327
100
AcDbVertex
100
AcDb2dVertex
 10
45.41419290112842
 20
584.2836815987323
 30
0.0
  0
VERTEX
  5
1BF
330
193
100
AcDbEntity
  8
E37327
100
AcDbVertex
100
AcDb2dVertex
 10
45.47132180737842
 20
584.4140526924823
 30
0.0
  0
VERTEX
  5
1C0
330
193
100
AcDbEntity
  8
E37327
100
AcDbVertex
100
AcDb2dVertex
 10
45.52552102612842
 20
584.5473534737323
 30
0.0
  0
VERTEX
  5
1C1
330
193
100
AcDbEntity
  8
E37327
100
AcDbVertex
100
AcDb2dVertex
 10
45.57679055737842
 20
584.6835839424823
 30
0.0
  0
VERTEX
  5
1C2
330
193
100
AcDbEntity
  8
E37327
100
AcDbVertex
100
AcDb2dVertex
 10
45.62513040112842
 20
584.8227440987323
 30
0.0
  0
VERTEX
  5
1C3
330
193
100
AcDbEntity
  8
E37327
100
AcDbVertex
100
AcDb2dVertex
 10
45.67054055737842
 20
584.9648339424823
 30
0.0
  0
VERTEX
  5
1C4
330
193
100
AcDbEntity
  8
E37327
100
AcDbVertex
100
AcDb2dVertex
 10
45.71302102612842
 20
585.1098534737323
 30
0.0
  0
VERTEX
  5
1C5
330
193
100
AcDbEntity
  8
E37327
100
AcDbVertex
100
AcDb2dVertex
 10
45.75257180737842
 20
585.2578026924823
 30
0.0
  0
VERTEX
  5
1C6
330
193
100
AcDbEntity
  8
E37327
100
AcDbVertex
100
AcDb2dVertex
 10
45.78919290112842
 20
585.4086815987323
 30
0.0
  0
VERTEX
  5
1C7
330
193
100
AcDbEntity
  8
E37327
100
AcDbVertex
100
AcDb2dVertex
 10
45.82288430737842
 20
585.5624901924823
 30
0.0
  0
VERTEX
  5
1C8
330
193
100
AcDbEntity
  8
E37327
100
AcDbVertex
100
AcDb2dVertex
 10
45.85364602612842
 20
585.7192284737323
 30
0.0
  0
VERTEX
  5
1C9
330
193
100
AcDbEntity
  8
E37327
100
AcDbVertex
100
AcDb2dVertex
 10
45.88147805737842
 20
585.8788964424823
 30
0.0
  0
VERTEX
  5
1CA
330
193
100
AcDbEntity
  8
E37327
100
AcDbVertex
100
AcDb2dVertex
 10
45.90638040112842
 20
586.0414940987323
 30
0.0
  0
VERTEX
  5
1CB
330
193
100
AcDbEntity
  8
E37327
100
AcDbVertex
100
AcDb2dVertex
 10
45.92835305737842
 20
586.2070214424823
 30
0.0
  0
VERTEX
  5
1CC
330
193
100
AcDbEntity
  8
E37327
100
AcDbVertex
100
AcDb2dVertex
 10
45.94739602612842
 20
586.3754784737323
 30
0.0
  0
VERTEX
  5
1CD
330
193
100
AcDbEntity
  8
E37327
100
AcDbVertex
100
AcDb2dVertex
 10
45.96350930737842
 20
586.5468651924823
 30
0.0
  0
VERTEX
  5
1CE
330
193
100
AcDbEntity
  8
E37327
100
AcDbVertex
100
AcDb2dVertex
 10
45.97669290112842
 20
586.7211815987323
 30
0.0
  0
VERTEX
  5
1CF
330
193
100
AcDbEntity
  8
E37327
100
AcDbVertex
100
AcDb2dVertex
 10
45.99427102612842
 20
587.0786034737323
 30
0.0
  0
VERTEX
  5
1D0
330
193
100
AcDbEntity
  8
E37327
100
AcDbVertex
100
AcDb2dVertex
 10
46.00013040112842
 20
587.4477440987323
 30
0.0
  0
VERTEX
  5
1D1
330
193
100
AcDbEntity
  8
E37327
100
AcDbVertex
100
AcDb2dVertex
 10
46.0001304011284
 20
588.4477440987323
 30
0.0
 42
0.4142135623730999
  0
VERTEX
  5
1D2
330
193
100
AcDbEntity
  8
E37327
100
AcDbVertex
100
AcDb2dVertex
 10
44.00013040112874
 20
590.4477440987324
 30
0.0
  0
VERTEX
  5
1D3
330
193
100
AcDbEntity
  8
E37327
100
AcDbVertex
100
AcDb2dVertex
 10
2.000130401128388
 20
590.4477440987323
 30
0.0
 42
0.414213562373051
  0
VERTEX
  5
1D4
330
193
100
AcDbEntity
  8
E37327
100
AcDbVertex
100
AcDb2dVertex
 10
0.0001304011282319
 20
588.4477440987315
 30
0.0
  0
VERTEX
  5
1D5
330
193
100
AcDbEntity
  8
E37327
100
AcDbVertex
100
AcDb2dVertex
 10
0.0001304011284162
 20
587.4477440987322
 30
0.0
  0
VERTEX
  5
1D6
330
193
100
AcDbEntity
  8
E37327
100
AcDbVertex
100
AcDb2dVertex
 10
0.0059898627414153
 20
587.0786034737323
 30
0.0
  0
VERTEX
  5
1D7
330
193
100
AcDbEntity
  8
E37327
100
AcDbVertex
100
AcDb2dVertex
 10
0.023568068766479
 20
586.7211815987323
 30
0.0
  0
VERTEX
  5
1D8
330
193
100
AcDbEntity
  8
E37327
100
AcDbVertex
100
AcDb2dVertex
 10
0.0367517009335351
 20
586.5468651924823
 30
0.0
  0
VERTEX
  5
1D9
330
193
100
AcDbEntity
  8
E37327
100
AcDbVertex
100
AcDb2dVertex
 10
0.0528650192036073
 20
586.3754784737323
 30
0.0
  0
VERTEX
  5
1DA
330
193
100
AcDbEntity
  8
E37327
100
AcDbVertex
100
AcDb2dVertex
 10
0.0719080235766956
 20
586.2070214424823
 30
0.0
  0
VERTEX
  5
1DB
330
193
100
AcDbEntity
  8
E37327
100
AcDbVertex
100
AcDb2dVertex
 10
0.0938807140528001
 20
586.0414940987323
 30
0.0
  0
VERTEX
  5
1DC
330
193
100
AcDbEntity
  8
E37327
100
AcDbVertex
100
AcDb2dVertex
 10
0.1187830906319208
 20
585.8788964424823
 30
0.0
  0
VERTEX
  5
1DD
330
193
100
AcDbEntity
  8
E37327
100
AcDbVertex
100
AcDb2dVertex
 10
0.1466151533140576
 20
585.7192284737323
 30
0.0
  0
VERTEX
  5
1DE
330
193
100
AcDbEntity
  8
E37327
100
AcDbVertex
100
AcDb2dVertex
 10
0.1773769020992105
 20
585.5624901924823
 30
0.0
  0
VERTEX
  5
1DF
330
193
100
AcDbEntity
  8
E37327
100
AcDbVertex
100
AcDb2dVertex
 10
0.2110683369873795
 20
585.4086815987323
 30
0.0
  0
VERTEX
  5
1E0
330
193
100
AcDbEntity
  8
E37327
100
AcDbVertex
100
AcDb2dVertex
 10
0.2476894579785647
 20
585.2578026924823
 30
0.0
  0
VERTEX
  5
1E1
330
193
100
AcDbEntity
  8
E37327
100
AcDbVertex
100
AcDb2dVertex
 10
0.2872402650727661
 20
585.1098534737323
 30
0.0
  0
VERTEX
  5
1E2
330
193
100
AcDbEntity
  8
E37327
100
AcDbVertex
100
AcDb2dVertex
 10
0.3297207582699836
 20
584.9648339424823
 30
0.0
  0
VERTEX
  5
1E3
330
193
100
AcDbEntity
  8
E37327
100
AcDbVertex
100
AcDb2dVertex
 10
0.3751309375702172
 20
584.8227440987323
 30
0.0
  0
VERTEX
  5
1E4
330
193
100
AcDbEntity
  8
E37327
100
AcDbVertex
100
AcDb2dVertex
 10
0.423470802973467
 20
584.6835839424823
 30
0.0
  0
VERTEX
  5
1E5
330
193
100
AcDbEntity
  8
E37327
100
AcDbVertex
100
AcDb2dVertex
 10
0.4747403544797329
 20
584.5473534737323
 30
0.0
  0
VERTEX
  5
1E6
330
193
100
AcDbEntity
  8
E37327
100
AcDbVertex
100
AcDb2dVertex
 10
0.528939592089015
 20
584.4140526924823
 30
0.0
  0
VERTEX
  5
1E7
330
193
100
AcDbEntity
  8
E37327
100
AcDbVertex
100
AcDb2dVertex
 10
0.5860685158013131
 20
584.2836815987323
 30
0.0
  0
VERTEX
  5
1E8
330
193
100
AcDbEntity
  8
E37327
100
AcDbVertex
100
AcDb2dVertex
 10
0.6461271256166274
 20
584.1562401924823
 30
0.0
  0
VERTEX
  5
1E9
330
193
100
AcDbEntity
  8
E37327
100
AcDbVertex
100
AcDb2dVertex
 10
0.709115421534958
 20
584.0317284737323
 30
0.0
  0
VERTEX
  5
1EA
330
193
100
AcDbEntity
  8
E37327
100
AcDbVertex
100
AcDb2dVertex
 10
0.7750334035563047
 20
583.9101464424823
 30
0.0
  0
VERTEX
  5
1EB
330
193
100
AcDbEntity
  8
E37327
100
AcDbVertex
100
AcDb2dVertex
 10
0.8438810716806675
 20
583.7914940987323
 30
0.0
  0
VERTEX
  5
1EC
330
193
100
AcDbEntity
  8
E37327
100
AcDbVertex
100
AcDb2dVertex
 10
0.9156584259080465
 20
583.6757714424823
 30
0.0
  0
VERTEX
  5
1ED
330
193
100
AcDbEntity
  8
E37327
100
AcDbVertex
100
AcDb2dVertex
 10
0.9903654662384415
 20
583.5629784737323
 30
0.0
  0
VERTEX
  5
1EE
330
193
100
AcDbEntity
  8
E37327
100
AcDbVertex
100
AcDb2dVertex
 10
1.068002192671853
 20
583.4531151924823
 30
0.0
  0
VERTEX
  5
1EF
330
193
100
AcDbEntity
  8
E37327
100
AcDbVertex
100
AcDb2dVertex
 10
1.14856860520828
 20
583.3461815987323
 30
0.0
  0
VERTEX
  5
1F0
330
193
100
AcDbEntity
  8
E37327
100
AcDbVertex
100
AcDb2dVertex
 10
1.232064703847723
 20
583.2421776924823
 30
0.0
  0
VERTEX
  5
1F1
330
193
100
AcDbEntity
  8
E37327
100
AcDbVertex
100
AcDb2dVertex
 10
1.318490488590183
 20
583.1411034737323
 30
0.0
  0
VERTEX
  5
1F2
330
193
100
AcDbEntity
  8
E37327
100
AcDbVertex
100
AcDb2dVertex
 10
1.407845959435659
 20
583.0429589424823
 30
0.0
  0
VERTEX
  5
1F3
330
193
100
AcDbEntity
  8
E37327
100
AcDbVertex
100
AcDb2dVertex
 10
1.500131116384151
 20
582.9477440987323
 30
0.0
  0
VERTEX
  5
1F4
330
193
100
AcDbEntity
  8
E37327
100
AcDbVertex
100
AcDb2dVertex
 10
1.595345959435659
 20
582.8554589424823
 30
0.0
  0
VERTEX
  5
1F5
330
193
100
AcDbEntity
  8
E37327
100
AcDbVertex
100
AcDb2dVertex
 10
1.693490488590183
 20
582.7661034737323
 30
0.0
  0
VERTEX
  5
1F6
330
193
100
AcDbEntity
  8
E37327
100
AcDbVertex
100
AcDb2dVertex
 10
1.794564703847723
 20
582.6796776924823
 30
0.0
  0
VERTEX
  5
1F7
330
193
100
AcDbEntity
  8
E37327
100
AcDbVertex
100
AcDb2dVertex
 10
1.89856860520828
 20
582.5961815987323
 30
0.0
  0
VERTEX
  5
1F8
330
193
100
AcDbEntity
  8
E37327
100
AcDbVertex
100
AcDb2dVertex
 10
2.005502192671853
 20
582.5156151924823
 30
0.0
  0
VERTEX
  5
1F9
330
193
100
AcDbEntity
  8
E37327
100
AcDbVertex
100
AcDb2dVertex
 10
2.115365466238441
 20
582.4379784737323
 30
0.0
  0
VERTEX
  5
1FA
330
193
100
AcDbEntity
  8
E37327
100
AcDbVertex
100
AcDb2dVertex
 10
2.228158425908046
 20
582.3632714424823
 30
0.0
  0
VERTEX
  5
1FB
330
193
100
AcDbEntity
  8
E37327
100
AcDbVertex
100
AcDb2dVertex
 10
2.343881071680667
 20
582.2914940987323
 30
0.0
  0
VERTEX
  5
1FC
330
193
100
AcDbEntity
  8
E37327
100
AcDbVertex
100
AcDb2dVertex
 10
2.462533403556304
 20
582.2226464424823
 30
0.0
  0
VERTEX
  5
1FD
330
193
100
AcDbEntity
  8
E37327
100
AcDbVertex
100
AcDb2dVertex
 10
2.584115421534958
 20
582.1567284737323
 30
0.0
  0
VERTEX
  5
1FE
330
193
100
AcDbEntity
  8
E37327
100
AcDbVertex
100
AcDb2dVertex
 10
2.708627125616627
 20
582.0937401924823
 30
0.0
  0
VERTEX
  5
1FF
330
193
100
AcDbEntity
  8
E37327
100
AcDbVertex
100
AcDb2dVertex
 10
2.836068515801313
 20
582.0336815987323
 30
0.0
  0
VERTEX
  5
200
330
193
100
AcDbEntity
  8
E37327
100
AcDbVertex
100
AcDb2dVertex
 10
2.966439592089015
 20
581.9765526924823
 30
0.0
  0
VERTEX
  5
201
330
193
100
AcDbEntity
  8
E37327
100
AcDbVertex
100
AcDb2dVertex
 10
3.099740354479732
 20
581.9223534737323
 30
0.0
  0
VERTEX
  5
202
330
193
100
AcDbEntity
  8
E37327
100
AcDbVertex
100
AcDb2dVertex
 10
3.235970802973466
 20
581.8710839424823
 30
0.0
  0
VERTEX
  5
203
330
193
100
AcDbEntity
  8
E37327
100
AcDbVertex
100
AcDb2dVertex
 10
3.375130937570217
 20
581.8227440987323
 30
0.0
  0
VERTEX
  5
204
330
193
100
AcDbEntity
  8
E37327
100
AcDbVertex
100
AcDb2dVertex
 10
3.517220758269984
 20
581.7773339424823
 30
0.0
  0
VERTEX
  5
205
330
193
100
AcDbEntity
  8
E37327
100
AcDbVertex
100
AcDb2dVertex
 10
3.662240265072766
 20
581.7348534737323
 30
0.0
  0
VERTEX
  5
206
330
193
100
AcDbEntity
  8
E37327
100
AcDbVertex
100
AcDb2dVertex
 10
3.810189457978565
 20
581.6953026924823
 30
0.0
  0
VERTEX
  5
207
330
193
100
AcDbEntity
  8
E37327
100
AcDbVertex
100
AcDb2dVertex
 10
3.961068336987379
 20
581.6586815987323
 30
0.0
  0
VERTEX
  5
208
330
193
100
AcDbEntity
  8
E37327
100
AcDbVertex
100
AcDb2dVertex
 10
4.11487690209921
 20
581.6249901924823
 30
0.0
  0
VERTEX
  5
209
330
193
100
AcDbEntity
  8
E37327
100
AcDbVertex
100
AcDb2dVertex
 10
4.271615153314057
 20
581.5942284737323
 30
0.0
  0
VERTEX
  5
20A
330
193
100
AcDbEntity
  8
E37327
100
AcDbVertex
100
AcDb2dVertex
 10
4.43128309063192
 20
581.5663964424823
 30
0.0
  0
VERTEX
  5
20B
330
193
100
AcDbEntity
  8
E37327
100
AcDbVertex
100
AcDb2dVertex
 10
4.5938807140528
 20
581.5414940987323
 30
0.0
  0
VERTEX
  5
20C
330
193
100
AcDbEntity
  8
E37327
100
AcDbVertex
100
AcDb2dVertex
 10
4.759408023576695
 20
581.5195214424823
 30
0.0
  0
VERTEX
  5
20D
330
193
100
AcDbEntity
  8
E37327
100
AcDbVertex
100
AcDb2dVertex
 10
4.927865019203606
 20
581.5004784737323
 30
0.0
  0
VERTEX
  5
20E
330
193
100
AcDbEntity
  8
E37327
100
AcDbVertex
100
AcDb2dVertex
 10
5.099251700933534
 20
581.4843651924823
 30
0.0
  0
VERTEX
  5
20F
330
193
100
AcDbEntity
  8
E37327
100
AcDbVertex
100
AcDb2dVertex
 10
5.273568068766479
 20
581.4711815987323
 30
0.0
  0
VERTEX
  5
210
330
193
100
AcDbEntity
  8
E37327
100
AcDbVertex
100
AcDb2dVertex
 10
5.630989862741416
 20
581.4536034737323
 30
0.0
  0
VERTEX
  5
211
330
193
100
AcDbEntity
  8
E37327
100
AcDbVertex
100
AcDb2dVertex
 10
6.000130401128416
 20
581.4477440987323
 30
0.0
  0
VERTEX
  5
212
330
193
100
AcDbEntity
  8
E37327
100
AcDbVertex
100
AcDb2dVertex
 10
40.00013040112842
 20
581.4477440987323
 30
0.0
  0
SEQEND
  5
213
330
193
100
AcDbEntity
  8
E37327
  0
ENDSEC
  0
SECTION
  2
OBJECTS
  0
DICTIONARY
  5
C
330
0
100
AcDbDictionary
281
     1
  3
ACAD_GROUP
350
D
  3
ACAD_LAYOUT
350
1A
  3
ACAD_MATERIAL
350
3B
  3
ACAD_MLEADERSTYLE
350
23E
  3
ACAD_MLINESTYLE
350
17
  3
ACAD_PLOTSETTINGS
350
19
  3
ACAD_PLOTSTYLENAME
350
E
  3
ACAD_SCALELIST
350
3F
  3
ACAD_TABLESTYLE
350
23D
  3
ACAD_VISUALSTYLE
350
2A
  3
AcDbVariableDictionary
350
214
  0
DICTIONARY
  5
D
102
{ACAD_REACTORS
330
C
102
}
330
C
100
AcDbDictionary
281
     1
  0
DICTIONARY
  5
1A
102
{ACAD_REACTORS
330
C
102
}
330
C
100
AcDbDictionary
281
     1
  3
Layout1
350
1E
  3
Layout2
350
26
  3
Model
350
22
  0
DICTIONARY
  5
3B
102
{ACAD_REACTORS
330
C
102
}
330
C
100
AcDbDictionary
281
     1
  3
ByBlock
350
3D
  3
ByLayer
350
3C
  3
Global
350
3E
  0
DICTIONARY
  5
23E
102
{ACAD_REACTORS
330
C
102
}
330
C
100
AcDbDictionary
281
     1
  0
DICTIONARY
  5
17
102
{ACAD_REACTORS
330
C
102
}
330
C
100
AcDbDictionary
281
     1
  3
Standard
350
18
  0
DICTIONARY
  5
19
102
{ACAD_REACTORS
330
C
102
}
330
C
100
AcDbDictionary
281
     1
  0
ACDBDICTIONARYWDFLT
  5
E
102
{ACAD_REACTORS
330
C
102
}
330
C
100
AcDbDictionary
281
     1
  3
Normal
350
F
100
AcDbDictionaryWithDefault
340
F
  0
DICTIONARY
  5
3F
102
{ACAD_REACTORS
330
C
102
}
330
C
100
AcDbDictionary
281
     1
  3
A0
350
40
  3
A1
350
41
  3
A2
350
42
  3
A3
350
43
  3
A4
350
44
  3
A5
350
45
  3
A6
350
46
  3
A7
350
47
  3
A8
350
48
  3
A9
350
49
  3
B0
350
4A
  3
B1
350
4B
  3
B2
350
4C
  3
B3
350
4D
  3
B4
350
4E
  3
B5
350
4F
  3
B6
350
50
  3
B7
350
51
  3
B8
350
52
  3
B9
350
53
  3
C0
350
54
  3
C1
350
55
  3
C2
350
56
  3
C3
350
57
  3
C4
350
58
  3
C5
350
59
  3
C6
350
5A
  3
C7
350
5B
  3
C8
350
5C
  3
C9
350
5D
  3
D0
350
5E
  3
D1
350
5F
  3
D2
350
60
  0
DICTIONARY
  5
23D
102
{ACAD_REACTORS
330
C
102
}
330
C
100
AcDbDictionary
281
     1
  0
DICTIONARY
  5
2A
102
{ACAD_REACTORS
330
C
102
}
330
C
100
AcDbDictionary
281
     1
  3
2dWireframe
350
2F
  3
3D Hidden
350
31
  3
3dWireframe
350
30
  3
Basic
350
32
  3
Brighten
350
36
  3
ColorChange
350
3A
  3
Conceptual
350
34
  3
Dim
350
35
  3
Facepattern
350
39
  3
Flat
350
2B
  3
FlatWithEdges
350
2C
  3
Gouraud
350
2D
  3
GouraudWithEdges
350
2E
  3
Linepattern
350
38
  3
Realistic
350
33
  3
Thicken
350
37
  0
DICTIONARY
  5
214
102
{ACAD_REACTORS
330
C
102
}
330
C
100
AcDbDictionary
281
     1
  3
CANNOSCALE
350
215
  3
MSLTSCALE
350
216
  0
LAYOUT
  5
1E
102
{ACAD_REACTORS
330
1A
102
}
330
1A
100
AcDbPlotSettings
  1

  2
none_device
  4

  6

 40
0.0
 41
0.0
 42
0.0
 43
0.0
 44
0.0
 45
0.0
 46
0.0
 47
0.0
 48
0.0
 49
0.0
140
0.0
141
0.0
142
1.0
143
1.0
 70
   688
 72
     0
 73
     0
 74
     5
  7

 75
    16
 76
     0
 77
     2
 78
   300
147
1.0
148
0.0
149
0.0
100
AcDbLayout
  1
Layout1
 70
     1
 71
     1
 10
0.0
 20
0.0
 11
12.0
 21
9.0
 12
0.0
 22
0.0
 32
0.0
 14
1.000000000000000E+20
 24
1.000000000000000E+20
 34
1.000000000000000E+20
 15
-1.000000000000000E+20
 25
-1.000000000000000E+20
 35
-1.000000000000000E+20
146
0.0
 13
0.0
 23
0.0
 33
0.0
 16
1.0
 26
0.0
 36
0.0
 17
0.0
 27
1.0
 37
0.0
 76
     0
330
1B
  0
LAYOUT
  5
26
102
{ACAD_REACTORS
330
1A
102
}
330
1A
100
AcDbPlotSettings
  1

  2
none_device
  4

  6

 40
0.0
 41
0.0
 42
0.0
 43
0.0
 44
0.0
 45
0.0
 46
0.0
 47
0.0
 48
0.0
 49
0.0
140
0.0
141
0.0
142
1.0
143
1.0
 70
   688
 72
     0
 73
     0
 74
     5
  7

 75
    16
 76
     0
 77
     2
 78
   300
147
1.0
148
0.0
149
0.0
100
AcDbLayout
  1
Layout2
 70
     1
 71
     2
 10
0.0
 20
0.0
 11
0.0
 21
0.0
 12
0.0
 22
0.0
 32
0.0
 14
0.0
 24
0.0
 34
0.0
 15
0.0
 25
0.0
 35
0.0
146
0.0
 13
0.0
 23
0.0
 33
0.0
 16
1.0
 26
0.0
 36
0.0
 17
0.0
 27
1.0
 37
0.0
 76
     0
330
23
  0
LAYOUT
  5
22
102
{ACAD_REACTORS
330
1A
102
}
330
1A
100
AcDbPlotSettings
  1

  2
none_device
  4
Letter_(8.50_x_11.00_Inches)
  6

 40
6.35
 41
6.35
 42
6.35000508
 43
6.35000508
 44
215.9
 45
279.4
 46
0.0
 47
0.0
 48
0.0
 49
0.0
140
0.0
141
0.0
142
1.0
143
1.0
 70
  1712
 72
     0
 73
     0
 74
     0
  7

 75
     0
 76
     0
 77
     2
 78
   300
147
1.0
148
0.0
149
0.0
100
AcDbLayout
  1
Model
 70
     1
 71
     0
 10
0.0
 20
0.0
 11
12.0
 21
9.0
 12
0.0
 22
0.0
 32
0.0
 14
0.0000651781178335
 24
412.4477440750074
 34
0.0
 15
46.00019562413893
 25
590.4477440987324
 35
0.0
146
0.0
 13
0.0
 23
0.0
 33
0.0
 16
1.0
 26
0.0
 36
0.0
 17
0.0
 27
1.0
 37
0.0
 76
     0
330
1F
331
29
  0
MATERIAL
  5
3D
102
{ACAD_REACTORS
330
3B
102
}
102
{ACAD_XDICTIONARY
360
239
102
}
330
3B
100
AcDbMaterial
  1
ByBlock
  0
MATERIAL
  5
3C
102
{ACAD_REACTORS
330
3B
102
}
102
{ACAD_XDICTIONARY
360
237
102
}
330
3B
100
AcDbMaterial
  1
ByLayer
  0
MATERIAL
  5
3E
102
{ACAD_REACTORS
330
3B
102
}
102
{ACAD_XDICTIONARY
360
23B
102
}
330
3B
100
AcDbMaterial
  1
Global
  0
MLINESTYLE
  5
18
102
{ACAD_REACTORS
330
17
102
}
330
17
100
AcDbMlineStyle
  2
Standard
 70
     0
  3

 62
   256
 51
90.0
 52
90.0
 71
     2
 49
0.5
 62
   256
  6
BYLAYER
 49
-0.5
 62
   256
  6
BYLAYER
  0
ACDBPLACEHOLDER
  5
F
102
{ACAD_REACTORS
330
E
102
}
330
E
  0
SCALE
  5
40
102
{ACAD_REACTORS
330
3F
102
}
330
3F
100
AcDbScale
 70
     0
300
1:1
140
1.0
141
1.0
290
     1
  0
SCALE
  5
41
102
{ACAD_REACTORS
330
3F
102
}
330
3F
100
AcDbScale
 70
     0
300
1:2
140
1.0
141
2.0
290
     0
  0
SCALE
  5
42
102
{ACAD_REACTORS
330
3F
102
}
330
3F
100
AcDbScale
 70
     0
300
1:4
140
1.0
141
4.0
290
     0
  0
SCALE
  5
43
102
{ACAD_REACTORS
330
3F
102
}
330
3F
100
AcDbScale
 70
     0
300
1:5
140
1.0
141
5.0
290
     0
  0
SCALE
  5
44
102
{ACAD_REACTORS
330
3F
102
}
330
3F
100
AcDbScale
 70
     0
300
1:8
140
1.0
141
8.0
290
     0
  0
SCALE
  5
45
102
{ACAD_REACTORS
330
3F
102
}
330
3F
100
AcDbScale
 70
     0
300
1:10
140
1.0
141
10.0
290
     0
  0
SCALE
  5
46
102
{ACAD_REACTORS
330
3F
102
}
330
3F
100
AcDbScale
 70
     0
300
1:16
140
1.0
141
16.0
290
     0
  0
SCALE
  5
47
102
{ACAD_REACTORS
330
3F
102
}
330
3F
100
AcDbScale
 70
     0
300
1:20
140
1.0
141
20.0
290
     0
  0
SCALE
  5
48
102
{ACAD_REACTORS
330
3F
102
}
330
3F
100
AcDbScale
 70
     0
300
1:30
140
1.0
141
30.0
290
     0
  0
SCALE
  5
49
102
{ACAD_REACTORS
330
3F
102
}
330
3F
100
AcDbScale
 70
     0
300
1:40
140
1.0
141
40.0
290
     0
  0
SCALE
  5
4A
102
{ACAD_REACTORS
330
3F
102
}
330
3F
100
AcDbScale
 70
     0
300
1:50
140
1.0
141
50.0
290
     0
  0
SCALE
  5
4B
102
{ACAD_REACTORS
330
3F
102
}
330
3F
100
AcDbScale
 70
     0
300
1:100
140
1.0
141
100.0
290
     0
  0
SCALE
  5
4C
102
{ACAD_REACTORS
330
3F
102
}
330
3F
100
AcDbScale
 70
     0
300
2:1
140
2.0
141
1.0
290
     0
  0
SCALE
  5
4D
102
{ACAD_REACTORS
330
3F
102
}
330
3F
100
AcDbScale
 70
     0
300
4:1
140
4.0
141
1.0
290
     0
  0
SCALE
  5
4E
102
{ACAD_REACTORS
330
3F
102
}
330
3F
100
AcDbScale
 70
     0
300
8:1
140
8.0
141
1.0
290
     0
  0
SCALE
  5
4F
102
{ACAD_REACTORS
330
3F
102
}
330
3F
100
AcDbScale
 70
     0
300
10:1
140
10.0
141
1.0
290
     0
  0
SCALE
  5
50
102
{ACAD_REACTORS
330
3F
102
}
330
3F
100
AcDbScale
 70
     0
300
100:1
140
100.0
141
1.0
290
     0
  0
SCALE
  5
51
102
{ACAD_REACTORS
330
3F
102
}
330
3F
100
AcDbScale
 70
     0
300
1/128" = 1'-0"
140
0.0078125
141
12.0
290
     0
  0
SCALE
  5
52
102
{ACAD_REACTORS
330
3F
102
}
330
3F
100
AcDbScale
 70
     0
300
1/64" = 1'-0"
140
0.015625
141
12.0
290
     0
  0
SCALE
  5
53
102
{ACAD_REACTORS
330
3F
102
}
330
3F
100
AcDbScale
 70
     0
300
1/32" = 1'-0"
140
0.03125
141
12.0
290
     0
  0
SCALE
  5
54
102
{ACAD_REACTORS
330
3F
102
}
330
3F
100
AcDbScale
 70
     0
300
1/16" = 1'-0"
140
0.0625
141
12.0
290
     0
  0
SCALE
  5
55
102
{ACAD_REACTORS
330
3F
102
}
330
3F
100
AcDbScale
 70
     0
300
3/32" = 1'-0"
140
0.09375
141
12.0
290
     0
  0
SCALE
  5
56
102
{ACAD_REACTORS
330
3F
102
}
330
3F
100
AcDbScale
 70
     0
300
1/8" = 1'-0"
140
0.125
141
12.0
290
     0
  0
SCALE
  5
57
102
{ACAD_REACTORS
330
3F
102
}
330
3F
100
AcDbScale
 70
     0
300
3/16" = 1'-0"
140
0.1875
141
12.0
290
     0
  0
SCALE
  5
58
102
{ACAD_REACTORS
330
3F
102
}
330
3F
100
AcDbScale
 70
     0
300
1/4" = 1'-0"
140
0.25
141
12.0
290
     0
  0
SCALE
  5
59
102
{ACAD_REACTORS
330
3F
102
}
330
3F
100
AcDbScale
 70
     0
300
3/8" = 1'-0"
140
0.375
141
12.0
290
     0
  0
SCALE
  5
5A
102
{ACAD_REACTORS
330
3F
102
}
330
3F
100
AcDbScale
 70
     0
300
1/2" = 1'-0"
140
0.5
141
12.0
290
     0
  0
SCALE
  5
5B
102
{ACAD_REACTORS
330
3F
102
}
330
3F
100
AcDbScale
 70
     0
300
3/4" = 1'-0"
140
0.75
141
12.0
290
     0
  0
SCALE
  5
5C
102
{ACAD_REACTORS
330
3F
102
}
330
3F
100
AcDbScale
 70
     0
300
1" = 1'-0"
140
1.0
141
12.0
290
     0
  0
SCALE
  5
5D
102
{ACAD_REACTORS
330
3F
102
}
330
3F
100
AcDbScale
 70
     0
300
1-1/2" = 1'-0"
140
1.5
141
12.0
290
     0
  0
SCALE
  5
5E
102
{ACAD_REACTORS
330
3F
102
}
330
3F
100
AcDbScale
 70
     0
300
3" = 1'-0"
140
3.0
141
12.0
290
     0
  0
SCALE
  5
5F
102
{ACAD_REACTORS
330
3F
102
}
330
3F
100
AcDbScale
 70
     0
300
6" = 1'-0"
140
6.0
141
12.0
290
     0
  0
SCALE
  5
60
102
{ACAD_REACTORS
330
3F
102
}
330
3F
100
AcDbScale
 70
     0
300
1'-0" = 1'-0"
140
12.0
141
12.0
290
     0
  0
VISUALSTYLE
  5
2F
102
{ACAD_REACTORS
330
2A
102
}
102
{ACAD_XDICTIONARY
360
21F
102
}
330
2A
100
AcDbVisualStyle
  2
2dWireframe
 70
     4
 71
     0
 72
     2
 73
     0
 90
        0
 40
0.6
 41
30.0
 62
     5
 63
     7
421
 16777215
 74
     1
 91
        4
 64
     7
 65
   257
 75
     1
175
     1
 42
1.0
 92
        0
 66
   257
 43
1.0
 76
     1
 77
     6
 78
     2
 67
     7
 79
     5
170
     0
171
     0
290
     0
174
     0
 93
        1
 44
0.0
173
     0
291
     0
 45
0.0
1001
ACAD
1000
AcDbSavedByObjectVersion
1070
     0
  0
VISUALSTYLE
  5
31
102
{ACAD_REACTORS
330
2A
102
}
102
{ACAD_XDICTIONARY
360
223
102
}
330
2A
100
AcDbVisualStyle
  2
3D Hidden
 70
     6
 71
     1
 72
     2
 73
     2
 90
        0
 40
0.6
 41
30.0
 62
     5
 63
     7
421
 16777215
 74
     2
 91
        2
 64
     7
 65
   257
 75
     2
175
     1
 42
40.0
 92
        0
 66
   257
 43
1.0
 76
     1
 77
     6
 78
     2
 67
     7
 79
     3
170
     0
171
     0
290
     0
174
     0
 93
        1
 44
0.0
173
     0
291
     0
 45
0.0
1001
ACAD
1000
AcDbSavedByObjectVersion
1070
     0
  0
VISUALSTYLE
  5
30
102
{ACAD_REACTORS
330
2A
102
}
102
{ACAD_XDICTIONARY
360
221
102
}
330
2A
100
AcDbVisualStyle
  2
3dWireframe
 70
     5
 71
     0
 72
     2
 73
     0
 90
        0
 40
0.6
 41
30.0
 62
     5
 63
     7
421
 16777215
 74
     1
 91
        4
 64
     7
 65
   257
 75
     1
175
     1
 42
1.0
 92
        0
 66
   257
 43
1.0
 76
     1
 77
     6
 78
     2
 67
     7
 79
     5
170
     0
171
     0
290
     0
174
     0
 93
        1
 44
0.0
173
     0
291
     0
 45
0.0
1001
ACAD
1000
AcDbSavedByObjectVersion
1070
     0
  0
VISUALSTYLE
  5
32
102
{ACAD_REACTORS
330
2A
102
}
102
{ACAD_XDICTIONARY
360
225
102
}
330
2A
100
AcDbVisualStyle
  2
Basic
 70
     7
 71
     1
 72
     0
 73
     1
 90
        0
 40
0.6
 41
30.0
 62
     5
 63
     7
421
 16777215
 74
     0
 91
        4
 64
     7
 65
   257
 75
     1
175
     1
 42
1.0
 92
        8
 66
     7
 43
1.0
 76
     1
 77
     6
 78
     2
 67
     7
 79
     5
170
     0
171
     0
290
     0
174
     0
 93
        1
 44
0.0
173
     0
291
     1
 45
0.0
1001
ACAD
1000
AcDbSavedByObjectVersion
1070
     0
  0
VISUALSTYLE
  5
36
102
{ACAD_REACTORS
330
2A
102
}
102
{ACAD_XDICTIONARY
360
22D
102
}
330
2A
100
AcDbVisualStyle
  2
Brighten
 70
    12
 71
     2
 72
     2
 73
     0
 90
        0
 40
0.6
 41
30.0
 62
     5
 63
     7
421
 16777215
 74
     1
 91
        4
 64
     7
 65
   257
 75
     1
175
     1
 42
1.0
 92
        8
 66
     7
 43
1.0
 76
     1
 77
     6
 78
     2
 67
     7
 79
     5
170
     0
171
     0
290
     0
174
     0
 93
        1
 44
50.0
173
     0
291
     1
 45
0.0
1001
ACAD
1000
AcDbSavedByObjectVersion
1070
     0
  0
VISUALSTYLE
  5
3A
102
{ACAD_REACTORS
330
2A
102
}
102
{ACAD_XDICTIONARY
360
235
102
}
330
2A
100
AcDbVisualStyle
  2
ColorChange
 70
    16
 71
     2
 72
     2
 73
     3
 90
        0
 40
0.6
 41
30.0
 62
     5
 63
     8
421
  8421504
 74
     1
 91
        4
 64
     7
 65
   257
 75
     1
175
     1
 42
1.0
 92
        8
 66
     8
424
  8421504
 43
1.0
 76
     1
 77
     6
 78
     2
 67
     7
 79
     5
170
     0
171
     0
290
     0
174
     0
 93
        1
 44
0.0
173
     0
291
     1
 45
0.0
1001
ACAD
1000
AcDbSavedByObjectVersion
1070
     0
  0
VISUALSTYLE
  5
34
102
{ACAD_REACTORS
330
2A
102
}
102
{ACAD_XDICTIONARY
360
229
102
}
330
2A
100
AcDbVisualStyle
  2
Conceptual
 70
     9
 71
     3
 72
     2
 73
     0
 90
        0
 40
0.6
 41
30.0
 62
     5
 63
     7
421
 16777215
 74
     2
 91
        2
 64
     7
 65
   257
 75
     1
175
     1
 42
40.0
 92
        8
 66
     7
 43
1.0
 76
     1
 77
     6
 78
     2
 67
     7
 79
     3
170
     0
171
     0
290
     0
174
     0
 93
        1
 44
0.0
173
     0
291
     0
 45
0.0
1001
ACAD
1000
AcDbSavedByObjectVersion
1070
     0
  0
VISUALSTYLE
  5
35
102
{ACAD_REACTORS
330
2A
102
}
102
{ACAD_XDICTIONARY
360
22B
102
}
330
2A
100
AcDbVisualStyle
  2
Dim
 70
    11
 71
     2
 72
     2
 73
     0
 90
        0
 40
0.6
 41
30.0
 62
     5
 63
     7
421
 16777215
 74
     1
 91
        4
 64
     7
 65
   257
 75
     1
175
     1
 42
1.0
 92
        8
 66
     7
 43
1.0
 76
     1
 77
     6
 78
     2
 67
     7
 79
     5
170
     0
171
     0
290
     0
174
     0
 93
        1
 44
-50.0
173
     0
291
     1
 45
0.0
1001
ACAD
1000
AcDbSavedByObjectVersion
1070
     0
  0
VISUALSTYLE
  5
39
102
{ACAD_REACTORS
330
2A
102
}
102
{ACAD_XDICTIONARY
360
233
102
}
330
2A
100
AcDbVisualStyle
  2
Facepattern
 70
    15
 71
     2
 72
     2
 73
     0
 90
        0
 40
0.6
 41
30.0
 62
     5
 63
     7
421
 16777215
 74
     1
 91
        4
 64
     7
 65
   257
 75
     1
175
     1
 42
1.0
 92
        8
 66
     7
 43
1.0
 76
     1
 77
     6
 78
     2
 67
     7
 79
     5
170
     0
171
     0
290
     0
174
     0
 93
        1
 44
0.0
173
     0
291
     1
 45
0.0
1001
ACAD
1000
AcDbSavedByObjectVersion
1070
     0
  0
VISUALSTYLE
  5
2B
102
{ACAD_REACTORS
330
2A
102
}
102
{ACAD_XDICTIONARY
360
217
102
}
330
2A
100
AcDbVisualStyle
  2
Flat
 70
     0
 71
     2
 72
     1
 73
     1
 90
        2
 40
0.6
 41
30.0
 62
     5
 63
     7
421
 16777215
 74
     0
 91
        4
 64
     7
 65
   257
 75
     1
175
     1
 42
1.0
 92
        8
 66
     7
 43
1.0
 76
     1
 77
     6
 78
     2
 67
     7
 79
     5
170
     0
171
     0
290
     0
174
     0
 93
       13
 44
0.0
173
     0
291
     1
 45
0.0
1001
ACAD
1000
AcDbSavedByObjectVersion
1070
     0
  0
VISUALSTYLE
  5
2C
102
{ACAD_REACTORS
330
2A
102
}
102
{ACAD_XDICTIONARY
360
219
102
}
330
2A
100
AcDbVisualStyle
  2
FlatWithEdges
 70
     1
 71
     2
 72
     1
 73
     1
 90
        2
 40
0.6
 41
30.0
 62
     5
 63
     7
421
 16777215
 74
     1
 91
        4
 64
     7
 65
   257
 75
     1
175
     1
 42
1.0
 92
        0
 66
   257
 43
1.0
 76
     1
 77
     6
 78
     2
 67
     7
 79
     5
170
     0
171
     0
290
     0
174
     0
 93
       13
 44
0.0
173
     0
291
     1
 45
0.0
1001
ACAD
1000
AcDbSavedByObjectVersion
1070
     0
  0
VISUALSTYLE
  5
2D
102
{ACAD_REACTORS
330
2A
102
}
102
{ACAD_XDICTIONARY
360
21B
102
}
330
2A
100
AcDbVisualStyle
  2
Gouraud
 70
     2
 71
     2
 72
     2
 73
     1
 90
        2
 40
0.6
 41
30.0
 62
     5
 63
     7
421
 16777215
 74
     0
 91
        4
 64
     7
 65
   257
 75
     1
175
     1
 42
1.0
 92
        0
 66
     7
 43
1.0
 76
     1
 77
     6
 78
     2
 67
     7
 79
     5
170
     0
171
     0
290
     0
174
     0
 93
       13
 44
0.0
173
     0
291
     1
 45
0.0
1001
ACAD
1000
AcDbSavedByObjectVersion
1070
     0
  0
VISUALSTYLE
  5
2E
102
{ACAD_REACTORS
330
2A
102
}
102
{ACAD_XDICTIONARY
360
21D
102
}
330
2A
100
AcDbVisualStyle
  2
GouraudWithEdges
 70
     3
 71
     2
 72
     2
 73
     1
 90
        2
 40
0.6
 41
30.0
 62
     5
 63
     7
421
 16777215
 74
     1
 91
        4
 64
     7
 65
   257
 75
     1
175
     1
 42
1.0
 92
        0
 66
   257
 43
1.0
 76
     1
 77
     6
 78
     2
 67
     7
 79
     5
170
     0
171
     0
290
     0
174
     0
 93
       13
 44
0.0
173
     0
291
     1
 45
0.0
1001
ACAD
1000
AcDbSavedByObjectVersion
1070
     0
  0
VISUALSTYLE
  5
38
102
{ACAD_REACTORS
330
2A
102
}
102
{ACAD_XDICTIONARY
360
231
102
}
330
2A
100
AcDbVisualStyle
  2
Linepattern
 70
    14
 71
     2
 72
     2
 73
     0
 90
        0
 40
0.6
 41
30.0
 62
     5
 63
     7
421
 16777215
 74
     1
 91
        4
 64
     7
 65
   257
 75
     7
175
     7
 42
1.0
 92
        8
 66
     7
 43
1.0
 76
     1
 77
     6
 78
     2
 67
     7
 79
     5
170
     0
171
     0
290
     0
174
     0
 93
        1
 44
0.0
173
     0
291
     1
 45
0.0
1001
ACAD
1000
AcDbSavedByObjectVersion
1070
     0
  0
VISUALSTYLE
  5
33
102
{ACAD_REACTORS
330
2A
102
}
102
{ACAD_XDICTIONARY
360
227
102
}
330
2A
100
AcDbVisualStyle
  2
Realistic
 70
     8
 71
     2
 72
     3
 73
     0
 90
        2
 40
0.6
 41
30.0
 62
     5
 63
     7
421
 16777215
 74
     0
 91
        0
 64
     7
 65
   257
 75
     1
175
     1
 42
1.0
 92
        8
 66
   257
 43
1.0
 76
     1
 77
     6
 78
     2
 67
     7
 79
     3
170
     0
171
     0
290
     0
174
     0
 93
       13
 44
0.0
173
     0
291
     0
 45
0.0
1001
ACAD
1000
AcDbSavedByObjectVersion
1070
     0
  0
VISUALSTYLE
  5
37
102
{ACAD_REACTORS
330
2A
102
}
102
{ACAD_XDICTIONARY
360
22F
102
}
330
2A
100
AcDbVisualStyle
  2
Thicken
 70
    13
 71
     2
 72
     2
 73
     0
 90
        0
 40
0.6
 41
30.0
 62
     5
 63
     7
421
 16777215
 74
     1
 91
        4
 64
     7
 65
   257
 75
     1
175
     1
 42
1.0
 92
       12
 66
     7
 43
1.0
 76
     1
 77
     6
 78
     2
 67
     7
 79
     5
170
     0
171
     0
290
     0
174
     0
 93
        1
 44
0.0
173
     0
291
     1
 45
0.0
1001
ACAD
1000
AcDbSavedByObjectVersion
1070
     0
  0
DICTIONARYVAR
  5
215
102
{ACAD_REACTORS
330
214
102
}
330
214
100
DictionaryVariables
280
     0
  1
1:1
  0
DICTIONARYVAR
  5
216
102
{ACAD_REACTORS
330
214
102
}
330
214
100
DictionaryVariables
280
     0
  1
1
  0
DICTIONARY
  5
239
330
3D
100
AcDbDictionary
280
     1
281
     1
  3
ACAD_XREC_ROUNDTRIP
360
23A
  0
DICTIONARY
  5
237
330
3C
100
AcDbDictionary
280
     1
281
     1
  3
ACAD_XREC_ROUNDTRIP
360
238
  0
DICTIONARY
  5
23B
330
3E
100
AcDbDictionary
280
     1
281
     1
  3
ACAD_XREC_ROUNDTRIP
360
23C
  0
DICTIONARY
  5
21F
330
2F
100
AcDbDictionary
280
     1
281
     1
  3
ACAD_XREC_ROUNDTRIP
360
220
  0
DICTIONARY
  5
223
330
31
100
AcDbDictionary
280
     1
281
     1
  3
ACAD_XREC_ROUNDTRIP
360
224
  0
DICTIONARY
  5
221
330
30
100
AcDbDictionary
280
     1
281
     1
  3
ACAD_XREC_ROUNDTRIP
360
222
  0
DICTIONARY
  5
225
330
32
100
AcDbDictionary
280
     1
281
     1
  3
ACAD_XREC_ROUNDTRIP
360
226
  0
DICTIONARY
  5
22D
330
36
100
AcDbDictionary
280
     1
281
     1
  3
ACAD_XREC_ROUNDTRIP
360
22E
  0
DICTIONARY
  5
235
330
3A
100
AcDbDictionary
280
     1
281
     1
  3
ACAD_XREC_ROUNDTRIP
360
236
  0
DICTIONARY
  5
229
330
34
100
AcDbDictionary
280
     1
281
     1
  3
ACAD_XREC_ROUNDTRIP
360
22A
  0
DICTIONARY
  5
22B
330
35
100
AcDbDictionary
280
     1
281
     1
  3
ACAD_XREC_ROUNDTRIP
360
22C
  0
DICTIONARY
  5
233
330
39
100
AcDbDictionary
280
     1
281
     1
  3
ACAD_XREC_ROUNDTRIP
360
234
  0
DICTIONARY
  5
217
330
2B
100
AcDbDictionary
280
     1
281
     1
  3
ACAD_XREC_ROUNDTRIP
360
218
  0
DICTIONARY
  5
219
330
2C
100
AcDbDictionary
280
     1
281
     1
  3
ACAD_XREC_ROUNDTRIP
360
21A
  0
DICTIONARY
  5
21B
330
2D
100
AcDbDictionary
280
     1
281
     1
  3
ACAD_XREC_ROUNDTRIP
360
21C
  0
DICTIONARY
  5
21D
330
2E
100
AcDbDictionary
280
     1
281
     1
  3
ACAD_XREC_ROUNDTRIP
360
21E
  0
DICTIONARY
  5
231
330
38
100
AcDbDictionary
280
     1
281
     1
  3
ACAD_XREC_ROUNDTRIP
360
232
  0
DICTIONARY
  5
227
330
33
100
AcDbDictionary
280
     1
281
     1
  3
ACAD_XREC_ROUNDTRIP
360
228
  0
DICTIONARY
  5
22F
330
37
100
AcDbDictionary
280
     1
281
     1
  3
ACAD_XREC_ROUNDTRIP
360
230
  0
XRECORD
  5
23A
102
{ACAD_REACTORS
330
239
102
}
330
239
100
AcDbXrecord
280
     1
102
MATERIAL
148
0.0
149
0.0
149
0.0
 93
        0
 94
      127
282
     0
 72
     1
 77
     1
171
     1
175
     1
179
     1
273
     0
  0
XRECORD
  5
238
102
{ACAD_REACTORS
330
237
102
}
330
237
100
AcDbXrecord
280
     1
102
MATERIAL
148
0.0
149
0.0
149
0.0
 93
        0
 94
      127
282
     0
 72
     1
 77
     1
171
     1
175
     1
179
     1
273
     0
  0
XRECORD
  5
23C
102
{ACAD_REACTORS
330
23B
102
}
330
23B
100
AcDbXrecord
280
     1
102
MATERIAL
148
0.0
149
0.0
149
0.0
 93
        0
 94
      127
282
     0
 72
     1
 77
     1
171
     1
175
     1
179
     1
273
     0
  0
XRECORD
  5
220
102
{ACAD_REACTORS
330
21F
102
}
330
21F
100
AcDbXrecord
280
     1
102
RTVSPropertyOp0
 70
     1
102
RTVSPropertyOp1
 70
     1
102
RTVSPropertyOp2
 70
     1
102
RTVSPropertyOp3
 70
     1
102
RTVSPropertyOp4
 70
     1
102
RTVSPropertyOp5
 70
     1
102
RTVSPropertyOp6
 70
     1
102
RTVSPropertyOp7
 70
     1
102
RTVSPropertyOp8
 70
     1
102
RTVSPropertyOp9
 70
     1
102
RTVSPropertyOp10
 70
     1
102
RTVSPropertyOp11
 70
     1
102
RTVSPropertyOp12
 70
     1
102
RTVSPropertyOp13
 70
     1
102
RTVSPropertyOp14
 70
     1
102
RTVSPropertyOp15
 70
     1
102
RTVSPropertyOp16
 70
     1
102
RTVSPropertyOp17
 70
     1
102
RTVSPropertyOp18
 70
     1
102
RTVSPropertyOp19
 70
     1
102
RTVSPropertyOp20
 70
     1
102
RTVSPropertyOp21
 70
     1
102
RTVSPropertyOp22
 70
     1
102
RTVSPropertyOp23
 70
     1
102
RTVSPropertyOp24
 70
     1
102
RTVSPropertyOp25
 70
     1
102
RTVSPropertyOp26
 70
     1
102
RTVSPropertyOp27
 70
     1
102
RTVSPropertyOp28
 70
     1
102
RTVSPropertyOp29
 70
     1
102
RTVSPropertyOp30
 70
     1
102
RTVSPropertyOp31
 70
     1
102
RTVSPropertyOp32
 70
     1
102
RTVSPropertyOp33
 70
     1
102
RTVSPropertyOp34
 70
     1
102
RTVSPropertyOp35
 70
     1
102
RTVSPropertyOp36
 70
     1
102
RTVSPropertyOp37
 70
     1
102
RTVSPropertyOp38
 70
     1
102
RTVSPropertyOp39
 70
     1
102
RTVSPropertyOp40
 70
     1
102
RTVSPropertyOp41
 70
     1
102
RTVSPropertyOp42
 70
     1
102
RTVSPropertyOp43
 70
     1
102
RTVSPropertyOp44
 70
     1
102
RTVSPropertyOp45
 70
     1
102
RTVSPropertyOp46
 70
     1
102
RTVSPropertyOp47
 70
     1
102
RTVSPropertyOp48
 70
     1
102
RTVSPropertyOp49
 70
     1
102
RTVSPropertyOp50
 70
     1
102
RTVSPropertyOp51
 70
     0
102
RTVSPropertyOp52
 70
     0
102
RTVSPropertyOp53
 70
     1
102
RTVSPropertyOp54
 70
     1
102
RTVSPropertyOp55
 70
     1
102
RTVSPropertyOp56
 70
     1
102
RTVSPropertyOp57
 70
     1
102
RTVSPost2010Prop28
280
     1
102
RTVSPost2010PropOp28
 70
     1
102
RTVSPost2010Prop29
280
     1
102
RTVSPost2010PropOp29
 70
     1
102
RTVSPost2010Prop30
280
     0
102
RTVSPost2010PropOp30
 70
     1
102
RTVSPost2010Prop31
280
     0
102
RTVSPost2010PropOp31
 70
     1
102
RTVSPost2010Prop32
280
     0
102
RTVSPost2010PropOp32
 70
     1
102
RTVSPost2010Prop33
280
     0
102
RTVSPost2010PropOp33
 70
     1
102
RTVSPost2010Prop34
280
     0
102
RTVSPost2010PropOp34
 70
     1
102
RTVSPost2010Prop35
280
     0
102
RTVSPost2010PropOp35
 70
     1
102
RTVSPost2010Prop36
280
     0
102
RTVSPost2010PropOp36
 70
     1
102
RTVSPost2010Prop37
 90
       50
102
RTVSPost2010PropOp37
 70
     1
102
RTVSPost2010Prop38
140
0.0
102
RTVSPost2010PropOp38
 70
     1
102
RTVSPost2010Prop39
140
1.0
102
RTVSPost2010PropOp39
 70
     1
102
RTVSPost2010Prop40
 90
        0
102
RTVSPost2010PropOp40
 70
     1
102
RTVSPost2010Prop41ColorIndex
 90
       18
102
RTVSPost2010Prop41ColorRGB
 90
        0
102
RTVSPost2010PropOp41
 70
     1
102
RTVSPost2010Prop42
 90
       50
102
RTVSPost2010PropOp42
 70
     1
102
RTVSPost2010Prop43
 90
        3
102
RTVSPost2010PropOp43
 70
     1
102
RTVSPost2010Prop44ColorIndex
 90
        5
102
RTVSPost2010Prop44ColorRGB
 90
      255
102
RTVSPost2010PropOp44
 70
     1
102
RTVSPost2010Prop45
280
     0
102
RTVSPost2010PropOp45
 70
     1
102
RTVSPost2010Prop46
 90
       50
102
RTVSPost2010PropOp46
 70
     1
102
RTVSPost2010Prop47
 90
       50
102
RTVSPost2010PropOp47
 70
     1
102
RTVSPost2010Prop48
 90
       50
102
RTVSPost2010PropOp48
 70
     1
102
RTVSPost2010Prop49
280
     0
102
RTVSPost2010PropOp49
 70
     1
102
RTVSPost2010Prop50
 90
       50
102
RTVSPost2010PropOp50
 70
     1
102
RTVSPost2010Prop51ColorIndex
 90
      256
102
RTVSPost2010Prop51ColorRGB
 90
-16777216
102
RTVSPost2010PropOp51
 70
     0
102
RTVSPost2010Prop52
140
1.0
102
RTVSPost2010PropOp52
 70
     0
102
RTVSPost2010Prop53
 90
        2
102
RTVSPost2010PropOp53
 70
     1
102
RTVSPost2010Prop54
  1
strokes_ogs.tif
102
RTVSPost2010PropOp54
 70
     1
102
RTVSPost2010Prop55
280
     0
102
RTVSPost2010PropOp55
 70
     1
102
RTVSPost2010Prop56
140
1.0
102
RTVSPost2010PropOp56
 70
     1
102
RTVSPost2010Prop57
140
1.0
102
RTVSPost2010PropOp57
 70
     1
  0
XRECORD
  5
224
102
{ACAD_REACTORS
330
223
102
}
330
223
100
AcDbXrecord
280
     1
102
RTVSPropertyOp0
 70
     1
102
RTVSPropertyOp1
 70
     1
102
RTVSPropertyOp2
 70
     1
102
RTVSPropertyOp3
 70
     1
102
RTVSPropertyOp4
 70
     1
102
RTVSPropertyOp5
 70
     1
102
RTVSPropertyOp6
 70
     1
102
RTVSPropertyOp7
 70
     1
102
RTVSPropertyOp8
 70
     1
102
RTVSPropertyOp9
 70
     1
102
RTVSPropertyOp10
 70
     1
102
RTVSPropertyOp11
 70
     1
102
RTVSPropertyOp12
 70
     1
102
RTVSPropertyOp13
 70
     1
102
RTVSPropertyOp14
 70
     1
102
RTVSPropertyOp15
 70
     1
102
RTVSPropertyOp16
 70
     1
102
RTVSPropertyOp17
 70
     1
102
RTVSPropertyOp18
 70
     1
102
RTVSPropertyOp19
 70
     1
102
RTVSPropertyOp20
 70
     1
102
RTVSPropertyOp21
 70
     1
102
RTVSPropertyOp22
 70
     1
102
RTVSPropertyOp23
 70
     1
102
RTVSPropertyOp24
 70
     1
102
RTVSPropertyOp25
 70
     1
102
RTVSPropertyOp26
 70
     1
102
RTVSPropertyOp27
 70
     1
102
RTVSPropertyOp28
 70
     1
102
RTVSPropertyOp29
 70
     1
102
RTVSPropertyOp30
 70
     1
102
RTVSPropertyOp31
 70
     1
102
RTVSPropertyOp32
 70
     1
102
RTVSPropertyOp33
 70
     1
102
RTVSPropertyOp34
 70
     1
102
RTVSPropertyOp35
 70
     1
102
RTVSPropertyOp36
 70
     1
102
RTVSPropertyOp37
 70
     1
102
RTVSPropertyOp38
 70
     1
102
RTVSPropertyOp39
 70
     1
102
RTVSPropertyOp40
 70
     1
102
RTVSPropertyOp41
 70
     1
102
RTVSPropertyOp42
 70
     1
102
RTVSPropertyOp43
 70
     1
102
RTVSPropertyOp44
 70
     1
102
RTVSPropertyOp45
 70
     1
102
RTVSPropertyOp46
 70
     1
102
RTVSPropertyOp47
 70
     1
102
RTVSPropertyOp48
 70
     1
102
RTVSPropertyOp49
 70
     1
102
RTVSPropertyOp50
 70
     1
102
RTVSPropertyOp51
 70
     0
102
RTVSPropertyOp52
 70
     0
102
RTVSPropertyOp53
 70
     1
102
RTVSPropertyOp54
 70
     1
102
RTVSPropertyOp55
 70
     1
102
RTVSPropertyOp56
 70
     1
102
RTVSPropertyOp57
 70
     1
102
RTVSPost2010Prop28
280
     0
102
RTVSPost2010PropOp28
 70
     1
102
RTVSPost2010Prop29
280
     1
102
RTVSPost2010PropOp29
 70
     1
102
RTVSPost2010Prop30
280
     1
102
RTVSPost2010PropOp30
 70
     1
102
RTVSPost2010Prop31
280
     0
102
RTVSPost2010PropOp31
 70
     1
102
RTVSPost2010Prop32
280
     0
102
RTVSPost2010PropOp32
 70
     1
102
RTVSPost2010Prop33
280
     0
102
RTVSPost2010PropOp33
 70
     1
102
RTVSPost2010Prop34
280
     0
102
RTVSPost2010PropOp34
 70
     1
102
RTVSPost2010Prop35
280
     0
102
RTVSPost2010PropOp35
 70
     1
102
RTVSPost2010Prop36
280
     0
102
RTVSPost2010PropOp36
 70
     1
102
RTVSPost2010Prop37
 90
       50
102
RTVSPost2010PropOp37
 70
     1
102
RTVSPost2010Prop38
140
0.0
102
RTVSPost2010PropOp38
 70
     1
102
RTVSPost2010Prop39
140
1.0
102
RTVSPost2010PropOp39
 70
     1
102
RTVSPost2010Prop40
 90
        0
102
RTVSPost2010PropOp40
 70
     1
102
RTVSPost2010Prop41ColorIndex
 90
       18
102
RTVSPost2010Prop41ColorRGB
 90
        0
102
RTVSPost2010PropOp41
 70
     1
102
RTVSPost2010Prop42
 90
       50
102
RTVSPost2010PropOp42
 70
     1
102
RTVSPost2010Prop43
 90
        3
102
RTVSPost2010PropOp43
 70
     1
102
RTVSPost2010Prop44ColorIndex
 90
        5
102
RTVSPost2010Prop44ColorRGB
 90
      255
102
RTVSPost2010PropOp44
 70
     1
102
RTVSPost2010Prop45
280
     0
102
RTVSPost2010PropOp45
 70
     1
102
RTVSPost2010Prop46
 90
       50
102
RTVSPost2010PropOp46
 70
     1
102
RTVSPost2010Prop47
 90
       50
102
RTVSPost2010PropOp47
 70
     1
102
RTVSPost2010Prop48
 90
       50
102
RTVSPost2010PropOp48
 70
     1
102
RTVSPost2010Prop49
280
     0
102
RTVSPost2010PropOp49
 70
     1
102
RTVSPost2010Prop50
 90
       50
102
RTVSPost2010PropOp50
 70
     1
102
RTVSPost2010Prop51ColorIndex
 90
      256
102
RTVSPost2010Prop51ColorRGB
 90
-16777216
102
RTVSPost2010PropOp51
 70
     0
102
RTVSPost2010Prop52
140
1.0
102
RTVSPost2010PropOp52
 70
     0
102
RTVSPost2010Prop53
 90
        2
102
RTVSPost2010PropOp53
 70
     1
102
RTVSPost2010Prop54
  1
strokes_ogs.tif
102
RTVSPost2010PropOp54
 70
     1
102
RTVSPost2010Prop55
280
     0
102
RTVSPost2010PropOp55
 70
     1
102
RTVSPost2010Prop56
140
1.0
102
RTVSPost2010PropOp56
 70
     1
102
RTVSPost2010Prop57
140
1.0
102
RTVSPost2010PropOp57
 70
     1
  0
XRECORD
  5
222
102
{ACAD_REACTORS
330
221
102
}
330
221
100
AcDbXrecord
280
     1
102
RTVSPropertyOp0
 70
     1
102
RTVSPropertyOp1
 70
     1
102
RTVSPropertyOp2
 70
     1
102
RTVSPropertyOp3
 70
     1
102
RTVSPropertyOp4
 70
     1
102
RTVSPropertyOp5
 70
     1
102
RTVSPropertyOp6
 70
     1
102
RTVSPropertyOp7
 70
     1
102
RTVSPropertyOp8
 70
     1
102
RTVSPropertyOp9
 70
     1
102
RTVSPropertyOp10
 70
     1
102
RTVSPropertyOp11
 70
     1
102
RTVSPropertyOp12
 70
     1
102
RTVSPropertyOp13
 70
     1
102
RTVSPropertyOp14
 70
     1
102
RTVSPropertyOp15
 70
     1
102
RTVSPropertyOp16
 70
     1
102
RTVSPropertyOp17
 70
     1
102
RTVSPropertyOp18
 70
     1
102
RTVSPropertyOp19
 70
     1
102
RTVSPropertyOp20
 70
     1
102
RTVSPropertyOp21
 70
     1
102
RTVSPropertyOp22
 70
     1
102
RTVSPropertyOp23
 70
     1
102
RTVSPropertyOp24
 70
     1
102
RTVSPropertyOp25
 70
     1
102
RTVSPropertyOp26
 70
     1
102
RTVSPropertyOp27
 70
     1
102
RTVSPropertyOp28
 70
     1
102
RTVSPropertyOp29
 70
     1
102
RTVSPropertyOp30
 70
     1
102
RTVSPropertyOp31
 70
     1
102
RTVSPropertyOp32
 70
     1
102
RTVSPropertyOp33
 70
     1
102
RTVSPropertyOp34
 70
     1
102
RTVSPropertyOp35
 70
     1
102
RTVSPropertyOp36
 70
     1
102
RTVSPropertyOp37
 70
     1
102
RTVSPropertyOp38
 70
     1
102
RTVSPropertyOp39
 70
     1
102
RTVSPropertyOp40
 70
     1
102
RTVSPropertyOp41
 70
     1
102
RTVSPropertyOp42
 70
     1
102
RTVSPropertyOp43
 70
     1
102
RTVSPropertyOp44
 70
     1
102
RTVSPropertyOp45
 70
     1
102
RTVSPropertyOp46
 70
     1
102
RTVSPropertyOp47
 70
     1
102
RTVSPropertyOp48
 70
     1
102
RTVSPropertyOp49
 70
     1
102
RTVSPropertyOp50
 70
     1
102
RTVSPropertyOp51
 70
     0
102
RTVSPropertyOp52
 70
     0
102
RTVSPropertyOp53
 70
     1
102
RTVSPropertyOp54
 70
     1
102
RTVSPropertyOp55
 70
     1
102
RTVSPropertyOp56
 70
     1
102
RTVSPropertyOp57
 70
     1
102
RTVSPost2010Prop28
280
     0
102
RTVSPost2010PropOp28
 70
     1
102
RTVSPost2010Prop29
280
     1
102
RTVSPost2010PropOp29
 70
     1
102
RTVSPost2010Prop30
280
     1
102
RTVSPost2010PropOp30
 70
     1
102
RTVSPost2010Prop31
280
     0
102
RTVSPost2010PropOp31
 70
     1
102
RTVSPost2010Prop32
280
     0
102
RTVSPost2010PropOp32
 70
     1
102
RTVSPost2010Prop33
280
     0
102
RTVSPost2010PropOp33
 70
     1
102
RTVSPost2010Prop34
280
     0
102
RTVSPost2010PropOp34
 70
     1
102
RTVSPost2010Prop35
280
     0
102
RTVSPost2010PropOp35
 70
     1
102
RTVSPost2010Prop36
280
     0
102
RTVSPost2010PropOp36
 70
     1
102
RTVSPost2010Prop37
 90
       50
102
RTVSPost2010PropOp37
 70
     1
102
RTVSPost2010Prop38
140
0.0
102
RTVSPost2010PropOp38
 70
     1
102
RTVSPost2010Prop39
140
1.0
102
RTVSPost2010PropOp39
 70
     1
102
RTVSPost2010Prop40
 90
        0
102
RTVSPost2010PropOp40
 70
     1
102
RTVSPost2010Prop41ColorIndex
 90
       18
102
RTVSPost2010Prop41ColorRGB
 90
        0
102
RTVSPost2010PropOp41
 70
     1
102
RTVSPost2010Prop42
 90
       50
102
RTVSPost2010PropOp42
 70
     1
102
RTVSPost2010Prop43
 90
        3
102
RTVSPost2010PropOp43
 70
     1
102
RTVSPost2010Prop44ColorIndex
 90
        5
102
RTVSPost2010Prop44ColorRGB
 90
      255
102
RTVSPost2010PropOp44
 70
     1
102
RTVSPost2010Prop45
280
     0
102
RTVSPost2010PropOp45
 70
     1
102
RTVSPost2010Prop46
 90
       50
102
RTVSPost2010PropOp46
 70
     1
102
RTVSPost2010Prop47
 90
       50
102
RTVSPost2010PropOp47
 70
     1
102
RTVSPost2010Prop48
 90
       50
102
RTVSPost2010PropOp48
 70
     1
102
RTVSPost2010Prop49
280
     0
102
RTVSPost2010PropOp49
 70
     1
102
RTVSPost2010Prop50
 90
       50
102
RTVSPost2010PropOp50
 70
     1
102
RTVSPost2010Prop51ColorIndex
 90
      256
102
RTVSPost2010Prop51ColorRGB
 90
-16777216
102
RTVSPost2010PropOp51
 70
     0
102
RTVSPost2010Prop52
140
1.0
102
RTVSPost2010PropOp52
 70
     0
102
RTVSPost2010Prop53
 90
        2
102
RTVSPost2010PropOp53
 70
     1
102
RTVSPost2010Prop54
  1
strokes_ogs.tif
102
RTVSPost2010PropOp54
 70
     1
102
RTVSPost2010Prop55
280
     0
102
RTVSPost2010PropOp55
 70
     1
102
RTVSPost2010Prop56
140
1.0
102
RTVSPost2010PropOp56
 70
     1
102
RTVSPost2010Prop57
140
1.0
102
RTVSPost2010PropOp57
 70
     1
  0
XRECORD
  5
226
102
{ACAD_REACTORS
330
225
102
}
330
225
100
AcDbXrecord
280
     1
102
RTVSPropertyOp0
 70
     1
102
RTVSPropertyOp1
 70
     1
102
RTVSPropertyOp2
 70
     1
102
RTVSPropertyOp3
 70
     1
102
RTVSPropertyOp4
 70
     1
102
RTVSPropertyOp5
 70
     1
102
RTVSPropertyOp6
 70
     1
102
RTVSPropertyOp7
 70
     1
102
RTVSPropertyOp8
 70
     1
102
RTVSPropertyOp9
 70
     1
102
RTVSPropertyOp10
 70
     1
102
RTVSPropertyOp11
 70
     1
102
RTVSPropertyOp12
 70
     1
102
RTVSPropertyOp13
 70
     1
102
RTVSPropertyOp14
 70
     1
102
RTVSPropertyOp15
 70
     1
102
RTVSPropertyOp16
 70
     1
102
RTVSPropertyOp17
 70
     1
102
RTVSPropertyOp18
 70
     1
102
RTVSPropertyOp19
 70
     1
102
RTVSPropertyOp20
 70
     1
102
RTVSPropertyOp21
 70
     1
102
RTVSPropertyOp22
 70
     1
102
RTVSPropertyOp23
 70
     1
102
RTVSPropertyOp24
 70
     1
102
RTVSPropertyOp25
 70
     1
102
RTVSPropertyOp26
 70
     1
102
RTVSPropertyOp27
 70
     1
102
RTVSPropertyOp28
 70
     1
102
RTVSPropertyOp29
 70
     1
102
RTVSPropertyOp30
 70
     1
102
RTVSPropertyOp31
 70
     1
102
RTVSPropertyOp32
 70
     1
102
RTVSPropertyOp33
 70
     1
102
RTVSPropertyOp34
 70
     1
102
RTVSPropertyOp35
 70
     1
102
RTVSPropertyOp36
 70
     1
102
RTVSPropertyOp37
 70
     1
102
RTVSPropertyOp38
 70
     1
102
RTVSPropertyOp39
 70
     1
102
RTVSPropertyOp40
 70
     1
102
RTVSPropertyOp41
 70
     1
102
RTVSPropertyOp42
 70
     1
102
RTVSPropertyOp43
 70
     1
102
RTVSPropertyOp44
 70
     1
102
RTVSPropertyOp45
 70
     1
102
RTVSPropertyOp46
 70
     1
102
RTVSPropertyOp47
 70
     1
102
RTVSPropertyOp48
 70
     1
102
RTVSPropertyOp49
 70
     1
102
RTVSPropertyOp50
 70
     1
102
RTVSPropertyOp51
 70
     0
102
RTVSPropertyOp52
 70
     0
102
RTVSPropertyOp53
 70
     1
102
RTVSPropertyOp54
 70
     1
102
RTVSPropertyOp55
 70
     1
102
RTVSPropertyOp56
 70
     1
102
RTVSPropertyOp57
 70
     1
102
RTVSPost2010Prop28
280
     0
102
RTVSPost2010PropOp28
 70
     1
102
RTVSPost2010Prop29
280
     1
102
RTVSPost2010PropOp29
 70
     1
102
RTVSPost2010Prop30
280
     1
102
RTVSPost2010PropOp30
 70
     1
102
RTVSPost2010Prop31
280
     0
102
RTVSPost2010PropOp31
 70
     1
102
RTVSPost2010Prop32
280
     0
102
RTVSPost2010PropOp32
 70
     1
102
RTVSPost2010Prop33
280
     0
102
RTVSPost2010PropOp33
 70
     1
102
RTVSPost2010Prop34
280
     0
102
RTVSPost2010PropOp34
 70
     1
102
RTVSPost2010Prop35
280
     0
102
RTVSPost2010PropOp35
 70
     1
102
RTVSPost2010Prop36
280
     0
102
RTVSPost2010PropOp36
 70
     1
102
RTVSPost2010Prop37
 90
       50
102
RTVSPost2010PropOp37
 70
     1
102
RTVSPost2010Prop38
140
0.0
102
RTVSPost2010PropOp38
 70
     1
102
RTVSPost2010Prop39
140
1.0
102
RTVSPost2010PropOp39
 70
     1
102
RTVSPost2010Prop40
 90
        0
102
RTVSPost2010PropOp40
 70
     1
102
RTVSPost2010Prop41ColorIndex
 90
       18
102
RTVSPost2010Prop41ColorRGB
 90
        0
102
RTVSPost2010PropOp41
 70
     1
102
RTVSPost2010Prop42
 90
       50
102
RTVSPost2010PropOp42
 70
     1
102
RTVSPost2010Prop43
 90
        3
102
RTVSPost2010PropOp43
 70
     1
102
RTVSPost2010Prop44ColorIndex
 90
        5
102
RTVSPost2010Prop44ColorRGB
 90
      255
102
RTVSPost2010PropOp44
 70
     1
102
RTVSPost2010Prop45
280
     0
102
RTVSPost2010PropOp45
 70
     1
102
RTVSPost2010Prop46
 90
       50
102
RTVSPost2010PropOp46
 70
     1
102
RTVSPost2010Prop47
 90
       50
102
RTVSPost2010PropOp47
 70
     1
102
RTVSPost2010Prop48
 90
       50
102
RTVSPost2010PropOp48
 70
     1
102
RTVSPost2010Prop49
280
     0
102
RTVSPost2010PropOp49
 70
     1
102
RTVSPost2010Prop50
 90
       50
102
RTVSPost2010PropOp50
 70
     1
102
RTVSPost2010Prop51ColorIndex
 90
      256
102
RTVSPost2010Prop51ColorRGB
 90
-16777216
102
RTVSPost2010PropOp51
 70
     0
102
RTVSPost2010Prop52
140
1.0
102
RTVSPost2010PropOp52
 70
     0
102
RTVSPost2010Prop53
 90
        2
102
RTVSPost2010PropOp53
 70
     1
102
RTVSPost2010Prop54
  1
strokes_ogs.tif
102
RTVSPost2010PropOp54
 70
     1
102
RTVSPost2010Prop55
280
     0
102
RTVSPost2010PropOp55
 70
     1
102
RTVSPost2010Prop56
140
1.0
102
RTVSPost2010PropOp56
 70
     1
102
RTVSPost2010Prop57
140
1.0
102
RTVSPost2010PropOp57
 70
     1
  0
XRECORD
  5
22E
102
{ACAD_REACTORS
330
22D
102
}
330
22D
100
AcDbXrecord
280
     1
102
RTVSPropertyOp0
 70
     1
102
RTVSPropertyOp1
 70
     1
102
RTVSPropertyOp2
 70
     1
102
RTVSPropertyOp3
 70
     1
102
RTVSPropertyOp4
 70
     1
102
RTVSPropertyOp5
 70
     1
102
RTVSPropertyOp6
 70
     1
102
RTVSPropertyOp7
 70
     1
102
RTVSPropertyOp8
 70
     1
102
RTVSPropertyOp9
 70
     1
102
RTVSPropertyOp10
 70
     1
102
RTVSPropertyOp11
 70
     1
102
RTVSPropertyOp12
 70
     1
102
RTVSPropertyOp13
 70
     1
102
RTVSPropertyOp14
 70
     1
102
RTVSPropertyOp15
 70
     1
102
RTVSPropertyOp16
 70
     1
102
RTVSPropertyOp17
 70
     1
102
RTVSPropertyOp18
 70
     1
102
RTVSPropertyOp19
 70
     1
102
RTVSPropertyOp20
 70
     1
102
RTVSPropertyOp21
 70
     1
102
RTVSPropertyOp22
 70
     1
102
RTVSPropertyOp23
 70
     1
102
RTVSPropertyOp24
 70
     1
102
RTVSPropertyOp25
 70
     1
102
RTVSPropertyOp26
 70
     1
102
RTVSPropertyOp27
 70
     1
102
RTVSPropertyOp28
 70
     1
102
RTVSPropertyOp29
 70
     1
102
RTVSPropertyOp30
 70
     1
102
RTVSPropertyOp31
 70
     1
102
RTVSPropertyOp32
 70
     1
102
RTVSPropertyOp33
 70
     1
102
RTVSPropertyOp34
 70
     1
102
RTVSPropertyOp35
 70
     1
102
RTVSPropertyOp36
 70
     1
102
RTVSPropertyOp37
 70
     1
102
RTVSPropertyOp38
 70
     1
102
RTVSPropertyOp39
 70
     1
102
RTVSPropertyOp40
 70
     1
102
RTVSPropertyOp41
 70
     1
102
RTVSPropertyOp42
 70
     1
102
RTVSPropertyOp43
 70
     1
102
RTVSPropertyOp44
 70
     1
102
RTVSPropertyOp45
 70
     1
102
RTVSPropertyOp46
 70
     1
102
RTVSPropertyOp47
 70
     1
102
RTVSPropertyOp48
 70
     1
102
RTVSPropertyOp49
 70
     1
102
RTVSPropertyOp50
 70
     1
102
RTVSPropertyOp51
 70
     0
102
RTVSPropertyOp52
 70
     0
102
RTVSPropertyOp53
 70
     1
102
RTVSPropertyOp54
 70
     1
102
RTVSPropertyOp55
 70
     1
102
RTVSPropertyOp56
 70
     1
102
RTVSPropertyOp57
 70
     1
102
RTVSPost2010Prop28
280
     0
102
RTVSPost2010PropOp28
 70
     1
102
RTVSPost2010Prop29
280
     1
102
RTVSPost2010PropOp29
 70
     1
102
RTVSPost2010Prop30
280
     1
102
RTVSPost2010PropOp30
 70
     1
102
RTVSPost2010Prop31
280
     0
102
RTVSPost2010PropOp31
 70
     1
102
RTVSPost2010Prop32
280
     0
102
RTVSPost2010PropOp32
 70
     1
102
RTVSPost2010Prop33
280
     0
102
RTVSPost2010PropOp33
 70
     1
102
RTVSPost2010Prop34
280
     0
102
RTVSPost2010PropOp34
 70
     1
102
RTVSPost2010Prop35
280
     0
102
RTVSPost2010PropOp35
 70
     1
102
RTVSPost2010Prop36
280
     0
102
RTVSPost2010PropOp36
 70
     1
102
RTVSPost2010Prop37
 90
       50
102
RTVSPost2010PropOp37
 70
     1
102
RTVSPost2010Prop38
140
0.0
102
RTVSPost2010PropOp38
 70
     1
102
RTVSPost2010Prop39
140
1.0
102
RTVSPost2010PropOp39
 70
     1
102
RTVSPost2010Prop40
 90
        0
102
RTVSPost2010PropOp40
 70
     1
102
RTVSPost2010Prop41ColorIndex
 90
       18
102
RTVSPost2010Prop41ColorRGB
 90
        0
102
RTVSPost2010PropOp41
 70
     1
102
RTVSPost2010Prop42
 90
       50
102
RTVSPost2010PropOp42
 70
     1
102
RTVSPost2010Prop43
 90
        3
102
RTVSPost2010PropOp43
 70
     1
102
RTVSPost2010Prop44ColorIndex
 90
        5
102
RTVSPost2010Prop44ColorRGB
 90
      255
102
RTVSPost2010PropOp44
 70
     1
102
RTVSPost2010Prop45
280
     0
102
RTVSPost2010PropOp45
 70
     1
102
RTVSPost2010Prop46
 90
       50
102
RTVSPost2010PropOp46
 70
     1
102
RTVSPost2010Prop47
 90
       50
102
RTVSPost2010PropOp47
 70
     1
102
RTVSPost2010Prop48
 90
       50
102
RTVSPost2010PropOp48
 70
     1
102
RTVSPost2010Prop49
280
     0
102
RTVSPost2010PropOp49
 70
     1
102
RTVSPost2010Prop50
 90
       50
102
RTVSPost2010PropOp50
 70
     1
102
RTVSPost2010Prop51ColorIndex
 90
      256
102
RTVSPost2010Prop51ColorRGB
 90
-16777216
102
RTVSPost2010PropOp51
 70
     0
102
RTVSPost2010Prop52
140
1.0
102
RTVSPost2010PropOp52
 70
     0
102
RTVSPost2010Prop53
 90
        2
102
RTVSPost2010PropOp53
 70
     1
102
RTVSPost2010Prop54
  1
strokes_ogs.tif
102
RTVSPost2010PropOp54
 70
     1
102
RTVSPost2010Prop55
280
     0
102
RTVSPost2010PropOp55
 70
     1
102
RTVSPost2010Prop56
140
1.0
102
RTVSPost2010PropOp56
 70
     1
102
RTVSPost2010Prop57
140
1.0
102
RTVSPost2010PropOp57
 70
     1
  0
XRECORD
  5
236
102
{ACAD_REACTORS
330
235
102
}
330
235
100
AcDbXrecord
280
     1
102
RTVSPropertyOp0
 70
     1
102
RTVSPropertyOp1
 70
     1
102
RTVSPropertyOp2
 70
     1
102
RTVSPropertyOp3
 70
     1
102
RTVSPropertyOp4
 70
     1
102
RTVSPropertyOp5
 70
     1
102
RTVSPropertyOp6
 70
     1
102
RTVSPropertyOp7
 70
     1
102
RTVSPropertyOp8
 70
     1
102
RTVSPropertyOp9
 70
     1
102
RTVSPropertyOp10
 70
     1
102
RTVSPropertyOp11
 70
     1
102
RTVSPropertyOp12
 70
     1
102
RTVSPropertyOp13
 70
     1
102
RTVSPropertyOp14
 70
     1
102
RTVSPropertyOp15
 70
     1
102
RTVSPropertyOp16
 70
     1
102
RTVSPropertyOp17
 70
     1
102
RTVSPropertyOp18
 70
     1
102
RTVSPropertyOp19
 70
     1
102
RTVSPropertyOp20
 70
     1
102
RTVSPropertyOp21
 70
     1
102
RTVSPropertyOp22
 70
     1
102
RTVSPropertyOp23
 70
     1
102
RTVSPropertyOp24
 70
     1
102
RTVSPropertyOp25
 70
     1
102
RTVSPropertyOp26
 70
     1
102
RTVSPropertyOp27
 70
     1
102
RTVSPropertyOp28
 70
     1
102
RTVSPropertyOp29
 70
     1
102
RTVSPropertyOp30
 70
     1
102
RTVSPropertyOp31
 70
     1
102
RTVSPropertyOp32
 70
     1
102
RTVSPropertyOp33
 70
     1
102
RTVSPropertyOp34
 70
     1
102
RTVSPropertyOp35
 70
     1
102
RTVSPropertyOp36
 70
     1
102
RTVSPropertyOp37
 70
     1
102
RTVSPropertyOp38
 70
     1
102
RTVSPropertyOp39
 70
     1
102
RTVSPropertyOp40
 70
     1
102
RTVSPropertyOp41
 70
     1
102
RTVSPropertyOp42
 70
     1
102
RTVSPropertyOp43
 70
     1
102
RTVSPropertyOp44
 70
     1
102
RTVSPropertyOp45
 70
     1
102
RTVSPropertyOp46
 70
     1
102
RTVSPropertyOp47
 70
     1
102
RTVSPropertyOp48
 70
     1
102
RTVSPropertyOp49
 70
     1
102
RTVSPropertyOp50
 70
     1
102
RTVSPropertyOp51
 70
     0
102
RTVSPropertyOp52
 70
     0
102
RTVSPropertyOp53
 70
     1
102
RTVSPropertyOp54
 70
     1
102
RTVSPropertyOp55
 70
     1
102
RTVSPropertyOp56
 70
     1
102
RTVSPropertyOp57
 70
     1
102
RTVSPost2010Prop28
280
     0
102
RTVSPost2010PropOp28
 70
     1
102
RTVSPost2010Prop29
280
     1
102
RTVSPost2010PropOp29
 70
     1
102
RTVSPost2010Prop30
280
     1
102
RTVSPost2010PropOp30
 70
     1
102
RTVSPost2010Prop31
280
     0
102
RTVSPost2010PropOp31
 70
     1
102
RTVSPost2010Prop32
280
     0
102
RTVSPost2010PropOp32
 70
     1
102
RTVSPost2010Prop33
280
     0
102
RTVSPost2010PropOp33
 70
     1
102
RTVSPost2010Prop34
280
     0
102
RTVSPost2010PropOp34
 70
     1
102
RTVSPost2010Prop35
280
     0
102
RTVSPost2010PropOp35
 70
     1
102
RTVSPost2010Prop36
280
     0
102
RTVSPost2010PropOp36
 70
     1
102
RTVSPost2010Prop37
 90
       50
102
RTVSPost2010PropOp37
 70
     1
102
RTVSPost2010Prop38
140
0.0
102
RTVSPost2010PropOp38
 70
     1
102
RTVSPost2010Prop39
140
1.0
102
RTVSPost2010PropOp39
 70
     1
102
RTVSPost2010Prop40
 90
        0
102
RTVSPost2010PropOp40
 70
     1
102
RTVSPost2010Prop41ColorIndex
 90
       18
102
RTVSPost2010Prop41ColorRGB
 90
        0
102
RTVSPost2010PropOp41
 70
     1
102
RTVSPost2010Prop42
 90
       50
102
RTVSPost2010PropOp42
 70
     1
102
RTVSPost2010Prop43
 90
        3
102
RTVSPost2010PropOp43
 70
     1
102
RTVSPost2010Prop44ColorIndex
 90
        5
102
RTVSPost2010Prop44ColorRGB
 90
      255
102
RTVSPost2010PropOp44
 70
     1
102
RTVSPost2010Prop45
280
     0
102
RTVSPost2010PropOp45
 70
     1
102
RTVSPost2010Prop46
 90
       50
102
RTVSPost2010PropOp46
 70
     1
102
RTVSPost2010Prop47
 90
       50
102
RTVSPost2010PropOp47
 70
     1
102
RTVSPost2010Prop48
 90
       50
102
RTVSPost2010PropOp48
 70
     1
102
RTVSPost2010Prop49
280
     0
102
RTVSPost2010PropOp49
 70
     1
102
RTVSPost2010Prop50
 90
       50
102
RTVSPost2010PropOp50
 70
     1
102
RTVSPost2010Prop51ColorIndex
 90
      256
102
RTVSPost2010Prop51ColorRGB
 90
-16777216
102
RTVSPost2010PropOp51
 70
     0
102
RTVSPost2010Prop52
140
1.0
102
RTVSPost2010PropOp52
 70
     0
102
RTVSPost2010Prop53
 90
        2
102
RTVSPost2010PropOp53
 70
     1
102
RTVSPost2010Prop54
  1
strokes_ogs.tif
102
RTVSPost2010PropOp54
 70
     1
102
RTVSPost2010Prop55
280
     0
102
RTVSPost2010PropOp55
 70
     1
102
RTVSPost2010Prop56
140
1.0
102
RTVSPost2010PropOp56
 70
     1
102
RTVSPost2010Prop57
140
1.0
102
RTVSPost2010PropOp57
 70
     1
  0
XRECORD
  5
22A
102
{ACAD_REACTORS
330
229
102
}
330
229
100
AcDbXrecord
280
     1
102
RTVSPropertyOp0
 70
     1
102
RTVSPropertyOp1
 70
     1
102
RTVSPropertyOp2
 70
     1
102
RTVSPropertyOp3
 70
     1
102
RTVSPropertyOp4
 70
     1
102
RTVSPropertyOp5
 70
     1
102
RTVSPropertyOp6
 70
     1
102
RTVSPropertyOp7
 70
     1
102
RTVSPropertyOp8
 70
     1
102
RTVSPropertyOp9
 70
     1
102
RTVSPropertyOp10
 70
     1
102
RTVSPropertyOp11
 70
     1
102
RTVSPropertyOp12
 70
     1
102
RTVSPropertyOp13
 70
     1
102
RTVSPropertyOp14
 70
     1
102
RTVSPropertyOp15
 70
     1
102
RTVSPropertyOp16
 70
     1
102
RTVSPropertyOp17
 70
     1
102
RTVSPropertyOp18
 70
     1
102
RTVSPropertyOp19
 70
     1
102
RTVSPropertyOp20
 70
     1
102
RTVSPropertyOp21
 70
     1
102
RTVSPropertyOp22
 70
     1
102
RTVSPropertyOp23
 70
     1
102
RTVSPropertyOp24
 70
     1
102
RTVSPropertyOp25
 70
     1
102
RTVSPropertyOp26
 70
     1
102
RTVSPropertyOp27
 70
     1
102
RTVSPropertyOp28
 70
     1
102
RTVSPropertyOp29
 70
     1
102
RTVSPropertyOp30
 70
     1
102
RTVSPropertyOp31
 70
     1
102
RTVSPropertyOp32
 70
     1
102
RTVSPropertyOp33
 70
     1
102
RTVSPropertyOp34
 70
     1
102
RTVSPropertyOp35
 70
     1
102
RTVSPropertyOp36
 70
     1
102
RTVSPropertyOp37
 70
     1
102
RTVSPropertyOp38
 70
     1
102
RTVSPropertyOp39
 70
     1
102
RTVSPropertyOp40
 70
     1
102
RTVSPropertyOp41
 70
     1
102
RTVSPropertyOp42
 70
     1
102
RTVSPropertyOp43
 70
     1
102
RTVSPropertyOp44
 70
     1
102
RTVSPropertyOp45
 70
     1
102
RTVSPropertyOp46
 70
     1
102
RTVSPropertyOp47
 70
     1
102
RTVSPropertyOp48
 70
     1
102
RTVSPropertyOp49
 70
     1
102
RTVSPropertyOp50
 70
     1
102
RTVSPropertyOp51
 70
     0
102
RTVSPropertyOp52
 70
     0
102
RTVSPropertyOp53
 70
     1
102
RTVSPropertyOp54
 70
     1
102
RTVSPropertyOp55
 70
     1
102
RTVSPropertyOp56
 70
     1
102
RTVSPropertyOp57
 70
     1
102
RTVSPost2010Prop28
280
     0
102
RTVSPost2010PropOp28
 70
     1
102
RTVSPost2010Prop29
280
     1
102
RTVSPost2010PropOp29
 70
     1
102
RTVSPost2010Prop30
280
     1
102
RTVSPost2010PropOp30
 70
     1
102
RTVSPost2010Prop31
280
     0
102
RTVSPost2010PropOp31
 70
     1
102
RTVSPost2010Prop32
280
     0
102
RTVSPost2010PropOp32
 70
     1
102
RTVSPost2010Prop33
280
     0
102
RTVSPost2010PropOp33
 70
     1
102
RTVSPost2010Prop34
280
     0
102
RTVSPost2010PropOp34
 70
     1
102
RTVSPost2010Prop35
280
     0
102
RTVSPost2010PropOp35
 70
     1
102
RTVSPost2010Prop36
280
     0
102
RTVSPost2010PropOp36
 70
     1
102
RTVSPost2010Prop37
 90
       50
102
RTVSPost2010PropOp37
 70
     1
102
RTVSPost2010Prop38
140
0.0
102
RTVSPost2010PropOp38
 70
     1
102
RTVSPost2010Prop39
140
1.0
102
RTVSPost2010PropOp39
 70
     1
102
RTVSPost2010Prop40
 90
        0
102
RTVSPost2010PropOp40
 70
     1
102
RTVSPost2010Prop41ColorIndex
 90
       18
102
RTVSPost2010Prop41ColorRGB
 90
        0
102
RTVSPost2010PropOp41
 70
     1
102
RTVSPost2010Prop42
 90
       50
102
RTVSPost2010PropOp42
 70
     1
102
RTVSPost2010Prop43
 90
        3
102
RTVSPost2010PropOp43
 70
     1
102
RTVSPost2010Prop44ColorIndex
 90
        5
102
RTVSPost2010Prop44ColorRGB
 90
      255
102
RTVSPost2010PropOp44
 70
     1
102
RTVSPost2010Prop45
280
     0
102
RTVSPost2010PropOp45
 70
     1
102
RTVSPost2010Prop46
 90
       50
102
RTVSPost2010PropOp46
 70
     1
102
RTVSPost2010Prop47
 90
       50
102
RTVSPost2010PropOp47
 70
     1
102
RTVSPost2010Prop48
 90
       50
102
RTVSPost2010PropOp48
 70
     1
102
RTVSPost2010Prop49
280
     0
102
RTVSPost2010PropOp49
 70
     1
102
RTVSPost2010Prop50
 90
       50
102
RTVSPost2010PropOp50
 70
     1
102
RTVSPost2010Prop51ColorIndex
 90
      256
102
RTVSPost2010Prop51ColorRGB
 90
-16777216
102
RTVSPost2010PropOp51
 70
     0
102
RTVSPost2010Prop52
140
1.0
102
RTVSPost2010PropOp52
 70
     0
102
RTVSPost2010Prop53
 90
        2
102
RTVSPost2010PropOp53
 70
     1
102
RTVSPost2010Prop54
  1
strokes_ogs.tif
102
RTVSPost2010PropOp54
 70
     1
102
RTVSPost2010Prop55
280
     0
102
RTVSPost2010PropOp55
 70
     1
102
RTVSPost2010Prop56
140
1.0
102
RTVSPost2010PropOp56
 70
     1
102
RTVSPost2010Prop57
140
1.0
102
RTVSPost2010PropOp57
 70
     1
  0
XRECORD
  5
22C
102
{ACAD_REACTORS
330
22B
102
}
330
22B
100
AcDbXrecord
280
     1
102
RTVSPropertyOp0
 70
     1
102
RTVSPropertyOp1
 70
     1
102
RTVSPropertyOp2
 70
     1
102
RTVSPropertyOp3
 70
     1
102
RTVSPropertyOp4
 70
     1
102
RTVSPropertyOp5
 70
     1
102
RTVSPropertyOp6
 70
     1
102
RTVSPropertyOp7
 70
     1
102
RTVSPropertyOp8
 70
     1
102
RTVSPropertyOp9
 70
     1
102
RTVSPropertyOp10
 70
     1
102
RTVSPropertyOp11
 70
     1
102
RTVSPropertyOp12
 70
     1
102
RTVSPropertyOp13
 70
     1
102
RTVSPropertyOp14
 70
     1
102
RTVSPropertyOp15
 70
     1
102
RTVSPropertyOp16
 70
     1
102
RTVSPropertyOp17
 70
     1
102
RTVSPropertyOp18
 70
     1
102
RTVSPropertyOp19
 70
     1
102
RTVSPropertyOp20
 70
     1
102
RTVSPropertyOp21
 70
     1
102
RTVSPropertyOp22
 70
     1
102
RTVSPropertyOp23
 70
     1
102
RTVSPropertyOp24
 70
     1
102
RTVSPropertyOp25
 70
     1
102
RTVSPropertyOp26
 70
     1
102
RTVSPropertyOp27
 70
     1
102
RTVSPropertyOp28
 70
     1
102
RTVSPropertyOp29
 70
     1
102
RTVSPropertyOp30
 70
     1
102
RTVSPropertyOp31
 70
     1
102
RTVSPropertyOp32
 70
     1
102
RTVSPropertyOp33
 70
     1
102
RTVSPropertyOp34
 70
     1
102
RTVSPropertyOp35
 70
     1
102
RTVSPropertyOp36
 70
     1
102
RTVSPropertyOp37
 70
     1
102
RTVSPropertyOp38
 70
     1
102
RTVSPropertyOp39
 70
     1
102
RTVSPropertyOp40
 70
     1
102
RTVSPropertyOp41
 70
     1
102
RTVSPropertyOp42
 70
     1
102
RTVSPropertyOp43
 70
     1
102
RTVSPropertyOp44
 70
     1
102
RTVSPropertyOp45
 70
     1
102
RTVSPropertyOp46
 70
     1
102
RTVSPropertyOp47
 70
     1
102
RTVSPropertyOp48
 70
     1
102
RTVSPropertyOp49
 70
     1
102
RTVSPropertyOp50
 70
     1
102
RTVSPropertyOp51
 70
     0
102
RTVSPropertyOp52
 70
     0
102
RTVSPropertyOp53
 70
     1
102
RTVSPropertyOp54
 70
     1
102
RTVSPropertyOp55
 70
     1
102
RTVSPropertyOp56
 70
     1
102
RTVSPropertyOp57
 70
     1
102
RTVSPost2010Prop28
280
     0
102
RTVSPost2010PropOp28
 70
     1
102
RTVSPost2010Prop29
280
     1
102
RTVSPost2010PropOp29
 70
     1
102
RTVSPost2010Prop30
280
     1
102
RTVSPost2010PropOp30
 70
     1
102
RTVSPost2010Prop31
280
     0
102
RTVSPost2010PropOp31
 70
     1
102
RTVSPost2010Prop32
280
     0
102
RTVSPost2010PropOp32
 70
     1
102
RTVSPost2010Prop33
280
     0
102
RTVSPost2010PropOp33
 70
     1
102
RTVSPost2010Prop34
280
     0
102
RTVSPost2010PropOp34
 70
     1
102
RTVSPost2010Prop35
280
     0
102
RTVSPost2010PropOp35
 70
     1
102
RTVSPost2010Prop36
280
     0
102
RTVSPost2010PropOp36
 70
     1
102
RTVSPost2010Prop37
 90
       50
102
RTVSPost2010PropOp37
 70
     1
102
RTVSPost2010Prop38
140
0.0
102
RTVSPost2010PropOp38
 70
     1
102
RTVSPost2010Prop39
140
1.0
102
RTVSPost2010PropOp39
 70
     1
102
RTVSPost2010Prop40
 90
        0
102
RTVSPost2010PropOp40
 70
     1
102
RTVSPost2010Prop41ColorIndex
 90
       18
102
RTVSPost2010Prop41ColorRGB
 90
        0
102
RTVSPost2010PropOp41
 70
     1
102
RTVSPost2010Prop42
 90
       50
102
RTVSPost2010PropOp42
 70
     1
102
RTVSPost2010Prop43
 90
        3
102
RTVSPost2010PropOp43
 70
     1
102
RTVSPost2010Prop44ColorIndex
 90
        5
102
RTVSPost2010Prop44ColorRGB
 90
      255
102
RTVSPost2010PropOp44
 70
     1
102
RTVSPost2010Prop45
280
     0
102
RTVSPost2010PropOp45
 70
     1
102
RTVSPost2010Prop46
 90
       50
102
RTVSPost2010PropOp46
 70
     1
102
RTVSPost2010Prop47
 90
       50
102
RTVSPost2010PropOp47
 70
     1
102
RTVSPost2010Prop48
 90
       50
102
RTVSPost2010PropOp48
 70
     1
102
RTVSPost2010Prop49
280
     0
102
RTVSPost2010PropOp49
 70
     1
102
RTVSPost2010Prop50
 90
       50
102
RTVSPost2010PropOp50
 70
     1
102
RTVSPost2010Prop51ColorIndex
 90
      256
102
RTVSPost2010Prop51ColorRGB
 90
-16777216
102
RTVSPost2010PropOp51
 70
     0
102
RTVSPost2010Prop52
140
1.0
102
RTVSPost2010PropOp52
 70
     0
102
RTVSPost2010Prop53
 90
        2
102
RTVSPost2010PropOp53
 70
     1
102
RTVSPost2010Prop54
  1
strokes_ogs.tif
102
RTVSPost2010PropOp54
 70
     1
102
RTVSPost2010Prop55
280
     0
102
RTVSPost2010PropOp55
 70
     1
102
RTVSPost2010Prop56
140
1.0
102
RTVSPost2010PropOp56
 70
     1
102
RTVSPost2010Prop57
140
1.0
102
RTVSPost2010PropOp57
 70
     1
  0
XRECORD
  5
234
102
{ACAD_REACTORS
330
233
102
}
330
233
100
AcDbXrecord
280
     1
102
RTVSPropertyOp0
 70
     1
102
RTVSPropertyOp1
 70
     1
102
RTVSPropertyOp2
 70
     1
102
RTVSPropertyOp3
 70
     1
102
RTVSPropertyOp4
 70
     1
102
RTVSPropertyOp5
 70
     1
102
RTVSPropertyOp6
 70
     1
102
RTVSPropertyOp7
 70
     1
102
RTVSPropertyOp8
 70
     1
102
RTVSPropertyOp9
 70
     1
102
RTVSPropertyOp10
 70
     1
102
RTVSPropertyOp11
 70
     1
102
RTVSPropertyOp12
 70
     1
102
RTVSPropertyOp13
 70
     1
102
RTVSPropertyOp14
 70
     1
102
RTVSPropertyOp15
 70
     1
102
RTVSPropertyOp16
 70
     1
102
RTVSPropertyOp17
 70
     1
102
RTVSPropertyOp18
 70
     1
102
RTVSPropertyOp19
 70
     1
102
RTVSPropertyOp20
 70
     1
102
RTVSPropertyOp21
 70
     1
102
RTVSPropertyOp22
 70
     1
102
RTVSPropertyOp23
 70
     1
102
RTVSPropertyOp24
 70
     1
102
RTVSPropertyOp25
 70
     1
102
RTVSPropertyOp26
 70
     1
102
RTVSPropertyOp27
 70
     1
102
RTVSPropertyOp28
 70
     1
102
RTVSPropertyOp29
 70
     1
102
RTVSPropertyOp30
 70
     1
102
RTVSPropertyOp31
 70
     1
102
RTVSPropertyOp32
 70
     1
102
RTVSPropertyOp33
 70
     1
102
RTVSPropertyOp34
 70
     1
102
RTVSPropertyOp35
 70
     1
102
RTVSPropertyOp36
 70
     1
102
RTVSPropertyOp37
 70
     1
102
RTVSPropertyOp38
 70
     1
102
RTVSPropertyOp39
 70
     1
102
RTVSPropertyOp40
 70
     1
102
RTVSPropertyOp41
 70
     1
102
RTVSPropertyOp42
 70
     1
102
RTVSPropertyOp43
 70
     1
102
RTVSPropertyOp44
 70
     1
102
RTVSPropertyOp45
 70
     1
102
RTVSPropertyOp46
 70
     1
102
RTVSPropertyOp47
 70
     1
102
RTVSPropertyOp48
 70
     1
102
RTVSPropertyOp49
 70
     1
102
RTVSPropertyOp50
 70
     1
102
RTVSPropertyOp51
 70
     0
102
RTVSPropertyOp52
 70
     0
102
RTVSPropertyOp53
 70
     1
102
RTVSPropertyOp54
 70
     1
102
RTVSPropertyOp55
 70
     1
102
RTVSPropertyOp56
 70
     1
102
RTVSPropertyOp57
 70
     1
102
RTVSPost2010Prop28
280
     0
102
RTVSPost2010PropOp28
 70
     1
102
RTVSPost2010Prop29
280
     1
102
RTVSPost2010PropOp29
 70
     1
102
RTVSPost2010Prop30
280
     1
102
RTVSPost2010PropOp30
 70
     1
102
RTVSPost2010Prop31
280
     0
102
RTVSPost2010PropOp31
 70
     1
102
RTVSPost2010Prop32
280
     0
102
RTVSPost2010PropOp32
 70
     1
102
RTVSPost2010Prop33
280
     0
102
RTVSPost2010PropOp33
 70
     1
102
RTVSPost2010Prop34
280
     0
102
RTVSPost2010PropOp34
 70
     1
102
RTVSPost2010Prop35
280
     0
102
RTVSPost2010PropOp35
 70
     1
102
RTVSPost2010Prop36
280
     0
102
RTVSPost2010PropOp36
 70
     1
102
RTVSPost2010Prop37
 90
       50
102
RTVSPost2010PropOp37
 70
     1
102
RTVSPost2010Prop38
140
0.0
102
RTVSPost2010PropOp38
 70
     1
102
RTVSPost2010Prop39
140
1.0
102
RTVSPost2010PropOp39
 70
     1
102
RTVSPost2010Prop40
 90
        0
102
RTVSPost2010PropOp40
 70
     1
102
RTVSPost2010Prop41ColorIndex
 90
       18
102
RTVSPost2010Prop41ColorRGB
 90
        0
102
RTVSPost2010PropOp41
 70
     1
102
RTVSPost2010Prop42
 90
       50
102
RTVSPost2010PropOp42
 70
     1
102
RTVSPost2010Prop43
 90
        3
102
RTVSPost2010PropOp43
 70
     1
102
RTVSPost2010Prop44ColorIndex
 90
        5
102
RTVSPost2010Prop44ColorRGB
 90
      255
102
RTVSPost2010PropOp44
 70
     1
102
RTVSPost2010Prop45
280
     0
102
RTVSPost2010PropOp45
 70
     1
102
RTVSPost2010Prop46
 90
       50
102
RTVSPost2010PropOp46
 70
     1
102
RTVSPost2010Prop47
 90
       50
102
RTVSPost2010PropOp47
 70
     1
102
RTVSPost2010Prop48
 90
       50
102
RTVSPost2010PropOp48
 70
     1
102
RTVSPost2010Prop49
280
     0
102
RTVSPost2010PropOp49
 70
     1
102
RTVSPost2010Prop50
 90
       50
102
RTVSPost2010PropOp50
 70
     1
102
RTVSPost2010Prop51ColorIndex
 90
      256
102
RTVSPost2010Prop51ColorRGB
 90
-16777216
102
RTVSPost2010PropOp51
 70
     0
102
RTVSPost2010Prop52
140
1.0
102
RTVSPost2010PropOp52
 70
     0
102
RTVSPost2010Prop53
 90
        2
102
RTVSPost2010PropOp53
 70
     1
102
RTVSPost2010Prop54
  1
strokes_ogs.tif
102
RTVSPost2010PropOp54
 70
     1
102
RTVSPost2010Prop55
280
     0
102
RTVSPost2010PropOp55
 70
     1
102
RTVSPost2010Prop56
140
1.0
102
RTVSPost2010PropOp56
 70
     1
102
RTVSPost2010Prop57
140
1.0
102
RTVSPost2010PropOp57
 70
     1
  0
XRECORD
  5
218
102
{ACAD_REACTORS
330
217
102
}
330
217
100
AcDbXrecord
280
     1
102
RTVSPropertyOp0
 70
     1
102
RTVSPropertyOp1
 70
     1
102
RTVSPropertyOp2
 70
     1
102
RTVSPropertyOp3
 70
     1
102
RTVSPropertyOp4
 70
     1
102
RTVSPropertyOp5
 70
     1
102
RTVSPropertyOp6
 70
     1
102
RTVSPropertyOp7
 70
     1
102
RTVSPropertyOp8
 70
     1
102
RTVSPropertyOp9
 70
     1
102
RTVSPropertyOp10
 70
     1
102
RTVSPropertyOp11
 70
     1
102
RTVSPropertyOp12
 70
     1
102
RTVSPropertyOp13
 70
     1
102
RTVSPropertyOp14
 70
     1
102
RTVSPropertyOp15
 70
     1
102
RTVSPropertyOp16
 70
     1
102
RTVSPropertyOp17
 70
     1
102
RTVSPropertyOp18
 70
     1
102
RTVSPropertyOp19
 70
     1
102
RTVSPropertyOp20
 70
     1
102
RTVSPropertyOp21
 70
     1
102
RTVSPropertyOp22
 70
     1
102
RTVSPropertyOp23
 70
     1
102
RTVSPropertyOp24
 70
     1
102
RTVSPropertyOp25
 70
     1
102
RTVSPropertyOp26
 70
     1
102
RTVSPropertyOp27
 70
     1
102
RTVSPropertyOp28
 70
     1
102
RTVSPropertyOp29
 70
     1
102
RTVSPropertyOp30
 70
     1
102
RTVSPropertyOp31
 70
     1
102
RTVSPropertyOp32
 70
     1
102
RTVSPropertyOp33
 70
     1
102
RTVSPropertyOp34
 70
     1
102
RTVSPropertyOp35
 70
     1
102
RTVSPropertyOp36
 70
     1
102
RTVSPropertyOp37
 70
     1
102
RTVSPropertyOp38
 70
     1
102
RTVSPropertyOp39
 70
     1
102
RTVSPropertyOp40
 70
     1
102
RTVSPropertyOp41
 70
     1
102
RTVSPropertyOp42
 70
     1
102
RTVSPropertyOp43
 70
     1
102
RTVSPropertyOp44
 70
     1
102
RTVSPropertyOp45
 70
     1
102
RTVSPropertyOp46
 70
     1
102
RTVSPropertyOp47
 70
     1
102
RTVSPropertyOp48
 70
     1
102
RTVSPropertyOp49
 70
     1
102
RTVSPropertyOp50
 70
     1
102
RTVSPropertyOp51
 70
     0
102
RTVSPropertyOp52
 70
     0
102
RTVSPropertyOp53
 70
     1
102
RTVSPropertyOp54
 70
     1
102
RTVSPropertyOp55
 70
     1
102
RTVSPropertyOp56
 70
     1
102
RTVSPropertyOp57
 70
     1
102
RTVSPost2010Prop28
280
     0
102
RTVSPost2010PropOp28
 70
     1
102
RTVSPost2010Prop29
280
     1
102
RTVSPost2010PropOp29
 70
     1
102
RTVSPost2010Prop30
280
     1
102
RTVSPost2010PropOp30
 70
     1
102
RTVSPost2010Prop31
280
     0
102
RTVSPost2010PropOp31
 70
     1
102
RTVSPost2010Prop32
280
     0
102
RTVSPost2010PropOp32
 70
     1
102
RTVSPost2010Prop33
280
     0
102
RTVSPost2010PropOp33
 70
     1
102
RTVSPost2010Prop34
280
     0
102
RTVSPost2010PropOp34
 70
     1
102
RTVSPost2010Prop35
280
     0
102
RTVSPost2010PropOp35
 70
     1
102
RTVSPost2010Prop36
280
     0
102
RTVSPost2010PropOp36
 70
     1
102
RTVSPost2010Prop37
 90
       50
102
RTVSPost2010PropOp37
 70
     1
102
RTVSPost2010Prop38
140
0.0
102
RTVSPost2010PropOp38
 70
     1
102
RTVSPost2010Prop39
140
1.0
102
RTVSPost2010PropOp39
 70
     1
102
RTVSPost2010Prop40
 90
        0
102
RTVSPost2010PropOp40
 70
     1
102
RTVSPost2010Prop41ColorIndex
 90
       18
102
RTVSPost2010Prop41ColorRGB
 90
        0
102
RTVSPost2010PropOp41
 70
     1
102
RTVSPost2010Prop42
 90
       50
102
RTVSPost2010PropOp42
 70
     1
102
RTVSPost2010Prop43
 90
        3
102
RTVSPost2010PropOp43
 70
     1
102
RTVSPost2010Prop44ColorIndex
 90
        5
102
RTVSPost2010Prop44ColorRGB
 90
      255
102
RTVSPost2010PropOp44
 70
     1
102
RTVSPost2010Prop45
280
     0
102
RTVSPost2010PropOp45
 70
     1
102
RTVSPost2010Prop46
 90
       50
102
RTVSPost2010PropOp46
 70
     1
102
RTVSPost2010Prop47
 90
       50
102
RTVSPost2010PropOp47
 70
     1
102
RTVSPost2010Prop48
 90
       50
102
RTVSPost2010PropOp48
 70
     1
102
RTVSPost2010Prop49
280
     0
102
RTVSPost2010PropOp49
 70
     1
102
RTVSPost2010Prop50
 90
       50
102
RTVSPost2010PropOp50
 70
     1
102
RTVSPost2010Prop51ColorIndex
 90
      256
102
RTVSPost2010Prop51ColorRGB
 90
-16777216
102
RTVSPost2010PropOp51
 70
     0
102
RTVSPost2010Prop52
140
1.0
102
RTVSPost2010PropOp52
 70
     0
102
RTVSPost2010Prop53
 90
        2
102
RTVSPost2010PropOp53
 70
     1
102
RTVSPost2010Prop54
  1
strokes_ogs.tif
102
RTVSPost2010PropOp54
 70
     1
102
RTVSPost2010Prop55
280
     0
102
RTVSPost2010PropOp55
 70
     1
102
RTVSPost2010Prop56
140
1.0
102
RTVSPost2010PropOp56
 70
     1
102
RTVSPost2010Prop57
140
1.0
102
RTVSPost2010PropOp57
 70
     1
  0
XRECORD
  5
21A
102
{ACAD_REACTORS
330
219
102
}
330
219
100
AcDbXrecord
280
     1
102
RTVSPropertyOp0
 70
     1
102
RTVSPropertyOp1
 70
     1
102
RTVSPropertyOp2
 70
     1
102
RTVSPropertyOp3
 70
     1
102
RTVSPropertyOp4
 70
     1
102
RTVSPropertyOp5
 70
     1
102
RTVSPropertyOp6
 70
     1
102
RTVSPropertyOp7
 70
     1
102
RTVSPropertyOp8
 70
     1
102
RTVSPropertyOp9
 70
     1
102
RTVSPropertyOp10
 70
     1
102
RTVSPropertyOp11
 70
     1
102
RTVSPropertyOp12
 70
     1
102
RTVSPropertyOp13
 70
     1
102
RTVSPropertyOp14
 70
     1
102
RTVSPropertyOp15
 70
     1
102
RTVSPropertyOp16
 70
     1
102
RTVSPropertyOp17
 70
     1
102
RTVSPropertyOp18
 70
     1
102
RTVSPropertyOp19
 70
     1
102
RTVSPropertyOp20
 70
     1
102
RTVSPropertyOp21
 70
     1
102
RTVSPropertyOp22
 70
     1
102
RTVSPropertyOp23
 70
     1
102
RTVSPropertyOp24
 70
     1
102
RTVSPropertyOp25
 70
     1
102
RTVSPropertyOp26
 70
     1
102
RTVSPropertyOp27
 70
     1
102
RTVSPropertyOp28
 70
     1
102
RTVSPropertyOp29
 70
     1
102
RTVSPropertyOp30
 70
     1
102
RTVSPropertyOp31
 70
     1
102
RTVSPropertyOp32
 70
     1
102
RTVSPropertyOp33
 70
     1
102
RTVSPropertyOp34
 70
     1
102
RTVSPropertyOp35
 70
     1
102
RTVSPropertyOp36
 70
     1
102
RTVSPropertyOp37
 70
     1
102
RTVSPropertyOp38
 70
     1
102
RTVSPropertyOp39
 70
     1
102
RTVSPropertyOp40
 70
     1
102
RTVSPropertyOp41
 70
     1
102
RTVSPropertyOp42
 70
     1
102
RTVSPropertyOp43
 70
     1
102
RTVSPropertyOp44
 70
     1
102
RTVSPropertyOp45
 70
     1
102
RTVSPropertyOp46
 70
     1
102
RTVSPropertyOp47
 70
     1
102
RTVSPropertyOp48
 70
     1
102
RTVSPropertyOp49
 70
     1
102
RTVSPropertyOp50
 70
     1
102
RTVSPropertyOp51
 70
     0
102
RTVSPropertyOp52
 70
     0
102
RTVSPropertyOp53
 70
     1
102
RTVSPropertyOp54
 70
     1
102
RTVSPropertyOp55
 70
     1
102
RTVSPropertyOp56
 70
     1
102
RTVSPropertyOp57
 70
     1
102
RTVSPost2010Prop28
280
     0
102
RTVSPost2010PropOp28
 70
     1
102
RTVSPost2010Prop29
280
     1
102
RTVSPost2010PropOp29
 70
     1
102
RTVSPost2010Prop30
280
     1
102
RTVSPost2010PropOp30
 70
     1
102
RTVSPost2010Prop31
280
     0
102
RTVSPost2010PropOp31
 70
     1
102
RTVSPost2010Prop32
280
     0
102
RTVSPost2010PropOp32
 70
     1
102
RTVSPost2010Prop33
280
     0
102
RTVSPost2010PropOp33
 70
     1
102
RTVSPost2010Prop34
280
     0
102
RTVSPost2010PropOp34
 70
     1
102
RTVSPost2010Prop35
280
     0
102
RTVSPost2010PropOp35
 70
     1
102
RTVSPost2010Prop36
280
     0
102
RTVSPost2010PropOp36
 70
     1
102
RTVSPost2010Prop37
 90
       50
102
RTVSPost2010PropOp37
 70
     1
102
RTVSPost2010Prop38
140
0.0
102
RTVSPost2010PropOp38
 70
     1
102
RTVSPost2010Prop39
140
1.0
102
RTVSPost2010PropOp39
 70
     1
102
RTVSPost2010Prop40
 90
        0
102
RTVSPost2010PropOp40
 70
     1
102
RTVSPost2010Prop41ColorIndex
 90
       18
102
RTVSPost2010Prop41ColorRGB
 90
        0
102
RTVSPost2010PropOp41
 70
     1
102
RTVSPost2010Prop42
 90
       50
102
RTVSPost2010PropOp42
 70
     1
102
RTVSPost2010Prop43
 90
        3
102
RTVSPost2010PropOp43
 70
     1
102
RTVSPost2010Prop44ColorIndex
 90
        5
102
RTVSPost2010Prop44ColorRGB
 90
      255
102
RTVSPost2010PropOp44
 70
     1
102
RTVSPost2010Prop45
280
     0
102
RTVSPost2010PropOp45
 70
     1
102
RTVSPost2010Prop46
 90
       50
102
RTVSPost2010PropOp46
 70
     1
102
RTVSPost2010Prop47
 90
       50
102
RTVSPost2010PropOp47
 70
     1
102
RTVSPost2010Prop48
 90
       50
102
RTVSPost2010PropOp48
 70
     1
102
RTVSPost2010Prop49
280
     0
102
RTVSPost2010PropOp49
 70
     1
102
RTVSPost2010Prop50
 90
       50
102
RTVSPost2010PropOp50
 70
     1
102
RTVSPost2010Prop51ColorIndex
 90
      256
102
RTVSPost2010Prop51ColorRGB
 90
-16777216
102
RTVSPost2010PropOp51
 70
     0
102
RTVSPost2010Prop52
140
1.0
102
RTVSPost2010PropOp52
 70
     0
102
RTVSPost2010Prop53
 90
        2
102
RTVSPost2010PropOp53
 70
     1
102
RTVSPost2010Prop54
  1
strokes_ogs.tif
102
RTVSPost2010PropOp54
 70
     1
102
RTVSPost2010Prop55
280
     0
102
RTVSPost2010PropOp55
 70
     1
102
RTVSPost2010Prop56
140
1.0
102
RTVSPost2010PropOp56
 70
     1
102
RTVSPost2010Prop57
140
1.0
102
RTVSPost2010PropOp57
 70
     1
  0
XRECORD
  5
21C
102
{ACAD_REACTORS
330
21B
102
}
330
21B
100
AcDbXrecord
280
     1
102
RTVSPropertyOp0
 70
     1
102
RTVSPropertyOp1
 70
     1
102
RTVSPropertyOp2
 70
     1
102
RTVSPropertyOp3
 70
     1
102
RTVSPropertyOp4
 70
     1
102
RTVSPropertyOp5
 70
     1
102
RTVSPropertyOp6
 70
     1
102
RTVSPropertyOp7
 70
     1
102
RTVSPropertyOp8
 70
     1
102
RTVSPropertyOp9
 70
     1
102
RTVSPropertyOp10
 70
     1
102
RTVSPropertyOp11
 70
     1
102
RTVSPropertyOp12
 70
     1
102
RTVSPropertyOp13
 70
     1
102
RTVSPropertyOp14
 70
     1
102
RTVSPropertyOp15
 70
     1
102
RTVSPropertyOp16
 70
     1
102
RTVSPropertyOp17
 70
     1
102
RTVSPropertyOp18
 70
     1
102
RTVSPropertyOp19
 70
     1
102
RTVSPropertyOp20
 70
     1
102
RTVSPropertyOp21
 70
     1
102
RTVSPropertyOp22
 70
     1
102
RTVSPropertyOp23
 70
     1
102
RTVSPropertyOp24
 70
     1
102
RTVSPropertyOp25
 70
     1
102
RTVSPropertyOp26
 70
     1
102
RTVSPropertyOp27
 70
     1
102
RTVSPropertyOp28
 70
     1
102
RTVSPropertyOp29
 70
     1
102
RTVSPropertyOp30
 70
     1
102
RTVSPropertyOp31
 70
     1
102
RTVSPropertyOp32
 70
     1
102
RTVSPropertyOp33
 70
     1
102
RTVSPropertyOp34
 70
     1
102
RTVSPropertyOp35
 70
     1
102
RTVSPropertyOp36
 70
     1
102
RTVSPropertyOp37
 70
     1
102
RTVSPropertyOp38
 70
     1
102
RTVSPropertyOp39
 70
     1
102
RTVSPropertyOp40
 70
     1
102
RTVSPropertyOp41
 70
     1
102
RTVSPropertyOp42
 70
     1
102
RTVSPropertyOp43
 70
     1
102
RTVSPropertyOp44
 70
     1
102
RTVSPropertyOp45
 70
     1
102
RTVSPropertyOp46
 70
     1
102
RTVSPropertyOp47
 70
     1
102
RTVSPropertyOp48
 70
     1
102
RTVSPropertyOp49
 70
     1
102
RTVSPropertyOp50
 70
     1
102
RTVSPropertyOp51
 70
     0
102
RTVSPropertyOp52
 70
     0
102
RTVSPropertyOp53
 70
     1
102
RTVSPropertyOp54
 70
     1
102
RTVSPropertyOp55
 70
     1
102
RTVSPropertyOp56
 70
     1
102
RTVSPropertyOp57
 70
     1
102
RTVSPost2010Prop28
280
     0
102
RTVSPost2010PropOp28
 70
     1
102
RTVSPost2010Prop29
280
     1
102
RTVSPost2010PropOp29
 70
     1
102
RTVSPost2010Prop30
280
     1
102
RTVSPost2010PropOp30
 70
     1
102
RTVSPost2010Prop31
280
     0
102
RTVSPost2010PropOp31
 70
     1
102
RTVSPost2010Prop32
280
     0
102
RTVSPost2010PropOp32
 70
     1
102
RTVSPost2010Prop33
280
     0
102
RTVSPost2010PropOp33
 70
     1
102
RTVSPost2010Prop34
280
     0
102
RTVSPost2010PropOp34
 70
     1
102
RTVSPost2010Prop35
280
     0
102
RTVSPost2010PropOp35
 70
     1
102
RTVSPost2010Prop36
280
     0
102
RTVSPost2010PropOp36
 70
     1
102
RTVSPost2010Prop37
 90
       50
102
RTVSPost2010PropOp37
 70
     1
102
RTVSPost2010Prop38
140
0.0
102
RTVSPost2010PropOp38
 70
     1
102
RTVSPost2010Prop39
140
1.0
102
RTVSPost2010PropOp39
 70
     1
102
RTVSPost2010Prop40
 90
        0
102
RTVSPost2010PropOp40
 70
     1
102
RTVSPost2010Prop41ColorIndex
 90
       18
102
RTVSPost2010Prop41ColorRGB
 90
        0
102
RTVSPost2010PropOp41
 70
     1
102
RTVSPost2010Prop42
 90
       50
102
RTVSPost2010PropOp42
 70
     1
102
RTVSPost2010Prop43
 90
        3
102
RTVSPost2010PropOp43
 70
     1
102
RTVSPost2010Prop44ColorIndex
 90
        5
102
RTVSPost2010Prop44ColorRGB
 90
      255
102
RTVSPost2010PropOp44
 70
     1
102
RTVSPost2010Prop45
280
     0
102
RTVSPost2010PropOp45
 70
     1
102
RTVSPost2010Prop46
 90
       50
102
RTVSPost2010PropOp46
 70
     1
102
RTVSPost2010Prop47
 90
       50
102
RTVSPost2010PropOp47
 70
     1
102
RTVSPost2010Prop48
 90
       50
102
RTVSPost2010PropOp48
 70
     1
102
RTVSPost2010Prop49
280
     0
102
RTVSPost2010PropOp49
 70
     1
102
RTVSPost2010Prop50
 90
       50
102
RTVSPost2010PropOp50
 70
     1
102
RTVSPost2010Prop51ColorIndex
 90
      256
102
RTVSPost2010Prop51ColorRGB
 90
-16777216
102
RTVSPost2010PropOp51
 70
     0
102
RTVSPost2010Prop52
140
1.0
102
RTVSPost2010PropOp52
 70
     0
102
RTVSPost2010Prop53
 90
        2
102
RTVSPost2010PropOp53
 70
     1
102
RTVSPost2010Prop54
  1
strokes_ogs.tif
102
RTVSPost2010PropOp54
 70
     1
102
RTVSPost2010Prop55
280
     0
102
RTVSPost2010PropOp55
 70
     1
102
RTVSPost2010Prop56
140
1.0
102
RTVSPost2010PropOp56
 70
     1
102
RTVSPost2010Prop57
140
1.0
102
RTVSPost2010PropOp57
 70
     1
  0
XRECORD
  5
21E
102
{ACAD_REACTORS
330
21D
102
}
330
21D
100
AcDbXrecord
280
     1
102
RTVSPropertyOp0
 70
     1
102
RTVSPropertyOp1
 70
     1
102
RTVSPropertyOp2
 70
     1
102
RTVSPropertyOp3
 70
     1
102
RTVSPropertyOp4
 70
     1
102
RTVSPropertyOp5
 70
     1
102
RTVSPropertyOp6
 70
     1
102
RTVSPropertyOp7
 70
     1
102
RTVSPropertyOp8
 70
     1
102
RTVSPropertyOp9
 70
     1
102
RTVSPropertyOp10
 70
     1
102
RTVSPropertyOp11
 70
     1
102
RTVSPropertyOp12
 70
     1
102
RTVSPropertyOp13
 70
     1
102
RTVSPropertyOp14
 70
     1
102
RTVSPropertyOp15
 70
     1
102
RTVSPropertyOp16
 70
     1
102
RTVSPropertyOp17
 70
     1
102
RTVSPropertyOp18
 70
     1
102
RTVSPropertyOp19
 70
     1
102
RTVSPropertyOp20
 70
     1
102
RTVSPropertyOp21
 70
     1
102
RTVSPropertyOp22
 70
     1
102
RTVSPropertyOp23
 70
     1
102
RTVSPropertyOp24
 70
     1
102
RTVSPropertyOp25
 70
     1
102
RTVSPropertyOp26
 70
     1
102
RTVSPropertyOp27
 70
     1
102
RTVSPropertyOp28
 70
     1
102
RTVSPropertyOp29
 70
     1
102
RTVSPropertyOp30
 70
     1
102
RTVSPropertyOp31
 70
     1
102
RTVSPropertyOp32
 70
     1
102
RTVSPropertyOp33
 70
     1
102
RTVSPropertyOp34
 70
     1
102
RTVSPropertyOp35
 70
     1
102
RTVSPropertyOp36
 70
     1
102
RTVSPropertyOp37
 70
     1
102
RTVSPropertyOp38
 70
     1
102
RTVSPropertyOp39
 70
     1
102
RTVSPropertyOp40
 70
     1
102
RTVSPropertyOp41
 70
     1
102
RTVSPropertyOp42
 70
     1
102
RTVSPropertyOp43
 70
     1
102
RTVSPropertyOp44
 70
     1
102
RTVSPropertyOp45
 70
     1
102
RTVSPropertyOp46
 70
     1
102
RTVSPropertyOp47
 70
     1
102
RTVSPropertyOp48
 70
     1
102
RTVSPropertyOp49
 70
     1
102
RTVSPropertyOp50
 70
     1
102
RTVSPropertyOp51
 70
     0
102
RTVSPropertyOp52
 70
     0
102
RTVSPropertyOp53
 70
     1
102
RTVSPropertyOp54
 70
     1
102
RTVSPropertyOp55
 70
     1
102
RTVSPropertyOp56
 70
     1
102
RTVSPropertyOp57
 70
     1
102
RTVSPost2010Prop28
280
     0
102
RTVSPost2010PropOp28
 70
     1
102
RTVSPost2010Prop29
280
     1
102
RTVSPost2010PropOp29
 70
     1
102
RTVSPost2010Prop30
280
     1
102
RTVSPost2010PropOp30
 70
     1
102
RTVSPost2010Prop31
280
     0
102
RTVSPost2010PropOp31
 70
     1
102
RTVSPost2010Prop32
280
     0
102
RTVSPost2010PropOp32
 70
     1
102
RTVSPost2010Prop33
280
     0
102
RTVSPost2010PropOp33
 70
     1
102
RTVSPost2010Prop34
280
     0
102
RTVSPost2010PropOp34
 70
     1
102
RTVSPost2010Prop35
280
     0
102
RTVSPost2010PropOp35
 70
     1
102
RTVSPost2010Prop36
280
     0
102
RTVSPost2010PropOp36
 70
     1
102
RTVSPost2010Prop37
 90
       50
102
RTVSPost2010PropOp37
 70
     1
102
RTVSPost2010Prop38
140
0.0
102
RTVSPost2010PropOp38
 70
     1
102
RTVSPost2010Prop39
140
1.0
102
RTVSPost2010PropOp39
 70
     1
102
RTVSPost2010Prop40
 90
        0
102
RTVSPost2010PropOp40
 70
     1
102
RTVSPost2010Prop41ColorIndex
 90
       18
102
RTVSPost2010Prop41ColorRGB
 90
        0
102
RTVSPost2010PropOp41
 70
     1
102
RTVSPost2010Prop42
 90
       50
102
RTVSPost2010PropOp42
 70
     1
102
RTVSPost2010Prop43
 90
        3
102
RTVSPost2010PropOp43
 70
     1
102
RTVSPost2010Prop44ColorIndex
 90
        5
102
RTVSPost2010Prop44ColorRGB
 90
      255
102
RTVSPost2010PropOp44
 70
     1
102
RTVSPost2010Prop45
280
     0
102
RTVSPost2010PropOp45
 70
     1
102
RTVSPost2010Prop46
 90
       50
102
RTVSPost2010PropOp46
 70
     1
102
RTVSPost2010Prop47
 90
       50
102
RTVSPost2010PropOp47
 70
     1
102
RTVSPost2010Prop48
 90
       50
102
RTVSPost2010PropOp48
 70
     1
102
RTVSPost2010Prop49
280
     0
102
RTVSPost2010PropOp49
 70
     1
102
RTVSPost2010Prop50
 90
       50
102
RTVSPost2010PropOp50
 70
     1
102
RTVSPost2010Prop51ColorIndex
 90
      256
102
RTVSPost2010Prop51ColorRGB
 90
-16777216
102
RTVSPost2010PropOp51
 70
     0
102
RTVSPost2010Prop52
140
1.0
102
RTVSPost2010PropOp52
 70
     0
102
RTVSPost2010Prop53
 90
        2
102
RTVSPost2010PropOp53
 70
     1
102
RTVSPost2010Prop54
  1
strokes_ogs.tif
102
RTVSPost2010PropOp54
 70
     1
102
RTVSPost2010Prop55
280
     0
102
RTVSPost2010PropOp55
 70
     1
102
RTVSPost2010Prop56
140
1.0
102
RTVSPost2010PropOp56
 70
     1
102
RTVSPost2010Prop57
140
1.0
102
RTVSPost2010PropOp57
 70
     1
  0
XRECORD
  5
232
102
{ACAD_REACTORS
330
231
102
}
330
231
100
AcDbXrecord
280
     1
102
RTVSPropertyOp0
 70
     1
102
RTVSPropertyOp1
 70
     1
102
RTVSPropertyOp2
 70
     1
102
RTVSPropertyOp3
 70
     1
102
RTVSPropertyOp4
 70
     1
102
RTVSPropertyOp5
 70
     1
102
RTVSPropertyOp6
 70
     1
102
RTVSPropertyOp7
 70
     1
102
RTVSPropertyOp8
 70
     1
102
RTVSPropertyOp9
 70
     1
102
RTVSPropertyOp10
 70
     1
102
RTVSPropertyOp11
 70
     1
102
RTVSPropertyOp12
 70
     1
102
RTVSPropertyOp13
 70
     1
102
RTVSPropertyOp14
 70
     1
102
RTVSPropertyOp15
 70
     1
102
RTVSPropertyOp16
 70
     1
102
RTVSPropertyOp17
 70
     1
102
RTVSPropertyOp18
 70
     1
102
RTVSPropertyOp19
 70
     1
102
RTVSPropertyOp20
 70
     1
102
RTVSPropertyOp21
 70
     1
102
RTVSPropertyOp22
 70
     1
102
RTVSPropertyOp23
 70
     1
102
RTVSPropertyOp24
 70
     1
102
RTVSPropertyOp25
 70
     1
102
RTVSPropertyOp26
 70
     1
102
RTVSPropertyOp27
 70
     1
102
RTVSPropertyOp28
 70
     1
102
RTVSPropertyOp29
 70
     1
102
RTVSPropertyOp30
 70
     1
102
RTVSPropertyOp31
 70
     1
102
RTVSPropertyOp32
 70
     1
102
RTVSPropertyOp33
 70
     1
102
RTVSPropertyOp34
 70
     1
102
RTVSPropertyOp35
 70
     1
102
RTVSPropertyOp36
 70
     1
102
RTVSPropertyOp37
 70
     1
102
RTVSPropertyOp38
 70
     1
102
RTVSPropertyOp39
 70
     1
102
RTVSPropertyOp40
 70
     1
102
RTVSPropertyOp41
 70
     1
102
RTVSPropertyOp42
 70
     1
102
RTVSPropertyOp43
 70
     1
102
RTVSPropertyOp44
 70
     1
102
RTVSPropertyOp45
 70
     1
102
RTVSPropertyOp46
 70
     1
102
RTVSPropertyOp47
 70
     1
102
RTVSPropertyOp48
 70
     1
102
RTVSPropertyOp49
 70
     1
102
RTVSPropertyOp50
 70
     1
102
RTVSPropertyOp51
 70
     0
102
RTVSPropertyOp52
 70
     0
102
RTVSPropertyOp53
 70
     1
102
RTVSPropertyOp54
 70
     1
102
RTVSPropertyOp55
 70
     1
102
RTVSPropertyOp56
 70
     1
102
RTVSPropertyOp57
 70
     1
102
RTVSPost2010Prop28
280
     0
102
RTVSPost2010PropOp28
 70
     1
102
RTVSPost2010Prop29
280
     1
102
RTVSPost2010PropOp29
 70
     1
102
RTVSPost2010Prop30
280
     1
102
RTVSPost2010PropOp30
 70
     1
102
RTVSPost2010Prop31
280
     0
102
RTVSPost2010PropOp31
 70
     1
102
RTVSPost2010Prop32
280
     0
102
RTVSPost2010PropOp32
 70
     1
102
RTVSPost2010Prop33
280
     0
102
RTVSPost2010PropOp33
 70
     1
102
RTVSPost2010Prop34
280
     0
102
RTVSPost2010PropOp34
 70
     1
102
RTVSPost2010Prop35
280
     0
102
RTVSPost2010PropOp35
 70
     1
102
RTVSPost2010Prop36
280
     0
102
RTVSPost2010PropOp36
 70
     1
102
RTVSPost2010Prop37
 90
       50
102
RTVSPost2010PropOp37
 70
     1
102
RTVSPost2010Prop38
140
0.0
102
RTVSPost2010PropOp38
 70
     1
102
RTVSPost2010Prop39
140
1.0
102
RTVSPost2010PropOp39
 70
     1
102
RTVSPost2010Prop40
 90
        0
102
RTVSPost2010PropOp40
 70
     1
102
RTVSPost2010Prop41ColorIndex
 90
       18
102
RTVSPost2010Prop41ColorRGB
 90
        0
102
RTVSPost2010PropOp41
 70
     1
102
RTVSPost2010Prop42
 90
       50
102
RTVSPost2010PropOp42
 70
     1
102
RTVSPost2010Prop43
 90
        3
102
RTVSPost2010PropOp43
 70
     1
102
RTVSPost2010Prop44ColorIndex
 90
        5
102
RTVSPost2010Prop44ColorRGB
 90
      255
102
RTVSPost2010PropOp44
 70
     1
102
RTVSPost2010Prop45
280
     0
102
RTVSPost2010PropOp45
 70
     1
102
RTVSPost2010Prop46
 90
       50
102
RTVSPost2010PropOp46
 70
     1
102
RTVSPost2010Prop47
 90
       50
102
RTVSPost2010PropOp47
 70
     1
102
RTVSPost2010Prop48
 90
       50
102
RTVSPost2010PropOp48
 70
     1
102
RTVSPost2010Prop49
280
     0
102
RTVSPost2010PropOp49
 70
     1
102
RTVSPost2010Prop50
 90
       50
102
RTVSPost2010PropOp50
 70
     1
102
RTVSPost2010Prop51ColorIndex
 90
      256
102
RTVSPost2010Prop51ColorRGB
 90
-16777216
102
RTVSPost2010PropOp51
 70
     0
102
RTVSPost2010Prop52
140
1.0
102
RTVSPost2010PropOp52
 70
     0
102
RTVSPost2010Prop53
 90
        2
102
RTVSPost2010PropOp53
 70
     1
102
RTVSPost2010Prop54
  1
strokes_ogs.tif
102
RTVSPost2010PropOp54
 70
     1
102
RTVSPost2010Prop55
280
     0
102
RTVSPost2010PropOp55
 70
     1
102
RTVSPost2010Prop56
140
1.0
102
RTVSPost2010PropOp56
 70
     1
102
RTVSPost2010Prop57
140
1.0
102
RTVSPost2010PropOp57
 70
     1
  0
XRECORD
  5
228
102
{ACAD_REACTORS
330
227
102
}
330
227
100
AcDbXrecord
280
     1
102
RTVSPropertyOp0
 70
     1
102
RTVSPropertyOp1
 70
     1
102
RTVSPropertyOp2
 70
     1
102
RTVSPropertyOp3
 70
     1
102
RTVSPropertyOp4
 70
     1
102
RTVSPropertyOp5
 70
     1
102
RTVSPropertyOp6
 70
     1
102
RTVSPropertyOp7
 70
     1
102
RTVSPropertyOp8
 70
     1
102
RTVSPropertyOp9
 70
     1
102
RTVSPropertyOp10
 70
     1
102
RTVSPropertyOp11
 70
     1
102
RTVSPropertyOp12
 70
     1
102
RTVSPropertyOp13
 70
     1
102
RTVSPropertyOp14
 70
     1
102
RTVSPropertyOp15
 70
     1
102
RTVSPropertyOp16
 70
     1
102
RTVSPropertyOp17
 70
     1
102
RTVSPropertyOp18
 70
     1
102
RTVSPropertyOp19
 70
     1
102
RTVSPropertyOp20
 70
     1
102
RTVSPropertyOp21
 70
     1
102
RTVSPropertyOp22
 70
     1
102
RTVSPropertyOp23
 70
     1
102
RTVSPropertyOp24
 70
     1
102
RTVSPropertyOp25
 70
     1
102
RTVSPropertyOp26
 70
     1
102
RTVSPropertyOp27
 70
     1
102
RTVSPropertyOp28
 70
     1
102
RTVSPropertyOp29
 70
     1
102
RTVSPropertyOp30
 70
     1
102
RTVSPropertyOp31
 70
     1
102
RTVSPropertyOp32
 70
     1
102
RTVSPropertyOp33
 70
     1
102
RTVSPropertyOp34
 70
     1
102
RTVSPropertyOp35
 70
     1
102
RTVSPropertyOp36
 70
     1
102
RTVSPropertyOp37
 70
     1
102
RTVSPropertyOp38
 70
     1
102
RTVSPropertyOp39
 70
     1
102
RTVSPropertyOp40
 70
     1
102
RTVSPropertyOp41
 70
     1
102
RTVSPropertyOp42
 70
     1
102
RTVSPropertyOp43
 70
     1
102
RTVSPropertyOp44
 70
     1
102
RTVSPropertyOp45
 70
     1
102
RTVSPropertyOp46
 70
     1
102
RTVSPropertyOp47
 70
     1
102
RTVSPropertyOp48
 70
     1
102
RTVSPropertyOp49
 70
     1
102
RTVSPropertyOp50
 70
     1
102
RTVSPropertyOp51
 70
     0
102
RTVSPropertyOp52
 70
     0
102
RTVSPropertyOp53
 70
     1
102
RTVSPropertyOp54
 70
     1
102
RTVSPropertyOp55
 70
     1
102
RTVSPropertyOp56
 70
     1
102
RTVSPropertyOp57
 70
     1
102
RTVSPost2010Prop28
280
     0
102
RTVSPost2010PropOp28
 70
     1
102
RTVSPost2010Prop29
280
     1
102
RTVSPost2010PropOp29
 70
     1
102
RTVSPost2010Prop30
280
     1
102
RTVSPost2010PropOp30
 70
     1
102
RTVSPost2010Prop31
280
     0
102
RTVSPost2010PropOp31
 70
     1
102
RTVSPost2010Prop32
280
     0
102
RTVSPost2010PropOp32
 70
     1
102
RTVSPost2010Prop33
280
     0
102
RTVSPost2010PropOp33
 70
     1
102
RTVSPost2010Prop34
280
     0
102
RTVSPost2010PropOp34
 70
     1
102
RTVSPost2010Prop35
280
     0
102
RTVSPost2010PropOp35
 70
     1
102
RTVSPost2010Prop36
280
     0
102
RTVSPost2010PropOp36
 70
     1
102
RTVSPost2010Prop37
 90
       50
102
RTVSPost2010PropOp37
 70
     1
102
RTVSPost2010Prop38
140
0.0
102
RTVSPost2010PropOp38
 70
     1
102
RTVSPost2010Prop39
140
1.0
102
RTVSPost2010PropOp39
 70
     1
102
RTVSPost2010Prop40
 90
        0
102
RTVSPost2010PropOp40
 70
     1
102
RTVSPost2010Prop41ColorIndex
 90
       18
102
RTVSPost2010Prop41ColorRGB
 90
        0
102
RTVSPost2010PropOp41
 70
     1
102
RTVSPost2010Prop42
 90
       50
102
RTVSPost2010PropOp42
 70
     1
102
RTVSPost2010Prop43
 90
        3
102
RTVSPost2010PropOp43
 70
     1
102
RTVSPost2010Prop44ColorIndex
 90
        5
102
RTVSPost2010Prop44ColorRGB
 90
      255
102
RTVSPost2010PropOp44
 70
     1
102
RTVSPost2010Prop45
280
     0
102
RTVSPost2010PropOp45
 70
     1
102
RTVSPost2010Prop46
 90
       50
102
RTVSPost2010PropOp46
 70
     1
102
RTVSPost2010Prop47
 90
       50
102
RTVSPost2010PropOp47
 70
     1
102
RTVSPost2010Prop48
 90
       50
102
RTVSPost2010PropOp48
 70
     1
102
RTVSPost2010Prop49
280
     0
102
RTVSPost2010PropOp49
 70
     1
102
RTVSPost2010Prop50
 90
       50
102
RTVSPost2010PropOp50
 70
     1
102
RTVSPost2010Prop51ColorIndex
 90
      256
102
RTVSPost2010Prop51ColorRGB
 90
-16777216
102
RTVSPost2010PropOp51
 70
     0
102
RTVSPost2010Prop52
140
1.0
102
RTVSPost2010PropOp52
 70
     0
102
RTVSPost2010Prop53
 90
        2
102
RTVSPost2010PropOp53
 70
     1
102
RTVSPost2010Prop54
  1
strokes_ogs.tif
102
RTVSPost2010PropOp54
 70
     1
102
RTVSPost2010Prop55
280
     0
102
RTVSPost2010PropOp55
 70
     1
102
RTVSPost2010Prop56
140
1.0
102
RTVSPost2010PropOp56
 70
     1
102
RTVSPost2010Prop57
140
1.0
102
RTVSPost2010PropOp57
 70
     1
  0
XRECORD
  5
230
102
{ACAD_REACTORS
330
22F
102
}
330
22F
100
AcDbXrecord
280
     1
102
RTVSPropertyOp0
 70
     1
102
RTVSPropertyOp1
 70
     1
102
RTVSPropertyOp2
 70
     1
102
RTVSPropertyOp3
 70
     1
102
RTVSPropertyOp4
 70
     1
102
RTVSPropertyOp5
 70
     1
102
RTVSPropertyOp6
 70
     1
102
RTVSPropertyOp7
 70
     1
102
RTVSPropertyOp8
 70
     1
102
RTVSPropertyOp9
 70
     1
102
RTVSPropertyOp10
 70
     1
102
RTVSPropertyOp11
 70
     1
102
RTVSPropertyOp12
 70
     1
102
RTVSPropertyOp13
 70
     1
102
RTVSPropertyOp14
 70
     1
102
RTVSPropertyOp15
 70
     1
102
RTVSPropertyOp16
 70
     1
102
RTVSPropertyOp17
 70
     1
102
RTVSPropertyOp18
 70
     1
102
RTVSPropertyOp19
 70
     1
102
RTVSPropertyOp20
 70
     1
102
RTVSPropertyOp21
 70
     1
102
RTVSPropertyOp22
 70
     1
102
RTVSPropertyOp23
 70
     1
102
RTVSPropertyOp24
 70
     1
102
RTVSPropertyOp25
 70
     1
102
RTVSPropertyOp26
 70
     1
102
RTVSPropertyOp27
 70
     1
102
RTVSPropertyOp28
 70
     1
102
RTVSPropertyOp29
 70
     1
102
RTVSPropertyOp30
 70
     1
102
RTVSPropertyOp31
 70
     1
102
RTVSPropertyOp32
 70
     1
102
RTVSPropertyOp33
 70
     1
102
RTVSPropertyOp34
 70
     1
102
RTVSPropertyOp35
 70
     1
102
RTVSPropertyOp36
 70
     1
102
RTVSPropertyOp37
 70
     1
102
RTVSPropertyOp38
 70
     1
102
RTVSPropertyOp39
 70
     1
102
RTVSPropertyOp40
 70
     1
102
RTVSPropertyOp41
 70
     1
102
RTVSPropertyOp42
 70
     1
102
RTVSPropertyOp43
 70
     1
102
RTVSPropertyOp44
 70
     1
102
RTVSPropertyOp45
 70
     1
102
RTVSPropertyOp46
 70
     1
102
RTVSPropertyOp47
 70
     1
102
RTVSPropertyOp48
 70
     1
102
RTVSPropertyOp49
 70
     1
102
RTVSPropertyOp50
 70
     1
102
RTVSPropertyOp51
 70
     0
102
RTVSPropertyOp52
 70
     0
102
RTVSPropertyOp53
 70
     1
102
RTVSPropertyOp54
 70
     1
102
RTVSPropertyOp55
 70
     1
102
RTVSPropertyOp56
 70
     1
102
RTVSPropertyOp57
 70
     1
102
RTVSPost2010Prop28
280
     0
102
RTVSPost2010PropOp28
 70
     1
102
RTVSPost2010Prop29
280
     1
102
RTVSPost2010PropOp29
 70
     1
102
RTVSPost2010Prop30
280
     1
102
RTVSPost2010PropOp30
 70
     1
102
RTVSPost2010Prop31
280
     0
102
RTVSPost2010PropOp31
 70
     1
102
RTVSPost2010Prop32
280
     0
102
RTVSPost2010PropOp32
 70
     1
102
RTVSPost2010Prop33
280
     0
102
RTVSPost2010PropOp33
 70
     1
102
RTVSPost2010Prop34
280
     0
102
RTVSPost2010PropOp34
 70
     1
102
RTVSPost2010Prop35
280
     0
102
RTVSPost2010PropOp35
 70
     1
102
RTVSPost2010Prop36
280
     0
102
RTVSPost2010PropOp36
 70
     1
102
RTVSPost2010Prop37
 90
       50
102
RTVSPost2010PropOp37
 70
     1
102
RTVSPost2010Prop38
140
0.0
102
RTVSPost2010PropOp38
 70
     1
102
RTVSPost2010Prop39
140
1.0
102
RTVSPost2010PropOp39
 70
     1
102
RTVSPost2010Prop40
 90
        0
102
RTVSPost2010PropOp40
 70
     1
102
RTVSPost2010Prop41ColorIndex
 90
       18
102
RTVSPost2010Prop41ColorRGB
 90
        0
102
RTVSPost2010PropOp41
 70
     1
102
RTVSPost2010Prop42
 90
       50
102
RTVSPost2010PropOp42
 70
     1
102
RTVSPost2010Prop43
 90
        3
102
RTVSPost2010PropOp43
 70
     1
102
RTVSPost2010Prop44ColorIndex
 90
        5
102
RTVSPost2010Prop44ColorRGB
 90
      255
102
RTVSPost2010PropOp44
 70
     1
102
RTVSPost2010Prop45
280
     0
102
RTVSPost2010PropOp45
 70
     1
102
RTVSPost2010Prop46
 90
       50
102
RTVSPost2010PropOp46
 70
     1
102
RTVSPost2010Prop47
 90
       50
102
RTVSPost2010PropOp47
 70
     1
102
RTVSPost2010Prop48
 90
       50
102
RTVSPost2010PropOp48
 70
     1
102
RTVSPost2010Prop49
280
     0
102
RTVSPost2010PropOp49
 70
     1
102
RTVSPost2010Prop50
 90
       50
102
RTVSPost2010PropOp50
 70
     1
102
RTVSPost2010Prop51ColorIndex
 90
      256
102
RTVSPost2010Prop51ColorRGB
 90
-16777216
102
RTVSPost2010PropOp51
 70
     0
102
RTVSPost2010Prop52
140
1.0
102
RTVSPost2010PropOp52
 70
     0
102
RTVSPost2010Prop53
 90
        2
102
RTVSPost2010PropOp53
 70
     1
102
RTVSPost2010Prop54
  1
strokes_ogs.tif
102
RTVSPost2010PropOp54
 70
     1
102
RTVSPost2010Prop55
280
     0
102
RTVSPost2010PropOp55
 70
     1
102
RTVSPost2010Prop56
140
1.0
102
RTVSPost2010PropOp56
 70
     1
102
RTVSPost2010Prop57
140
1.0
102
RTVSPost2010PropOp57
 70
     1
  0
ENDSEC
  0
EOF
