  0
SECTION
  2
HEADER
  9
$ACADVER
  1
AC1018
  9
$ACADMAINTVER
 70
     0
  9
$DWGCODEPAGE
  3
ANSI_936
  9
$INSBASE
 10
0.0
 20
0.0
 30
0.0
  9
$EXTMIN
 10
268.2936652581319
 20
657.285847397821
 30
0.0
  9
$EXTMAX
 10
381.1111434460446
 20
737.2858509083226
 30
0.0
  9
$LIMMIN
 10
0.0
 20
0.0
  9
$LIMMAX
 10
12.0
 20
9.0
  9
$ORTHOMODE
 70
     0
  9
$REGENMODE
 70
     1
  9
$FILLMODE
 70
     1
  9
$QTEXTMODE
 70
     0
  9
$MIRRTEXT
 70
     1
  9
$LTSCALE
 40
1.0
  9
$ATTMODE
 70
     1
  9
$TEXTSIZE
 40
0.2
  9
$TRACEWID
 40
0.05
  9
$TEXTSTYLE
  7
Standard
  9
$CLAYER
  8
0
  9
$CELTYPE
  6
ByLayer
  9
$CECOLOR
 62
   256
  9
$CELTSCALE
 40
1.0
  9
$DISPSILH
 70
     0
  9
$DIMSCALE
 40
1.0
  9
$DIMASZ
 40
0.18
  9
$DIMEXO
 40
0.0625
  9
$DIMDLI
 40
0.38
  9
$DIMRND
 40
0.0
  9
$DIMDLE
 40
0.0
  9
$DIMEXE
 40
0.18
  9
$DIMTP
 40
0.0
  9
$DIMTM
 40
0.0
  9
$DIMTXT
 40
0.18
  9
$DIMCEN
 40
0.09
  9
$DIMTSZ
 40
0.0
  9
$DIMTOL
 70
     0
  9
$DIMLIM
 70
     0
  9
$DIMTIH
 70
     1
  9
$DIMTOH
 70
     1
  9
$DIMSE1
 70
     0
  9
$DIMSE2
 70
     0
  9
$DIMTAD
 70
     0
  9
$DIMZIN
 70
     0
  9
$DIMBLK
  1

  9
$DIMASO
 70
     1
  9
$DIMSHO
 70
     1
  9
$DIMPOST
  1

  9
$DIMAPOST
  1

  9
$DIMALT
 70
     0
  9
$DIMALTD
 70
     2
  9
$DIMALTF
 40
25.4
  9
$DIMLFAC
 40
1.0
  9
$DIMTOFL
 70
     0
  9
$DIMTVP
 40
0.0
  9
$DIMTIX
 70
     0
  9
$DIMSOXD
 70
     0
  9
$DIMSAH
 70
     0
  9
$DIMBLK1
  1

  9
$DIMBLK2
  1

  9
$DIMSTYLE
  2
Standard
  9
$DIMCLRD
 70
     0
  9
$DIMCLRE
 70
     0
  9
$DIMCLRT
 70
     0
  9
$DIMTFAC
 40
1.0
  9
$DIMGAP
 40
0.09
  9
$DIMJUST
 70
     0
  9
$DIMSD1
 70
     0
  9
$DIMSD2
 70
     0
  9
$DIMTOLJ
 70
     1
  9
$DIMTZIN
 70
     0
  9
$DIMALTZ
 70
     0
  9
$DIMALTTZ
 70
     0
  9
$DIMUPT
 70
     0
  9
$DIMDEC
 70
     4
  9
$DIMTDEC
 70
     4
  9
$DIMALTU
 70
     2
  9
$DIMALTTD
 70
     2
  9
$DIMTXSTY
  7
Standard
  9
$DIMAUNIT
 70
     0
  9
$DIMADEC
 70
     0
  9
$DIMALTRND
 40
0.0
  9
$DIMAZIN
 70
     0
  9
$DIMDSEP
 70
    46
  9
$DIMATFIT
 70
     3
  9
$DIMFRAC
 70
     0
  9
$DIMLDRBLK
  1

  9
$DIMLUNIT
 70
     2
  9
$DIMLWD
 70
    -2
  9
$DIMLWE
 70
    -2
  9
$DIMTMOVE
 70
     2
  9
$LUNITS
 70
     2
  9
$LUPREC
 70
     2
  9
$SKETCHINC
 40
0.1
  9
$FILLETRAD
 40
0.5
  9
$AUNITS
 70
     0
  9
$AUPREC
 70
     0
  9
$MENU
  1
.
  9
$ELEVATION
 40
0.0
  9
$PELEVATION
 40
0.0
  9
$THICKNESS
 40
0.0
  9
$LIMCHECK
 70
     0
  9
$CHAMFERA
 40
0.5
  9
$CHAMFERB
 40
0.5
  9
$CHAMFERC
 40
1.0
  9
$CHAMFERD
 40
0.0
  9
$SKPOLY
 70
     0
  9
$TDCREATE
 40
2456705.076870289
  9
$TDUCREATE
 40
2456704.743536956
  9
$TDUPDATE
 40
2456705.076878958
  9
$TDUUPDATE
 40
2456704.743545625
  9
$TDINDWG
 40
0.0000000116
  9
$TDUSRTIMER
 40
0.0000000116
  9
$USRTIMER
 70
     1
  9
$ANGBASE
 50
0.0
  9
$ANGDIR
 70
     0
  9
$PDMODE
 70
     0
  9
$PDSIZE
 40
0.0
  9
$PLINEWID
 40
0.0
  9
$SPLFRAME
 70
     0
  9
$SPLINETYPE
 70
     6
  9
$SPLINESEGS
 70
     8
  9
$HANDSEED
  5
5CA
  9
$SURFTAB1
 70
     6
  9
$SURFTAB2
 70
     6
  9
$SURFTYPE
 70
     6
  9
$SURFU
 70
     6
  9
$SURFV
 70
     6
  9
$UCSBASE
  2

  9
$UCSNAME
  2

  9
$UCSORG
 10
0.0
 20
0.0
 30
0.0
  9
$UCSXDIR
 10
1.0
 20
0.0
 30
0.0
  9
$UCSYDIR
 10
0.0
 20
1.0
 30
0.0
  9
$UCSORTHOREF
  2

  9
$UCSORTHOVIEW
 70
     0
  9
$UCSORGTOP
 10
0.0
 20
0.0
 30
0.0
  9
$UCSORGBOTTOM
 10
0.0
 20
0.0
 30
0.0
  9
$UCSORGLEFT
 10
0.0
 20
0.0
 30
0.0
  9
$UCSORGRIGHT
 10
0.0
 20
0.0
 30
0.0
  9
$UCSORGFRONT
 10
0.0
 20
0.0
 30
0.0
  9
$UCSORGBACK
 10
0.0
 20
0.0
 30
0.0
  9
$PUCSBASE
  2

  9
$PUCSNAME
  2

  9
$PUCSORG
 10
0.0
 20
0.0
 30
0.0
  9
$PUCSXDIR
 10
1.0
 20
0.0
 30
0.0
  9
$PUCSYDIR
 10
0.0
 20
1.0
 30
0.0
  9
$PUCSORTHOREF
  2

  9
$PUCSORTHOVIEW
 70
     0
  9
$PUCSORGTOP
 10
0.0
 20
0.0
 30
0.0
  9
$PUCSORGBOTTOM
 10
0.0
 20
0.0
 30
0.0
  9
$PUCSORGLEFT
 10
0.0
 20
0.0
 30
0.0
  9
$PUCSORGRIGHT
 10
0.0
 20
0.0
 30
0.0
  9
$PUCSORGFRONT
 10
0.0
 20
0.0
 30
0.0
  9
$PUCSORGBACK
 10
0.0
 20
0.0
 30
0.0
  9
$USERI1
 70
     0
  9
$USERI2
 70
     0
  9
$USERI3
 70
     0
  9
$USERI4
 70
     0
  9
$USERI5
 70
     0
  9
$USERR1
 40
0.0
  9
$USERR2
 40
0.0
  9
$USERR3
 40
0.0
  9
$USERR4
 40
0.0
  9
$USERR5
 40
0.0
  9
$WORLDVIEW
 70
     1
  9
$SHADEDGE
 70
     3
  9
$SHADEDIF
 70
    70
  9
$TILEMODE
 70
     1
  9
$MAXACTVP
 70
    64
  9
$PINSBASE
 10
0.0
 20
0.0
 30
0.0
  9
$PLIMCHECK
 70
     0
  9
$PEXTMIN
 10
1.000000000000000E+20
 20
1.000000000000000E+20
 30
1.000000000000000E+20
  9
$PEXTMAX
 10
-1.000000000000000E+20
 20
-1.000000000000000E+20
 30
-1.000000000000000E+20
  9
$PLIMMIN
 10
0.0
 20
0.0
  9
$PLIMMAX
 10
12.0
 20
9.0
  9
$UNITMODE
 70
     0
  9
$VISRETAIN
 70
     1
  9
$PLINEGEN
 70
     0
  9
$PSLTSCALE
 70
     1
  9
$TREEDEPTH
 70
  3020
  9
$CMLSTYLE
  2
Standard
  9
$CMLJUST
 70
     0
  9
$CMLSCALE
 40
1.0
  9
$PROXYGRAPHICS
 70
     1
  9
$MEASUREMENT
 70
     0
  9
$CELWEIGHT
370
    -1
  9
$ENDCAPS
280
     0
  9
$JOINSTYLE
280
     0
  9
$LWDISPLAY
290
     0
  9
$INSUNITS
 70
     4
  9
$HYPERLINKBASE
  1

  9
$STYLESHEET
  1

  9
$XEDIT
290
     1
  9
$CEPSNTYPE
380
     0
  9
$PSTYLEMODE
290
     1
  9
$FINGERPRINTGUID
  2
{178D5DE7-0F52-43C6-90F2-FCE54CF8A319}
  9
$VERSIONGUID
  2
{FAEB1C32-E019-11D5-929B-00C0DF256EC4}
  9
$EXTNAMES
290
     1
  9
$PSVPSCALE
 40
0.0
  9
$OLESTARTUP
290
     0
  9
$SORTENTS
280
   127
  9
$INDEXCTL
280
     0
  9
$HIDETEXT
280
     1
  9
$XCLIPFRAME
290
     0
  9
$HALOGAP
280
     0
  9
$OBSCOLOR
 70
   257
  9
$OBSLTYPE
280
     0
  9
$INTERSECTIONDISPLAY
280
     0
  9
$INTERSECTIONCOLOR
 70
   257
  9
$DIMASSOC
280
     2
  9
$PROJECTNAME
  1

  0
ENDSEC
  0
SECTION
  2
CLASSES
  0
CLASS
  1
ACDBDICTIONARYWDFLT
  2
AcDbDictionaryWithDefault
  3
ObjectDBX Classes
 90
        0
 91
        4
280
     0
281
     0
  0
CLASS
  1
VISUALSTYLE
  2
AcDbVisualStyle
  3
ObjectDBX Classes
 90
     4095
 91
        4
280
     0
281
     0
  0
CLASS
  1
MATERIAL
  2
AcDbMaterial
  3
ObjectDBX Classes
 90
     1153
 91
        4
280
     0
281
     0
  0
CLASS
  1
SCALE
  2
AcDbScale
  3
ObjectDBX Classes
 90
     1153
 91
        4
280
     0
281
     0
  0
CLASS
  1
SUN
  2
AcDbSun
  3
SCENEOE
 90
     1153
 91
        4
280
     0
281
     0
  0
CLASS
  1
DICTIONARYVAR
  2
AcDbDictionaryVar
  3
ObjectDBX Classes
 90
        0
 91
        4
280
     0
281
     0
  0
ENDSEC
  0
SECTION
  2
TABLES
  0
TABLE
  2
VPORT
  5
8
330
0
100
AcDbSymbolTable
 70
     1
  0
VPORT
  5
29
330
8
100
AcDbSymbolTableRecord
100
AcDbViewportTableRecord
  2
*Active
 70
     0
 10
0.0
 20
0.0
 11
1.0
 21
1.0
 12
324.7024043520881
 22
697.2858474004489
 13
0.0
 23
0.0
 14
0.5
 24
0.5
 15
0.5
 25
0.5
 16
0.0
 26
0.0
 36
1.0
 17
0.0
 27
0.0
 37
0.0
 40
81.60000000000024
 41
1.410123215762144
 42
50.0
 43
0.0
 44
0.0
 50
0.0
 51
0.0
 71
     0
 72
   100
 73
     1
 74
     3
 75
     0
 76
     0
 77
     0
 78
     0
281
     0
 65
     1
110
0.0
120
0.0
130
0.0
111
1.0
121
0.0
131
0.0
112
0.0
122
1.0
132
0.0
 79
     0
146
0.0
  0
ENDTAB
  0
TABLE
  2
LTYPE
  5
5
330
0
100
AcDbSymbolTable
 70
     1
  0
LTYPE
  5
14
330
5
100
AcDbSymbolTableRecord
100
AcDbLinetypeTableRecord
  2
ByBlock
 70
     0
  3

 72
    65
 73
     0
 40
0.0
  0
LTYPE
  5
15
330
5
100
AcDbSymbolTableRecord
100
AcDbLinetypeTableRecord
  2
ByLayer
 70
     0
  3

 72
    65
 73
     0
 40
0.0
  0
LTYPE
  5
16
330
5
100
AcDbSymbolTableRecord
100
AcDbLinetypeTableRecord
  2
Continuous
 70
     0
  3
Solid line
 72
    65
 73
     0
 40
0.0
  0
ENDTAB
  0
TABLE
  2
LAYER
  5
2
330
0
100
AcDbSymbolTable
 70
     2
  0
LAYER
  5
10
330
2
100
AcDbSymbolTableRecord
100
AcDbLayerTableRecord
  2
0
 70
     0
 62
     7
  6
Continuous
370
    -3
390
F
  0
LAYER
  5
62
330
2
100
AcDbSymbolTableRecord
100
AcDbLayerTableRecord
  2
Make2D$可见线$普通线
 70
     0
 62
    18
420
        0
  6
Continuous
370
    -3
390
F
  0
ENDTAB
  0
TABLE
  2
STYLE
  5
3
330
0
100
AcDbSymbolTable
 70
     1
  0
STYLE
  5
11
330
3
100
AcDbSymbolTableRecord
100
AcDbTextStyleTableRecord
  2
Standard
 70
     0
 40
0.0
 41
1.0
 50
0.0
 71
     0
 42
0.2
  3
txt
  4

  0
ENDTAB
  0
TABLE
  2
VIEW
  5
6
330
0
100
AcDbSymbolTable
 70
     0
  0
ENDTAB
  0
TABLE
  2
UCS
  5
7
330
0
100
AcDbSymbolTable
 70
     0
  0
ENDTAB
  0
TABLE
  2
APPID
  5
9
330
0
100
AcDbSymbolTable
 70
     1
  0
APPID
  5
12
330
9
100
AcDbSymbolTableRecord
100
AcDbRegAppTableRecord
  2
ACAD
 70
     0
  0
ENDTAB
  0
TABLE
  2
DIMSTYLE
  5
A
330
0
100
AcDbSymbolTable
 70
     1
100
AcDbDimStyleTable
  0
DIMSTYLE
105
27
330
A
100
AcDbSymbolTableRecord
100
AcDbDimStyleTableRecord
  2
Standard
 70
     0
178
     0
340
11
  0
ENDTAB
  0
TABLE
  2
BLOCK_RECORD
  5
1
330
0
100
AcDbSymbolTable
 70
     1
  0
BLOCK_RECORD
  5
1F
330
1
100
AcDbSymbolTableRecord
100
AcDbBlockTableRecord
  2
*Model_Space
340
22
  0
BLOCK_RECORD
  5
1B
330
1
100
AcDbSymbolTableRecord
100
AcDbBlockTableRecord
  2
*Paper_Space
340
1E
  0
BLOCK_RECORD
  5
23
330
1
100
AcDbSymbolTableRecord
100
AcDbBlockTableRecord
  2
*Paper_Space0
340
26
  0
ENDTAB
  0
ENDSEC
  0
SECTION
  2
BLOCKS
  0
BLOCK
  5
20
330
1F
100
AcDbEntity
  8
0
100
AcDbBlockBegin
  2
*Model_Space
 70
     0
 10
0.0
 20
0.0
 30
0.0
  3
*Model_Space
  1
*Model_Space
  0
ENDBLK
  5
21
330
1F
100
AcDbEntity
  8
0
100
AcDbBlockEnd
  0
BLOCK
  5
1C
330
1B
100
AcDbEntity
 67
     1
  8
0
100
AcDbBlockBegin
  2
*Paper_Space
 70
     0
 10
0.0
 20
0.0
 30
0.0
  3
*Paper_Space
  1
*Paper_Space
  0
ENDBLK
  5
1D
330
1B
100
AcDbEntity
 67
     1
  8
0
100
AcDbBlockEnd
  0
BLOCK
  5
24
330
23
100
AcDbEntity
  8
0
100
AcDbBlockBegin
  2
*Paper_Space0
 70
     0
 10
0.0
 20
0.0
 30
0.0
  3
*Paper_Space0
  1
*Paper_Space0
  0
ENDBLK
  5
25
330
23
100
AcDbEntity
  8
0
100
AcDbBlockEnd
  0
ENDSEC
  0
SECTION
  2
ENTITIES
  0
LINE
  5
63
330
1F
100
AcDbEntity
  8
Make2D$可见线$普通线
100
AcDbLine
 10
336.8230459025123
 20
670.2858474004489
 30
0.0
 11
337.0409713176668
 21
670.2858474004489
 31
0.0
  0
ARC
  5
64
330
1F
100
AcDbEntity
  8
Make2D$可见线$普通线
100
AcDbCircle
 10
301.0938371394546
 20
696.6752482896518
 30
0.0
 40
1.388642083734069
100
AcDbArc
 50
179.5266526381843
 51
263.4445664426527
  0
ARC
  5
65
330
1F
100
AcDbEntity
  8
Make2D$可见线$普通线
100
AcDbCircle
 10
348.3110663470154
 20
696.6751247418821
 30
0.0
 40
1.388559633652156
100
AcDbArc
 50
276.5764225444045
 51
0.4782650445572034
  0
ARC
  5
66
330
1F
100
AcDbEntity
  8
Make2D$可见线$普通线
100
AcDbCircle
 10
324.7025947018074
 20
860.2858474054311
 30
0.0
 40
171.0000000049922
100
AcDbArc
 50
273.6882400794818
 51
274.1603635716768
  0
ARC
  5
67
330
1F
100
AcDbEntity
  8
Make2D$可见线$普通线
100
AcDbCircle
 10
313.2119086333803
 20
687.7826210650928
 30
0.0
 40
0.490457611916954
100
AcDbArc
 50
274.7765932394162
 51
0.3769066437897172
  0
ARC
  5
68
330
1F
100
AcDbEntity
  8
Make2D$可见线$普通线
100
AcDbCircle
 10
336.2028299475463
 20
687.7858458538857
 30
0.0
 40
0.4999961766597538
100
AcDbArc
 50
179.9998227755536
 51
259.5758767658029
  0
LINE
  5
69
330
1F
100
AcDbEntity
  8
Make2D$可见线$普通线
100
AcDbLine
 10
348.290518736171
 20
695.2858474004489
 30
0.0
 11
335.2225479543242
 21
695.2858474004489
 31
0.0
  0
LINE
  5
6A
330
1F
100
AcDbEntity
  8
Make2D$可见线$普通线
100
AcDbLine
 10
314.1836869849978
 20
695.2858474004488
 30
0.0
 11
301.1148965275048
 21
695.2858474004488
 31
0.0
  0
ARC
  5
6B
330
1F
100
AcDbEntity
  8
Make2D$可见线$普通线
100
AcDbCircle
 10
308.0772140221296
 20
695.8735146388465
 30
0.0
 40
6.152482491166244
100
AcDbArc
 50
322.0021178429551
 51
330.1483768637066
  0
ARC
  5
6C
330
1F
100
AcDbEntity
  8
Make2D$可见线$普通线
100
AcDbCircle
 10
341.1978859242883
 20
695.7858473728543
 30
0.0
 40
5.99608547318171
100
AcDbArc
 50
150.7999459275442
 51
209.2000464279961
  0
ARC
  5
6D
330
1F
100
AcDbEntity
  8
Make2D$可见线$普通线
100
AcDbCircle
 10
308.2074832136661
 20
695.7858483500213
 30
0.0
 40
5.995928154150861
100
AcDbArc
 50
330.7991180679664
 51
29.20087596067691
  0
POLYLINE
  5
6E
330
1F
100
AcDbEntity
  8
Make2D$可见线$普通线
100
AcDb2dPolyline
 66
     1
 10
0.0
 20
0.0
 30
0.0
  0
VERTEX
  5
6F
330
6E
100
AcDbEntity
  8
Make2D$可见线$普通线
100
AcDbVertex
100
AcDb2dVertex
 10
380.40286837963
 20
666.4245853835932
 30
0.0
  0
VERTEX
  5
70
330
6E
100
AcDbEntity
  8
Make2D$可见线$普通线
100
AcDbVertex
100
AcDb2dVertex
 10
380.4168715800798
 20
666.2227630897588
 30
0.0
  0
VERTEX
  5
71
330
6E
100
AcDbEntity
  8
Make2D$可见线$普通线
100
AcDbVertex
100
AcDb2dVertex
 10
380.4310443578378
 20
666.1033588601247
 30
0.0
  0
SEQEND
  5
72
330
6E
100
AcDbEntity
  8
Make2D$可见线$普通线
  0
POLYLINE
  5
73
330
1F
100
AcDbEntity
  8
Make2D$可见线$普通线
100
AcDb2dPolyline
 66
     1
 10
0.0
 20
0.0
 30
0.0
  0
VERTEX
  5
74
330
73
100
AcDbEntity
  8
Make2D$可见线$普通线
100
AcDbVertex
100
AcDb2dVertex
 10
268.9737643089974
 20
666.1033584333649
 30
0.0
  0
VERTEX
  5
75
330
73
100
AcDbEntity
  8
Make2D$可见线$普通线
100
AcDbVertex
100
AcDb2dVertex
 10
268.9879370849923
 20
666.2227626511217
 30
0.0
  0
VERTEX
  5
76
330
73
100
AcDbEntity
  8
Make2D$可见线$普通线
100
AcDbVertex
100
AcDb2dVertex
 10
269.0012650676715
 20
666.416867162179
 30
0.0
  0
SEQEND
  5
77
330
73
100
AcDbEntity
  8
Make2D$可见线$普通线
  0
POLYLINE
  5
78
330
1F
100
AcDbEntity
  8
Make2D$可见线$普通线
100
AcDb2dPolyline
 66
     1
 10
0.0
 20
0.0
 30
0.0
  0
VERTEX
  5
79
330
78
100
AcDbEntity
  8
Make2D$可见线$普通线
100
AcDbVertex
100
AcDb2dVertex
 10
313.4133712810041
 20
698.760610253722
 30
0.0
 42
0.0980842500721984
  0
VERTEX
  5
7A
330
78
100
AcDbEntity
  8
Make2D$可见线$普通线
100
AcDbVertex
100
AcDb2dVertex
 10
311.8975211193867
 20
700.5132013020732
 30
0.0
  0
VERTEX
  5
7B
330
78
100
AcDbEntity
  8
Make2D$可见线$普通线
100
AcDbVertex
100
AcDb2dVertex
 10
311.8400201142008
 20
700.565197874663
 30
0.0
  0
SEQEND
  5
7C
330
78
100
AcDbEntity
  8
Make2D$可见线$普通线
  0
POLYLINE
  5
7D
330
1F
100
AcDbEntity
  8
Make2D$可见线$普通线
100
AcDb2dPolyline
 66
     1
 10
0.0
 20
0.0
 30
0.0
  0
VERTEX
  5
7E
330
7D
100
AcDbEntity
  8
Make2D$可见线$普通线
100
AcDbVertex
100
AcDb2dVertex
 10
304.3001980238507
 20
695.2858474004488
 30
0.0
 42
0.0126347598387405
  0
VERTEX
  5
7F
330
7D
100
AcDbEntity
  8
Make2D$可见线$普通线
100
AcDbVertex
100
AcDb2dVertex
 10
304.2242603519644
 20
694.2394651369387
 30
0.0
 42
-0.3706937956470828
  0
VERTEX
  5
80
330
7D
100
AcDbEntity
  8
Make2D$可见线$普通线
100
AcDbVertex
100
AcDb2dVertex
 10
303.328581839867
 20
693.2912294224105
 30
0.0
  0
SEQEND
  5
81
330
7D
100
AcDbEntity
  8
Make2D$可见线$普通线
  0
POLYLINE
  5
82
330
1F
100
AcDbEntity
  8
Make2D$可见线$普通线
100
AcDb2dPolyline
 66
     1
 10
0.0
 20
0.0
 30
0.0
  0
VERTEX
  5
83
330
82
100
AcDbEntity
  8
Make2D$可见线$普通线
100
AcDbVertex
100
AcDb2dVertex
 10
349.7024108512134
 20
696.8100716877101
 30
0.0
  0
VERTEX
  5
84
330
82
100
AcDbEntity
  8
Make2D$可见线$普通线
100
AcDbVertex
100
AcDb2dVertex
 10
349.7027133397736
 20
736.2858474004488
 30
0.0
 42
0.4152119366614586
  0
VERTEX
  5
85
330
82
100
AcDbEntity
  8
Make2D$可见线$普通线
100
AcDbVertex
100
AcDb2dVertex
 10
348.7008195569267
 20
737.2858474004488
 30
0.0
  0
VERTEX
  5
86
330
82
100
AcDbEntity
  8
Make2D$可见线$普通线
100
AcDbVertex
100
AcDb2dVertex
 10
331.9023752761813
 20
737.2858474004489
 30
0.0
  0
SEQEND
  5
87
330
82
100
AcDbEntity
  8
Make2D$可见线$普通线
  0
POLYLINE
  5
88
330
1F
100
AcDbEntity
  8
Make2D$可见线$普通线
100
AcDb2dPolyline
 66
     1
 10
0.0
 20
0.0
 30
0.0
  0
VERTEX
  5
89
330
88
100
AcDbEntity
  8
Make2D$可见线$普通线
100
AcDbVertex
100
AcDb2dVertex
 10
337.2392063742043
 20
701.8256766714535
 30
0.0
  0
VERTEX
  5
8A
330
88
100
AcDbEntity
  8
Make2D$可见线$普通线
100
AcDbVertex
100
AcDb2dVertex
 10
337.2393878292427
 20
701.8256733472587
 30
0.0
 42
-0.3930096685661014
  0
VERTEX
  5
8B
330
88
100
AcDbEntity
  8
Make2D$可见线$普通线
100
AcDbVertex
100
AcDb2dVertex
 10
337.7027359722006
 20
701.3270188854748
 30
0.0
  0
VERTEX
  5
8C
330
88
100
AcDbEntity
  8
Make2D$可见线$普通线
100
AcDbVertex
100
AcDb2dVertex
 10
337.7025947021227
 20
700.9094937797798
 30
0.0
  0
SEQEND
  5
8D
330
88
100
AcDbEntity
  8
Make2D$可见线$普通线
  0
POLYLINE
  5
8E
330
1F
100
AcDbEntity
  8
Make2D$可见线$普通线
100
AcDb2dPolyline
 66
     1
 10
0.0
 20
0.0
 30
0.0
  0
VERTEX
  5
8F
330
8E
100
AcDbEntity
  8
Make2D$可见线$普通线
100
AcDbVertex
100
AcDb2dVertex
 10
346.0495954413957
 20
693.2942736487781
 30
0.0
 42
-0.3634341329868944
  0
VERTEX
  5
90
330
8E
100
AcDbEntity
  8
Make2D$可见线$普通线
100
AcDbVertex
100
AcDb2dVertex
 10
345.180219295712
 20
694.2393357721853
 30
0.0
 42
0.0127969057774782
  0
VERTEX
  5
91
330
8E
100
AcDbEntity
  8
Make2D$可见线$普通线
100
AcDbVertex
100
AcDb2dVertex
 10
345.104609550057
 20
695.2858474004488
 30
0.0
  0
SEQEND
  5
92
330
8E
100
AcDbEntity
  8
Make2D$可见线$普通线
  0
POLYLINE
  5
93
330
1F
100
AcDbEntity
  8
Make2D$可见线$普通线
100
AcDb2dPolyline
 66
     1
 10
0.0
 20
0.0
 30
0.0
  0
VERTEX
  5
94
330
93
100
AcDbEntity
  8
Make2D$可见线$普通线
100
AcDbVertex
100
AcDb2dVertex
 10
311.7025947021518
 20
686.285847400449
 30
0.0
  0
VERTEX
  5
95
330
93
100
AcDbEntity
  8
Make2D$可见线$普通线
100
AcDbVertex
100
AcDb2dVertex
 10
311.7024534342646
 20
671.2858474004488
 30
0.0
 42
0.4146756185041807
  0
VERTEX
  5
96
330
93
100
AcDbEntity
  8
Make2D$可见线$普通线
100
AcDbVertex
100
AcDb2dVertex
 10
312.7023338998915
 20
670.2858474004488
 30
0.0
  0
VERTEX
  5
97
330
93
100
AcDbEntity
  8
Make2D$可见线$普通线
100
AcDbVertex
100
AcDb2dVertex
 10
348.7026645893077
 20
670.2858474004489
 30
0.0
 42
0.4134419663978824
  0
VERTEX
  5
98
330
93
100
AcDbEntity
  8
Make2D$可见线$普通线
100
AcDbVertex
100
AcDb2dVertex
 10
349.7026754559715
 20
671.2858474004489
 30
0.0
  0
VERTEX
  5
99
330
93
100
AcDbEntity
  8
Make2D$可见线$普通线
100
AcDbVertex
100
AcDb2dVertex
 10
349.702404594541
 20
692.0858474004488
 30
0.0
 42
0.3076523583192978
  0
VERTEX
  5
9A
330
93
100
AcDbEntity
  8
Make2D$可见线$普通线
100
AcDbVertex
100
AcDb2dVertex
 10
349.5760227288665
 20
692.2718050606613
 30
0.0
  0
SEQEND
  5
9B
330
93
100
AcDbEntity
  8
Make2D$可见线$普通线
  0
POLYLINE
  5
9C
330
1F
100
AcDbEntity
  8
Make2D$可见线$普通线
100
AcDb2dPolyline
 66
     1
 10
0.0
 20
0.0
 30
0.0
  0
VERTEX
  5
9D
330
9C
100
AcDbEntity
  8
Make2D$可见线$普通线
100
AcDbVertex
100
AcDb2dVertex
 10
348.5760227288665
 20
693.2718050606613
 30
0.0
 42
-0.3076522191858403
  0
VERTEX
  5
9E
330
9C
100
AcDbEntity
  8
Make2D$可见线$普通线
100
AcDbVertex
100
AcDb2dVertex
 10
348.7024045622376
 20
693.0858474004488
 30
0.0
  0
VERTEX
  5
9F
330
9C
100
AcDbEntity
  8
Make2D$可见线$普通线
100
AcDbVertex
100
AcDb2dVertex
 10
348.7024045622375
 20
692.4858474004488
 30
0.0
 42
0.3882922040836085
  0
VERTEX
  5
A0
330
9C
100
AcDbEntity
  8
Make2D$可见线$普通线
100
AcDbVertex
100
AcDb2dVertex
 10
348.8766463466202
 20
692.2908648848586
 30
0.0
  0
SEQEND
  5
A1
330
9C
100
AcDbEntity
  8
Make2D$可见线$普通线
  0
ARC
  5
A2
330
1F
100
AcDbEntity
  8
Make2D$可见线$普通线
100
AcDbCircle
 10
324.702594702123
 20
531.2858465265499
 30
0.0
 40
171.0000008715962
100
AcDbArc
 50
85.83963645337464
 51
94.1603635288655
  0
POLYLINE
  5
A3
330
1F
100
AcDbEntity
  8
Make2D$可见线$普通线
100
AcDb2dPolyline
 66
     1
 10
0.0
 20
0.0
 30
0.0
  0
VERTEX
  5
A4
330
A3
100
AcDbEntity
  8
Make2D$可见线$普通线
100
AcDbVertex
100
AcDb2dVertex
 10
299.7024108512135
 20
696.8100716933345
 30
0.0
  0
VERTEX
  5
A5
330
A3
100
AcDbEntity
  8
Make2D$可见线$普通线
100
AcDbVertex
100
AcDb2dVertex
 10
299.7021083619534
 20
736.285847400449
 30
0.0
 42
-0.4140446032612842
  0
VERTEX
  5
A6
330
A3
100
AcDbEntity
  8
Make2D$可见线$普通线
100
AcDbVertex
100
AcDb2dVertex
 10
300.7040021448282
 20
737.2858474004489
 30
0.0
  0
VERTEX
  5
A7
330
A3
100
AcDbEntity
  8
Make2D$可见线$普通线
100
AcDbVertex
100
AcDb2dVertex
 10
321.5389446943467
 20
737.2858474004488
 30
0.0
  0
VERTEX
  5
A8
330
A3
100
AcDbEntity
  8
Make2D$可见线$普通线
100
AcDbVertex
100
AcDb2dVertex
 10
321.6277807242056
 20
737.2846646688889
 30
0.0
  0
VERTEX
  5
A9
330
A3
100
AcDbEntity
  8
Make2D$可见线$普通线
100
AcDbVertex
100
AcDb2dVertex
 10
321.5204548630609
 20
737.2691527688656
 30
0.0
  0
SEQEND
  5
AA
330
A3
100
AcDbEntity
  8
Make2D$可见线$普通线
  0
POLYLINE
  5
AB
330
1F
100
AcDbEntity
  8
Make2D$可见线$普通线
100
AcDb2dPolyline
 66
     1
 10
0.0
 20
0.0
 30
0.0
  0
VERTEX
  5
AC
330
AB
100
AcDbEntity
  8
Make2D$可见线$普通线
100
AcDbVertex
100
AcDb2dVertex
 10
327.7829511905292
 20
737.285847400449
 30
0.0
  0
VERTEX
  5
AD
330
AB
100
AcDbEntity
  8
Make2D$可见线$普通线
100
AcDbVertex
100
AcDb2dVertex
 10
331.9023752761814
 20
737.2858474004489
 30
0.0
  0
VERTEX
  5
AE
330
AB
100
AcDbEntity
  8
Make2D$可见线$普通线
100
AcDbVertex
100
AcDb2dVertex
 10
331.9040344861401
 20
737.2858321068012
 30
0.0
  0
VERTEX
  5
AF
330
AB
100
AcDbEntity
  8
Make2D$可见线$普通线
100
AcDbVertex
100
AcDb2dVertex
 10
331.9056974252949
 20
737.2857860868861
 30
0.0
  0
VERTEX
  5
B0
330
AB
100
AcDbEntity
  8
Make2D$可见线$普通线
100
AcDbVertex
100
AcDb2dVertex
 10
331.9073640293254
 20
737.2857091333101
 30
0.0
  0
VERTEX
  5
B1
330
AB
100
AcDbEntity
  8
Make2D$可见线$普通线
100
AcDbVertex
100
AcDb2dVertex
 10
331.9090342329295
 20
737.2856010401424
 30
0.0
  0
VERTEX
  5
B2
330
AB
100
AcDbEntity
  8
Make2D$可见线$普通线
100
AcDbVertex
100
AcDb2dVertex
 10
331.9107079698242
 20
737.285461602969
 30
0.0
  0
VERTEX
  5
B3
330
AB
100
AcDbEntity
  8
Make2D$可见线$普通线
100
AcDbVertex
100
AcDb2dVertex
 10
331.9123851727471
 20
737.2852906189461
 30
0.0
  0
VERTEX
  5
B4
330
AB
100
AcDbEntity
  8
Make2D$可见线$普通线
100
AcDbVertex
100
AcDb2dVertex
 10
331.9140657734565
 20
737.2850878868542
 30
0.0
  0
VERTEX
  5
B5
330
AB
100
AcDbEntity
  8
Make2D$可见线$普通线
100
AcDbVertex
100
AcDb2dVertex
 10
331.9157497027342
 20
737.2848532071546
 30
0.0
  0
VERTEX
  5
B6
330
AB
100
AcDbEntity
  8
Make2D$可见线$普通线
100
AcDbVertex
100
AcDb2dVertex
 10
331.9174368903863
 20
737.2845863820427
 30
0.0
  0
VERTEX
  5
B7
330
AB
100
AcDbEntity
  8
Make2D$可见线$普通线
100
AcDbVertex
100
AcDb2dVertex
 10
331.919127265246
 20
737.2842872155042
 30
0.0
  0
VERTEX
  5
B8
330
AB
100
AcDbEntity
  8
Make2D$可见线$普通线
100
AcDbVertex
100
AcDb2dVertex
 10
331.9208207551753
 20
737.2839555133697
 30
0.0
  0
VERTEX
  5
B9
330
AB
100
AcDbEntity
  8
Make2D$可见线$普通线
100
AcDbVertex
100
AcDb2dVertex
 10
331.9225172870685
 20
737.2835910833716
 30
0.0
  0
VERTEX
  5
BA
330
AB
100
AcDbEntity
  8
Make2D$可见线$普通线
100
AcDbVertex
100
AcDb2dVertex
 10
331.9242167868543
 20
737.2831937351987
 30
0.0
  0
VERTEX
  5
BB
330
AB
100
AcDbEntity
  8
Make2D$可见线$普通线
100
AcDbVertex
100
AcDb2dVertex
 10
331.9259191795
 20
737.2827632805541
 30
0.0
  0
VERTEX
  5
BC
330
AB
100
AcDbEntity
  8
Make2D$可见线$普通线
100
AcDbVertex
100
AcDb2dVertex
 10
331.9276243890142
 20
737.2822995332094
 30
0.0
  0
VERTEX
  5
BD
330
AB
100
AcDbEntity
  8
Make2D$可见线$普通线
100
AcDbVertex
100
AcDb2dVertex
 10
331.9293323384509
 20
737.281802309062
 30
0.0
  0
VERTEX
  5
BE
330
AB
100
AcDbEntity
  8
Make2D$可见线$普通线
100
AcDbVertex
100
AcDb2dVertex
 10
331.9310429499149
 20
737.2812714261925
 30
0.0
  0
VERTEX
  5
BF
330
AB
100
AcDbEntity
  8
Make2D$可见线$普通线
100
AcDbVertex
100
AcDb2dVertex
 10
331.9327561445646
 20
737.2807067049198
 30
0.0
  0
VERTEX
  5
C0
330
AB
100
AcDbEntity
  8
Make2D$可见线$普通线
100
AcDbVertex
100
AcDb2dVertex
 10
331.9361899633574
 20
737.2794750399778
 30
0.0
  0
VERTEX
  5
C1
330
AB
100
AcDbEntity
  8
Make2D$可见线$普通线
100
AcDbVertex
100
AcDb2dVertex
 10
331.93963314538
 20
737.2781059237269
 30
0.0
  0
VERTEX
  5
C2
330
AB
100
AcDbEntity
  8
Make2D$可见线$普通线
100
AcDbVertex
100
AcDb2dVertex
 10
331.9430850263986
 20
737.2765980051174
 30
0.0
  0
VERTEX
  5
C3
330
AB
100
AcDbEntity
  8
Make2D$可见线$普通线
100
AcDbVertex
100
AcDb2dVertex
 10
331.9465449275983
 20
737.2749499743762
 30
0.0
  0
VERTEX
  5
C4
330
AB
100
AcDbEntity
  8
Make2D$可见线$普通线
100
AcDbVertex
100
AcDb2dVertex
 10
331.9500121558082
 20
737.2731605648236
 30
0.0
  0
VERTEX
  5
C5
330
AB
100
AcDbEntity
  8
Make2D$可见线$普通线
100
AcDbVertex
100
AcDb2dVertex
 10
331.9534860037464
 20
737.2712285546797
 30
0.0
  0
VERTEX
  5
C6
330
AB
100
AcDbEntity
  8
Make2D$可见线$普通线
100
AcDbVertex
100
AcDb2dVertex
 10
331.9569657502891
 20
737.2691527688656
 30
0.0
  0
VERTEX
  5
C7
330
AB
100
AcDbEntity
  8
Make2D$可见线$普通线
100
AcDbVertex
100
AcDb2dVertex
 10
331.9604506607608
 20
737.2669320807911
 30
0.0
  0
VERTEX
  5
C8
330
AB
100
AcDbEntity
  8
Make2D$可见线$普通线
100
AcDbVertex
100
AcDb2dVertex
 10
331.9639399872462
 20
737.2645654141252
 30
0.0
  0
VERTEX
  5
C9
330
AB
100
AcDbEntity
  8
Make2D$可见线$普通线
100
AcDbVertex
100
AcDb2dVertex
 10
331.9674329689258
 20
737.2620517445501
 30
0.0
  0
VERTEX
  5
CA
330
AB
100
AcDbEntity
  8
Make2D$可见线$普通线
100
AcDbVertex
100
AcDb2dVertex
 10
331.970928832432
 20
737.2593901014917
 30
0.0
  0
VERTEX
  5
CB
330
AB
100
AcDbEntity
  8
Make2D$可见线$普通线
100
AcDbVertex
100
AcDb2dVertex
 10
331.9744267922293
 20
737.256579569825
 30
0.0
  0
VERTEX
  5
CC
330
AB
100
AcDbEntity
  8
Make2D$可见线$普通线
100
AcDbVertex
100
AcDb2dVertex
 10
331.9779260510154
 20
737.2536192915508
 30
0.0
  0
VERTEX
  5
CD
330
AB
100
AcDbEntity
  8
Make2D$可见线$普通线
100
AcDbVertex
100
AcDb2dVertex
 10
331.9814258001452
 20
737.2505084674385
 30
0.0
  0
VERTEX
  5
CE
330
AB
100
AcDbEntity
  8
Make2D$可见线$普通线
100
AcDbVertex
100
AcDb2dVertex
 10
331.9849252200763
 20
737.2472463586361
 30
0.0
  0
VERTEX
  5
CF
330
AB
100
AcDbEntity
  8
Make2D$可见线$普通线
100
AcDbVertex
100
AcDb2dVertex
 10
331.9884234808363
 20
737.2438322882366
 30
0.0
  0
VERTEX
  5
D0
330
AB
100
AcDbEntity
  8
Make2D$可见线$普通线
100
AcDbVertex
100
AcDb2dVertex
 10
331.9919197425117
 20
737.240265642805
 30
0.0
  0
VERTEX
  5
D1
330
AB
100
AcDbEntity
  8
Make2D$可见线$普通线
100
AcDbVertex
100
AcDb2dVertex
 10
331.9954131557579
 20
737.2365458738575
 30
0.0
  0
VERTEX
  5
D2
330
AB
100
AcDbEntity
  8
Make2D$可见线$普通线
100
AcDbVertex
100
AcDb2dVertex
 10
331.9989028623298
 20
737.2326724992907
 30
0.0
  0
VERTEX
  5
D3
330
AB
100
AcDbEntity
  8
Make2D$可见线$普通线
100
AcDbVertex
100
AcDb2dVertex
 10
332.0023879956327
 20
737.2286451047579
 30
0.0
  0
VERTEX
  5
D4
330
AB
100
AcDbEntity
  8
Make2D$可见线$普通线
100
AcDbVertex
100
AcDb2dVertex
 10
332.0058676812928
 20
737.2244633449866
 30
0.0
  0
VERTEX
  5
D5
330
AB
100
AcDbEntity
  8
Make2D$可见线$普通线
100
AcDbVertex
100
AcDb2dVertex
 10
332.0093410377474
 20
737.2201269450401
 30
0.0
  0
VERTEX
  5
D6
330
AB
100
AcDbEntity
  8
Make2D$可见线$普通线
100
AcDbVertex
100
AcDb2dVertex
 10
332.0128071768537
 20
737.2156357015115
 30
0.0
  0
VERTEX
  5
D7
330
AB
100
AcDbEntity
  8
Make2D$可见线$普通线
100
AcDbVertex
100
AcDb2dVertex
 10
332.0197142213226
 20
737.2061882344311
 30
0.0
  0
VERTEX
  5
D8
330
AB
100
AcDbEntity
  8
Make2D$可见线$普通线
100
AcDbVertex
100
AcDb2dVertex
 10
332.0265816021771
 20
737.1961207882057
 30
0.0
  0
VERTEX
  5
D9
330
AB
100
AcDbEntity
  8
Make2D$可见线$普通线
100
AcDbVertex
100
AcDb2dVertex
 10
332.0334020434244
 20
737.1854344164719
 30
0.0
  0
VERTEX
  5
DA
330
AB
100
AcDbEntity
  8
Make2D$可见线$普通线
100
AcDbVertex
100
AcDb2dVertex
 10
332.0401682279028
 20
737.1741314072787
 30
0.0
  0
VERTEX
  5
DB
330
AB
100
AcDbEntity
  8
Make2D$可见线$普通线
100
AcDbVertex
100
AcDb2dVertex
 10
332.0468728204021
 20
737.1622153029399
 30
0.0
  0
VERTEX
  5
DC
330
AB
100
AcDbEntity
  8
Make2D$可见线$普通线
100
AcDbVertex
100
AcDb2dVertex
 10
332.0535084914671
 20
737.1496909141962
 30
0.0
  0
VERTEX
  5
DD
330
AB
100
AcDbEntity
  8
Make2D$可见线$普通线
100
AcDbVertex
100
AcDb2dVertex
 10
332.0600679417394
 20
737.1365643284227
 30
0.0
  0
VERTEX
  5
DE
330
AB
100
AcDbEntity
  8
Make2D$可见线$普通线
100
AcDbVertex
100
AcDb2dVertex
 10
332.0665439266824
 20
737.1228429116674
 30
0.0
  0
VERTEX
  5
DF
330
AB
100
AcDbEntity
  8
Make2D$可见线$普通线
100
AcDbVertex
100
AcDb2dVertex
 10
332.0729292815253
 20
737.1085353043576
 30
0.0
  0
VERTEX
  5
E0
330
AB
100
AcDbEntity
  8
Make2D$可见线$普通线
100
AcDbVertex
100
AcDb2dVertex
 10
332.0792169462584
 20
737.0936514105576
 30
0.0
  0
VERTEX
  5
E1
330
AB
100
AcDbEntity
  8
Make2D$可见线$普通线
100
AcDbVertex
100
AcDb2dVertex
 10
332.085399990503
 20
737.0782023807333
 30
0.0
  0
VERTEX
  5
E2
330
AB
100
AcDbEntity
  8
Make2D$可见线$普通线
100
AcDbVertex
100
AcDb2dVertex
 10
332.0914716380821
 20
737.0622005880235
 30
0.0
  0
VERTEX
  5
E3
330
AB
100
AcDbEntity
  8
Make2D$可见线$普通线
100
AcDbVertex
100
AcDb2dVertex
 10
332.103254553437
 20
737.0285941326742
 30
0.0
  0
VERTEX
  5
E4
330
AB
100
AcDbEntity
  8
Make2D$可见线$普通线
100
AcDbVertex
100
AcDb2dVertex
 10
332.1145154647123
 20
736.9929541816349
 30
0.0
  0
VERTEX
  5
E5
330
AB
100
AcDbEntity
  8
Make2D$可见线$普通线
100
AcDbVertex
100
AcDb2dVertex
 10
332.1252080705693
 20
736.9554198698404
 30
0.0
  0
VERTEX
  5
E6
330
AB
100
AcDbEntity
  8
Make2D$可见线$普通线
100
AcDbVertex
100
AcDb2dVertex
 10
332.135290628033
 20
736.9161455268473
 30
0.0
  0
VERTEX
  5
E7
330
AB
100
AcDbEntity
  8
Make2D$可见线$普通线
100
AcDbVertex
100
AcDb2dVertex
 10
332.1447264934826
 20
736.8752985699707
 30
0.0
  0
VERTEX
  5
E8
330
AB
100
AcDbEntity
  8
Make2D$可见线$普通线
100
AcDbVertex
100
AcDb2dVertex
 10
332.1534845578952
 20
736.8330571538329
 30
0.0
  0
VERTEX
  5
E9
330
AB
100
AcDbEntity
  8
Make2D$可见线$普通线
100
AcDbVertex
100
AcDb2dVertex
 10
332.1615395657591
 20
736.7896076447666
 30
0.0
  0
VERTEX
  5
EA
330
AB
100
AcDbEntity
  8
Make2D$可见线$普通线
100
AcDbVertex
100
AcDb2dVertex
 10
332.168872311554
 20
736.7451419935036
 30
0.0
  0
VERTEX
  5
EB
330
AB
100
AcDbEntity
  8
Make2D$可见线$普通线
100
AcDbVertex
100
AcDb2dVertex
 10
332.1754697123372
 20
736.6998550809823
 30
0.0
  0
VERTEX
  5
EC
330
AB
100
AcDbEntity
  8
Make2D$可见线$普通线
100
AcDbVertex
100
AcDb2dVertex
 10
332.1813247594923
 20
736.6539421100094
 30
0.0
  0
VERTEX
  5
ED
330
AB
100
AcDbEntity
  8
Make2D$可见线$普通线
100
AcDbVertex
100
AcDb2dVertex
 10
332.1908090559004
 20
736.561005615293
 30
0.0
  0
VERTEX
  5
EE
330
AB
100
AcDbEntity
  8
Make2D$可见线$普通线
100
AcDbVertex
100
AcDb2dVertex
 10
332.1973820057036
 20
736.46781045286
 30
0.0
  0
VERTEX
  5
EF
330
AB
100
AcDbEntity
  8
Make2D$可见线$普通线
100
AcDbVertex
100
AcDb2dVertex
 10
332.201177813035
 20
736.375701838346
 30
0.0
  0
VERTEX
  5
F0
330
AB
100
AcDbEntity
  8
Make2D$可见线$普通线
100
AcDbVertex
100
AcDb2dVertex
 10
332.2023921985535
 20
736.2858474004489
 30
0.0
  0
VERTEX
  5
F1
330
AB
100
AcDbEntity
  8
Make2D$可见线$普通线
100
AcDbVertex
100
AcDb2dVertex
 10
332.2024167380964
 20
723.7858474004488
 30
0.0
  0
VERTEX
  5
F2
330
AB
100
AcDbEntity
  8
Make2D$可见线$普通线
100
AcDbVertex
100
AcDb2dVertex
 10
332.1952798101972
 20
723.784615834715
 30
0.0
  0
VERTEX
  5
F3
330
AB
100
AcDbEntity
  8
Make2D$可见线$普通线
100
AcDbVertex
100
AcDb2dVertex
 10
332.1881986563047
 20
723.7832584834107
 30
0.0
  0
VERTEX
  5
F4
330
AB
100
AcDbEntity
  8
Make2D$可见线$普通线
100
AcDbVertex
100
AcDb2dVertex
 10
332.1811714804727
 20
723.7817793829784
 30
0.0
  0
VERTEX
  5
F5
330
AB
100
AcDbEntity
  8
Make2D$可见线$普通线
100
AcDbVertex
100
AcDb2dVertex
 10
332.1741964867549
 20
723.7801825698602
 30
0.0
  0
VERTEX
  5
F6
330
AB
100
AcDbEntity
  8
Make2D$可见线$普通线
100
AcDbVertex
100
AcDb2dVertex
 10
332.1603958618778
 20
723.7766519513375
 30
0.0
  0
VERTEX
  5
F7
330
AB
100
AcDbEntity
  8
Make2D$可见线$普通线
100
AcDbVertex
100
AcDb2dVertex
 10
332.146782414104
 20
723.772698919383
 30
0.0
  0
VERTEX
  5
F8
330
AB
100
AcDbEntity
  8
Make2D$可见线$普通线
100
AcDbVertex
100
AcDb2dVertex
 10
332.1333417758643
 20
723.7683557655366
 30
0.0
  0
VERTEX
  5
F9
330
AB
100
AcDbEntity
  8
Make2D$可见线$普通线
100
AcDbVertex
100
AcDb2dVertex
 10
332.1200595795893
 20
723.7636547813388
 30
0.0
  0
VERTEX
  5
FA
330
AB
100
AcDbEntity
  8
Make2D$可见线$普通线
100
AcDbVertex
100
AcDb2dVertex
 10
332.10692145771
 20
723.7586282583297
 30
0.0
  0
VERTEX
  5
FB
330
AB
100
AcDbEntity
  8
Make2D$可见线$普通线
100
AcDbVertex
100
AcDb2dVertex
 10
332.0939130426567
 20
723.7533084880499
 30
0.0
  0
VERTEX
  5
FC
330
AB
100
AcDbEntity
  8
Make2D$可见线$普通线
100
AcDbVertex
100
AcDb2dVertex
 10
332.0810199668603
 20
723.7477277620394
 30
0.0
  0
VERTEX
  5
FD
330
AB
100
AcDbEntity
  8
Make2D$可见线$普通线
100
AcDbVertex
100
AcDb2dVertex
 10
332.0682278627514
 20
723.7419183718382
 30
0.0
  0
VERTEX
  5
FE
330
AB
100
AcDbEntity
  8
Make2D$可见线$普通线
100
AcDbVertex
100
AcDb2dVertex
 10
332.0428890993193
 20
723.7297427650253
 30
0.0
  0
VERTEX
  5
FF
330
AB
100
AcDbEntity
  8
Make2D$可见线$普通线
100
AcDbVertex
100
AcDb2dVertex
 10
331.324425033113
 20
723.3626162492449
 30
0.0
  0
VERTEX
  5
100
330
AB
100
AcDbEntity
  8
Make2D$可见线$普通线
100
AcDbVertex
100
AcDb2dVertex
 10
331.097842281755
 20
723.2564983923558
 30
0.0
  0
VERTEX
  5
101
330
AB
100
AcDbEntity
  8
Make2D$可见线$普通线
100
AcDbVertex
100
AcDb2dVertex
 10
330.9472219614904
 20
723.1905043891063
 30
0.0
  0
VERTEX
  5
102
330
AB
100
AcDbEntity
  8
Make2D$可见线$普通线
100
AcDbVertex
100
AcDb2dVertex
 10
330.7951582007695
 20
723.1278815655064
 30
0.0
  0
VERTEX
  5
103
330
AB
100
AcDbEntity
  8
Make2D$可见线$普通线
100
AcDbVertex
100
AcDb2dVertex
 10
330.6416506575137
 20
723.0688961295936
 30
0.0
  0
VERTEX
  5
104
330
AB
100
AcDbEntity
  8
Make2D$可见线$普通线
100
AcDbVertex
100
AcDb2dVertex
 10
330.4866989896447
 20
723.0138142894057
 30
0.0
  0
VERTEX
  5
105
330
AB
100
AcDbEntity
  8
Make2D$可见线$普通线
100
AcDbVertex
100
AcDb2dVertex
 10
330.3301209497557
 20
722.962929740445
 30
0.0
  0
VERTEX
  5
106
330
AB
100
AcDbEntity
  8
Make2D$可见线$普通线
100
AcDbVertex
100
AcDb2dVertex
 10
330.1720689469701
 20
722.9169869786845
 30
0.0
  0
VERTEX
  5
107
330
AB
100
AcDbEntity
  8
Make2D$可见线$普通线
100
AcDbVertex
100
AcDb2dVertex
 10
330.0924820129238
 20
722.8961070654731
 30
0.0
  0
VERTEX
  5
108
330
AB
100
AcDbEntity
  8
Make2D$可见线$普通线
100
AcDbVertex
100
AcDb2dVertex
 10
330.0125167522729
 20
722.8767485560243
 30
0.0
  0
VERTEX
  5
109
330
AB
100
AcDbEntity
  8
Make2D$可见线$普通线
100
AcDbVertex
100
AcDb2dVertex
 10
329.9321698863902
 20
722.8590067693256
 30
0.0
  0
VERTEX
  5
10A
330
AB
100
AcDbEntity
  8
Make2D$可见线$普通线
100
AcDbVertex
100
AcDb2dVertex
 10
329.851438136649
 20
722.8429770243644
 30
0.0
  0
VERTEX
  5
10B
330
AB
100
AcDbEntity
  8
Make2D$可见线$普通线
100
AcDbVertex
100
AcDb2dVertex
 10
329.7766392591514
 20
722.8297878304304
 30
0.0
  0
VERTEX
  5
10C
330
AB
100
AcDbEntity
  8
Make2D$可见线$普通线
100
AcDbVertex
100
AcDb2dVertex
 10
329.7015626617282
 20
722.8181865152957
 30
0.0
  0
VERTEX
  5
10D
330
AB
100
AcDbEntity
  8
Make2D$可见线$普通线
100
AcDbVertex
100
AcDb2dVertex
 10
329.6262608552753
 20
722.8082233382323
 30
0.0
  0
VERTEX
  5
10E
330
AB
100
AcDbEntity
  8
Make2D$可见线$普通线
100
AcDbVertex
100
AcDb2dVertex
 10
329.5507863506888
 20
722.7999485585123
 30
0.0
  0
VERTEX
  5
10F
330
AB
100
AcDbEntity
  8
Make2D$可见线$普通线
100
AcDbVertex
100
AcDb2dVertex
 10
329.4812174749651
 20
722.7938843335983
 30
0.0
  0
VERTEX
  5
110
330
AB
100
AcDbEntity
  8
Make2D$可见线$普通线
100
AcDbVertex
100
AcDb2dVertex
 10
329.4115420208487
 20
722.789424615597
 30
0.0
  0
VERTEX
  5
111
330
AB
100
AcDbEntity
  8
Make2D$可见线$普通线
100
AcDbVertex
100
AcDb2dVertex
 10
329.3417551870893
 20
722.7867015795375
 30
0.0
  0
VERTEX
  5
112
330
AB
100
AcDbEntity
  8
Make2D$可见线$普通线
100
AcDbVertex
100
AcDb2dVertex
 10
329.2718521724368
 20
722.7858474004488
 30
0.0
  0
VERTEX
  5
113
330
AB
100
AcDbEntity
  8
Make2D$可见线$普通线
100
AcDbVertex
100
AcDb2dVertex
 10
327.7987852564
 20
722.7858474004488
 30
0.0
  0
SEQEND
  5
114
330
AB
100
AcDbEntity
  8
Make2D$可见线$普通线
  0
POLYLINE
  5
115
330
1F
100
AcDbEntity
  8
Make2D$可见线$普通线
100
AcDb2dPolyline
 66
     1
 10
0.0
 20
0.0
 30
0.0
  0
VERTEX
  5
116
330
115
100
AcDbEntity
  8
Make2D$可见线$普通线
100
AcDbVertex
100
AcDb2dVertex
 10
337.7028772379322
 20
686.7858474004488
 30
0.0
 42
0.4142195297817558
  0
VERTEX
  5
117
330
115
100
AcDbEntity
  8
Make2D$可见线$普通线
100
AcDbVertex
100
AcDb2dVertex
 10
337.2028663711675
 20
687.285847400449
 30
0.0
  0
VERTEX
  5
118
330
115
100
AcDbEntity
  8
Make2D$可见线$普通线
100
AcDbVertex
100
AcDb2dVertex
 10
312.202458867689
 20
687.2858474004489
 30
0.0
 42
0.4142961716278726
  0
VERTEX
  5
119
330
115
100
AcDbEntity
  8
Make2D$可见线$普通线
100
AcDbVertex
100
AcDb2dVertex
 10
311.7023121663775
 20
686.7858474004489
 30
0.0
  0
SEQEND
  5
11A
330
115
100
AcDbEntity
  8
Make2D$可见线$普通线
  0
POLYLINE
  5
11B
330
1F
100
AcDbEntity
  8
Make2D$可见线$普通线
100
AcDb2dPolyline
 66
     1
 10
0.0
 20
0.0
 30
0.0
  0
VERTEX
  5
11C
330
11B
100
AcDbEntity
  8
Make2D$可见线$普通线
100
AcDbVertex
100
AcDb2dVertex
 10
300.5289095357686
 20
692.2876115679936
 30
0.0
  0
VERTEX
  5
11D
330
11B
100
AcDbEntity
  8
Make2D$可见线$普通线
100
AcDbVertex
100
AcDb2dVertex
 10
300.5760227286931
 20
692.2998897402329
 30
0.0
 42
0.3076455405365632
  0
VERTEX
  5
11E
330
11B
100
AcDbEntity
  8
Make2D$可见线$普通线
100
AcDbVertex
100
AcDb2dVertex
 10
300.7024030116703
 20
692.4858474004488
 30
0.0
  0
VERTEX
  5
11F
330
11B
100
AcDbEntity
  8
Make2D$可见线$普通线
100
AcDbVertex
100
AcDb2dVertex
 10
300.7024030116703
 20
693.0858474004489
 30
0.0
 42
-0.4188848262282412
  0
VERTEX
  5
120
330
11B
100
AcDbEntity
  8
Make2D$可见线$普通线
100
AcDbVertex
100
AcDb2dVertex
 10
300.9056454770674
 20
693.285847400449
 30
0.0
  0
VERTEX
  5
121
330
11B
100
AcDbEntity
  8
Make2D$可见线$普通线
100
AcDbVertex
100
AcDb2dVertex
 10
313.6564976294974
 20
693.2858474004489
 30
0.0
  0
SEQEND
  5
122
330
11B
100
AcDbEntity
  8
Make2D$可见线$普通线
  0
POLYLINE
  5
123
330
1F
100
AcDbEntity
  8
Make2D$可见线$普通线
100
AcDb2dPolyline
 66
     1
 10
0.0
 20
0.0
 30
0.0
  0
VERTEX
  5
124
330
123
100
AcDbEntity
  8
Make2D$可见线$普通线
100
AcDbVertex
100
AcDb2dVertex
 10
269.1936082910365
 20
668.615360265323
 30
0.0
  0
VERTEX
  5
125
330
123
100
AcDbEntity
  8
Make2D$可见线$普通线
100
AcDbVertex
100
AcDb2dVertex
 10
268.9738360513626
 20
666.1033520711553
 30
0.0
  0
VERTEX
  5
126
330
123
100
AcDbEntity
  8
Make2D$可见线$普通线
100
AcDbVertex
100
AcDb2dVertex
 10
268.2974757216022
 20
658.3730031431967
 30
0.0
 42
0.4400505673994542
  0
VERTEX
  5
127
330
123
100
AcDbEntity
  8
Make2D$可见线$普通线
100
AcDbVertex
100
AcDb2dVertex
 10
269.2936812451032
 20
657.2858474004489
 30
0.0
  0
VERTEX
  5
128
330
123
100
AcDbEntity
  8
Make2D$可见线$普通线
100
AcDbVertex
100
AcDb2dVertex
 10
380.111127459076
 20
657.2858474004488
 30
0.0
 42
0.4400505674004747
  0
VERTEX
  5
129
330
123
100
AcDbEntity
  8
Make2D$可见线$普通线
100
AcDbVertex
100
AcDb2dVertex
 10
381.107332982574
 20
658.3730031431967
 30
0.0
  0
VERTEX
  5
12A
330
123
100
AcDbEntity
  8
Make2D$可见线$普通线
100
AcDbVertex
100
AcDb2dVertex
 10
380.4309726154784
 20
666.1033524979156
 30
0.0
  0
VERTEX
  5
12B
330
123
100
AcDbEntity
  8
Make2D$可见线$普通线
100
AcDbVertex
100
AcDb2dVertex
 10
380.2112003808273
 20
668.6153606346722
 30
0.0
  0
VERTEX
  5
12C
330
123
100
AcDbEntity
  8
Make2D$可见线$普通线
100
AcDbVertex
100
AcDb2dVertex
 10
380.1949964371831
 20
668.7272479053526
 30
0.0
 42
0.2201993843056518
  0
VERTEX
  5
12D
330
123
100
AcDbEntity
  8
Make2D$可见线$普通线
100
AcDbVertex
100
AcDb2dVertex
 10
379.6974587571901
 20
669.404126709699
 30
0.0
  0
SEQEND
  5
12E
330
123
100
AcDbEntity
  8
Make2D$可见线$普通线
  0
LINE
  5
12F
330
1F
100
AcDbEntity
  8
Make2D$可见线$普通线
100
AcDbLine
 10
336.3298903504833
 20
692.2858474004489
 30
0.0
 11
349.5024053892068
 21
692.2858474004488
 31
0.0
  0
POLYLINE
  5
130
330
1F
100
AcDbEntity
  8
Make2D$可见线$普通线
100
AcDb2dPolyline
 66
     1
 10
0.0
 20
0.0
 30
0.0
  0
VERTEX
  5
131
330
130
100
AcDbEntity
  8
Make2D$可见线$普通线
100
AcDbVertex
100
AcDb2dVertex
 10
313.6581645844467
 20
698.7109181316582
 30
0.0
 42
-0.2713609910277368
  0
VERTEX
  5
132
330
130
100
AcDbEntity
  8
Make2D$可见线$普通线
100
AcDbVertex
100
AcDb2dVertex
 10
313.6581860658665
 20
692.8608161302848
 30
0.0
  0
VERTEX
  5
133
330
130
100
AcDbEntity
  8
Make2D$可见线$普通线
100
AcDbVertex
100
AcDb2dVertex
 10
313.7087331175907
 20
692.7827525577264
 30
0.0
  0
VERTEX
  5
134
330
130
100
AcDbEntity
  8
Make2D$可见线$普通线
100
AcDbVertex
100
AcDb2dVertex
 10
313.7609641913958
 20
692.7069073449568
 30
0.0
  0
VERTEX
  5
135
330
130
100
AcDbEntity
  8
Make2D$可见线$普通线
100
AcDbVertex
100
AcDb2dVertex
 10
313.8148576437596
 20
692.6332487027983
 30
0.0
  0
VERTEX
  5
136
330
130
100
AcDbEntity
  8
Make2D$可见线$普通线
100
AcDbVertex
100
AcDb2dVertex
 10
313.8703918311594
 20
692.561744842073
 30
0.0
  0
VERTEX
  5
137
330
130
100
AcDbEntity
  8
Make2D$可见线$普通线
100
AcDbVertex
100
AcDb2dVertex
 10
313.9275451100727
 20
692.4923639736037
 30
0.0
  0
VERTEX
  5
138
330
130
100
AcDbEntity
  8
Make2D$可见线$普通线
100
AcDbVertex
100
AcDb2dVertex
 10
313.9862958369772
 20
692.4250743082125
 30
0.0
  0
VERTEX
  5
139
330
130
100
AcDbEntity
  8
Make2D$可见线$普通线
100
AcDbVertex
100
AcDb2dVertex
 10
314.0466223683502
 20
692.3598440567221
 30
0.0
  0
VERTEX
  5
13A
330
130
100
AcDbEntity
  8
Make2D$可见线$普通线
100
AcDbVertex
100
AcDb2dVertex
 10
314.1085030606692
 20
692.2966414299547
 30
0.0
  0
VERTEX
  5
13B
330
130
100
AcDbEntity
  8
Make2D$可见线$普通线
100
AcDbVertex
100
AcDb2dVertex
 10
314.1719162704119
 20
692.2354346387327
 30
0.0
  0
VERTEX
  5
13C
330
130
100
AcDbEntity
  8
Make2D$可见线$普通线
100
AcDbVertex
100
AcDb2dVertex
 10
314.2368403540556
 20
692.1761918938786
 30
0.0
  0
VERTEX
  5
13D
330
130
100
AcDbEntity
  8
Make2D$可见线$普通线
100
AcDbVertex
100
AcDb2dVertex
 10
314.3032536680778
 20
692.1188814062143
 30
0.0
  0
VERTEX
  5
13E
330
130
100
AcDbEntity
  8
Make2D$可见线$普通线
100
AcDbVertex
100
AcDb2dVertex
 10
314.3711345689561
 20
692.063471386563
 30
0.0
  0
VERTEX
  5
13F
330
130
100
AcDbEntity
  8
Make2D$可见线$普通线
100
AcDbVertex
100
AcDb2dVertex
 10
314.440461413168
 20
692.0099300457467
 30
0.0
  0
VERTEX
  5
140
330
130
100
AcDbEntity
  8
Make2D$可见线$普通线
100
AcDbVertex
100
AcDb2dVertex
 10
314.5112125571911
 20
691.9582255945879
 30
0.0
  0
VERTEX
  5
141
330
130
100
AcDbEntity
  8
Make2D$可见线$普通线
100
AcDbVertex
100
AcDb2dVertex
 10
314.5833663575028
 20
691.908326243909
 30
0.0
  0
VERTEX
  5
142
330
130
100
AcDbEntity
  8
Make2D$可见线$普通线
100
AcDbVertex
100
AcDb2dVertex
 10
314.6569011705805
 20
691.8602002045322
 30
0.0
  0
VERTEX
  5
143
330
130
100
AcDbEntity
  8
Make2D$可见线$普通线
100
AcDbVertex
100
AcDb2dVertex
 10
314.7317953529018
 20
691.8138156872802
 30
0.0
  0
VERTEX
  5
144
330
130
100
AcDbEntity
  8
Make2D$可见线$普通线
100
AcDbVertex
100
AcDb2dVertex
 10
314.8080272609442
 20
691.7691409029751
 30
0.0
  0
VERTEX
  5
145
330
130
100
AcDbEntity
  8
Make2D$可见线$普通线
100
AcDbVertex
100
AcDb2dVertex
 10
314.8855752511853
 20
691.7261440624394
 30
0.0
  0
VERTEX
  5
146
330
130
100
AcDbEntity
  8
Make2D$可见线$普通线
100
AcDbVertex
100
AcDb2dVertex
 10
314.9644176801024
 20
691.6847933764956
 30
0.0
  0
VERTEX
  5
147
330
130
100
AcDbEntity
  8
Make2D$可见线$普通线
100
AcDbVertex
100
AcDb2dVertex
 10
315.0445329041731
 20
691.645057055966
 30
0.0
  0
VERTEX
  5
148
330
130
100
AcDbEntity
  8
Make2D$可见线$普通线
100
AcDbVertex
100
AcDb2dVertex
 10
315.1258992798748
 20
691.6069033116729
 30
0.0
  0
VERTEX
  5
149
330
130
100
AcDbEntity
  8
Make2D$可见线$普通线
100
AcDbVertex
100
AcDb2dVertex
 10
315.2084951636853
 20
691.5703003544392
 30
0.0
  0
VERTEX
  5
14A
330
130
100
AcDbEntity
  8
Make2D$可见线$普通线
100
AcDbVertex
100
AcDb2dVertex
 10
315.2922989120819
 20
691.5352163950866
 30
0.0
  0
VERTEX
  5
14B
330
130
100
AcDbEntity
  8
Make2D$可见线$普通线
100
AcDbVertex
100
AcDb2dVertex
 10
315.3772888815421
 20
691.5016196444379
 30
0.0
  0
VERTEX
  5
14C
330
130
100
AcDbEntity
  8
Make2D$可见线$普通线
100
AcDbVertex
100
AcDb2dVertex
 10
315.4634434285435
 20
691.4694783133157
 30
0.0
  0
VERTEX
  5
14D
330
130
100
AcDbEntity
  8
Make2D$可见线$普通线
100
AcDbVertex
100
AcDb2dVertex
 10
315.5507409095634
 20
691.4387606125421
 30
0.0
  0
VERTEX
  5
14E
330
130
100
AcDbEntity
  8
Make2D$可见线$普通线
100
AcDbVertex
100
AcDb2dVertex
 10
315.6391596810795
 20
691.4094347529394
 30
0.0
  0
VERTEX
  5
14F
330
130
100
AcDbEntity
  8
Make2D$可见线$普通线
100
AcDbVertex
100
AcDb2dVertex
 10
315.8192745215102
 20
691.3548314005369
 30
0.0
  0
VERTEX
  5
150
330
130
100
AcDbEntity
  8
Make2D$可见线$普通线
100
AcDbVertex
100
AcDb2dVertex
 10
316.0036148016554
 20
691.3054139426871
 30
0.0
  0
VERTEX
  5
151
330
130
100
AcDbEntity
  8
Make2D$可见线$普通线
100
AcDbVertex
100
AcDb2dVertex
 10
316.2402258808954
 20
691.2525824351388
 30
0.0
  0
VERTEX
  5
152
330
130
100
AcDbEntity
  8
Make2D$可见线$普通线
100
AcDbVertex
100
AcDb2dVertex
 10
316.4784336780898
 20
691.2060925195216
 30
0.0
  0
VERTEX
  5
153
330
130
100
AcDbEntity
  8
Make2D$可见线$普通线
100
AcDbVertex
100
AcDb2dVertex
 10
316.7179824309226
 20
691.1660122749544
 30
0.0
  0
VERTEX
  5
154
330
130
100
AcDbEntity
  8
Make2D$可见线$普通线
100
AcDbVertex
100
AcDb2dVertex
 10
316.9586127030045
 20
691.1323959776527
 30
0.0
  0
VERTEX
  5
155
330
130
100
AcDbEntity
  8
Make2D$可见线$普通线
100
AcDbVertex
100
AcDb2dVertex
 10
317.2000623181855
 20
691.1052838656838
 30
0.0
  0
VERTEX
  5
156
330
130
100
AcDbEntity
  8
Make2D$可见线$普通线
100
AcDbVertex
100
AcDb2dVertex
 10
317.4420673118577
 20
691.0847019798111
 30
0.0
  0
VERTEX
  5
157
330
130
100
AcDbEntity
  8
Make2D$可见线$普通线
100
AcDbVertex
100
AcDb2dVertex
 10
317.6843628920087
 20
691.0706620817475
 30
0.0
  0
VERTEX
  5
158
330
130
100
AcDbEntity
  8
Make2D$可见线$普通线
100
AcDbVertex
100
AcDb2dVertex
 10
317.9266844026872
 20
691.0631616503327
 30
0.0
  0
VERTEX
  5
159
330
130
100
AcDbEntity
  8
Make2D$可见线$普通线
100
AcDbVertex
100
AcDb2dVertex
 10
318.4722819781214
 20
691.0589524545427
 30
0.0
  0
VERTEX
  5
15A
330
130
100
AcDbEntity
  8
Make2D$可见线$普通线
100
AcDbVertex
100
AcDb2dVertex
 10
318.7452258167339
 20
691.0650335381376
 30
0.0
  0
VERTEX
  5
15B
330
130
100
AcDbEntity
  8
Make2D$可见线$普通线
100
AcDbVertex
100
AcDb2dVertex
 10
319.0180479865812
 20
691.0765756122478
 30
0.0
  0
VERTEX
  5
15C
330
130
100
AcDbEntity
  8
Make2D$可见线$普通线
100
AcDbVertex
100
AcDb2dVertex
 10
319.2905846474366
 20
691.0935733863599
 30
0.0
  0
VERTEX
  5
15D
330
130
100
AcDbEntity
  8
Make2D$可见线$普通线
100
AcDbVertex
100
AcDb2dVertex
 10
319.5626723018122
 20
691.1160150206719
 30
0.0
  0
VERTEX
  5
15E
330
130
100
AcDbEntity
  8
Make2D$可见线$普通线
100
AcDbVertex
100
AcDb2dVertex
 10
319.8341481217419
 20
691.1438821530428
 30
0.0
  0
VERTEX
  5
15F
330
130
100
AcDbEntity
  8
Make2D$可见线$普通线
100
AcDbVertex
100
AcDb2dVertex
 10
320.1048502731644
 20
691.1771499454633
 30
0.0
  0
VERTEX
  5
160
330
130
100
AcDbEntity
  8
Make2D$可见线$普通线
100
AcDbVertex
100
AcDb2dVertex
 10
320.397145365413
 20
691.2176072597302
 30
0.0
  0
VERTEX
  5
161
330
130
100
AcDbEntity
  8
Make2D$可见线$普通线
100
AcDbVertex
100
AcDb2dVertex
 10
320.6885805985956
 20
691.2657582151036
 30
0.0
  0
VERTEX
  5
162
330
130
100
AcDbEntity
  8
Make2D$可见线$普通线
100
AcDbVertex
100
AcDb2dVertex
 10
320.9788527096266
 20
691.3215729414686
 30
0.0
  0
VERTEX
  5
163
330
130
100
AcDbEntity
  8
Make2D$可见线$普通线
100
AcDbVertex
100
AcDb2dVertex
 10
321.2676600032592
 20
691.3850056508672
 30
0.0
  0
VERTEX
  5
164
330
130
100
AcDbEntity
  8
Make2D$可见线$普通线
100
AcDbVertex
100
AcDb2dVertex
 10
321.554703394938
 20
691.4559947540494
 30
0.0
  0
VERTEX
  5
165
330
130
100
AcDbEntity
  8
Make2D$可见线$普通线
100
AcDbVertex
100
AcDb2dVertex
 10
321.8396874423261
 20
691.5344630588337
 30
0.0
  0
VERTEX
  5
166
330
130
100
AcDbEntity
  8
Make2D$可见线$普通线
100
AcDbVertex
100
AcDb2dVertex
 10
322.1223213580488
 20
691.6203180489442
 30
0.0
  0
VERTEX
  5
167
330
130
100
AcDbEntity
  8
Make2D$可见线$普通线
100
AcDbVertex
100
AcDb2dVertex
 10
322.4023199963677
 20
691.7134522412147
 30
0.0
  0
VERTEX
  5
168
330
130
100
AcDbEntity
  8
Make2D$可见线$普通线
100
AcDbVertex
100
AcDb2dVertex
 10
322.542789819062
 20
691.7624754399045
 30
0.0
  0
VERTEX
  5
169
330
130
100
AcDbEntity
  8
Make2D$可见线$普通线
100
AcDbVertex
100
AcDb2dVertex
 10
322.6823772203172
 20
691.814703215546
 30
0.0
  0
VERTEX
  5
16A
330
130
100
AcDbEntity
  8
Make2D$可见线$普通线
100
AcDbVertex
100
AcDb2dVertex
 10
322.8209732572645
 20
691.870112034248
 30
0.0
  0
VERTEX
  5
16B
330
130
100
AcDbEntity
  8
Make2D$可见线$普通线
100
AcDbVertex
100
AcDb2dVertex
 10
322.9584698210329
 20
691.9286734457667
 30
0.0
  0
VERTEX
  5
16C
330
130
100
AcDbEntity
  8
Make2D$可见线$普通线
100
AcDbVertex
100
AcDb2dVertex
 10
323.0947599131977
 20
691.990354120891
 30
0.0
  0
VERTEX
  5
16D
330
130
100
AcDbEntity
  8
Make2D$可见线$普通线
100
AcDbVertex
100
AcDb2dVertex
 10
323.2297379201351
 20
692.0551159074465
 30
0.0
  0
VERTEX
  5
16E
330
130
100
AcDbEntity
  8
Make2D$可见线$普通线
100
AcDbVertex
100
AcDb2dVertex
 10
323.3632998838196
 20
692.122915904769
 30
0.0
  0
VERTEX
  5
16F
330
130
100
AcDbEntity
  8
Make2D$可见线$普通线
100
AcDbVertex
100
AcDb2dVertex
 10
323.4953437676185
 20
692.1937065563707
 30
0.0
  0
VERTEX
  5
170
330
130
100
AcDbEntity
  8
Make2D$可见线$普通线
100
AcDbVertex
100
AcDb2dVertex
 10
323.6257697156612
 20
692.2674357603887
 30
0.0
  0
VERTEX
  5
171
330
130
100
AcDbEntity
  8
Make2D$可见线$普通线
100
AcDbVertex
100
AcDb2dVertex
 10
323.754480304403
 20
692.3440469972843
 30
0.0
  0
VERTEX
  5
172
330
130
100
AcDbEntity
  8
Make2D$可见线$普通线
100
AcDbVertex
100
AcDb2dVertex
 10
323.8813807850522
 20
692.4234794741327
 30
0.0
  0
VERTEX
  5
173
330
130
100
AcDbEntity
  8
Make2D$可见线$普通线
100
AcDbVertex
100
AcDb2dVertex
 10
324.0063793155965
 20
692.5056682847368
 30
0.0
  0
VERTEX
  5
174
330
130
100
AcDbEntity
  8
Make2D$可见线$普通线
100
AcDbVertex
100
AcDb2dVertex
 10
324.1293871812365
 20
692.5905445846759
 30
0.0
  0
VERTEX
  5
175
330
130
100
AcDbEntity
  8
Make2D$可见线$普通线
100
AcDbVertex
100
AcDb2dVertex
 10
324.2503190021246
 20
692.6780357803124
 30
0.0
  0
VERTEX
  5
176
330
130
100
AcDbEntity
  8
Make2D$可见线$普通线
100
AcDbVertex
100
AcDb2dVertex
 10
324.3690929273949
 20
692.7680657306793
 30
0.0
  0
VERTEX
  5
177
330
130
100
AcDbEntity
  8
Make2D$可见线$普通线
100
AcDbVertex
100
AcDb2dVertex
 10
324.4856308145842
 20
692.8605549610947
 30
0.0
 42
-0.0108583426963082
  0
VERTEX
  5
178
330
130
100
AcDbEntity
  8
Make2D$可见线$普通线
100
AcDbVertex
100
AcDb2dVertex
 10
324.4856306433655
 20
698.711139264992
 30
0.0
  0
VERTEX
  5
179
330
130
100
AcDbEntity
  8
Make2D$可见线$普通线
100
AcDbVertex
100
AcDb2dVertex
 10
324.3690924889376
 20
698.8036288818735
 30
0.0
  0
VERTEX
  5
17A
330
130
100
AcDbEntity
  8
Make2D$可见线$普通线
100
AcDbVertex
100
AcDb2dVertex
 10
324.2503183057809
 20
698.8936592162008
 30
0.0
  0
VERTEX
  5
17B
330
130
100
AcDbEntity
  8
Make2D$可见线$普通线
100
AcDbVertex
100
AcDb2dVertex
 10
324.1293862354555
 20
698.9811507940492
 30
0.0
  0
VERTEX
  5
17C
330
130
100
AcDbEntity
  8
Make2D$可见线$普通线
100
AcDbVertex
100
AcDb2dVertex
 10
324.006378127879
 20
699.0660274751914
 30
0.0
  0
VERTEX
  5
17D
330
130
100
AcDbEntity
  8
Make2D$可见线$普通线
100
AcDbVertex
100
AcDb2dVertex
 10
323.8813793619095
 20
699.1482166667089
 30
0.0
  0
VERTEX
  5
17E
330
130
100
AcDbEntity
  8
Make2D$可见线$普通线
100
AcDbVertex
100
AcDb2dVertex
 10
323.7544786513178
 20
699.2276495248761
 30
0.0
  0
VERTEX
  5
17F
330
130
100
AcDbEntity
  8
Make2D$可见线$普通线
100
AcDbVertex
100
AcDb2dVertex
 10
323.6257678370543
 20
699.3042611441639
 30
0.0
  0
VERTEX
  5
180
330
130
100
AcDbEntity
  8
Make2D$可见线$普通线
100
AcDbVertex
100
AcDb2dVertex
 10
323.4953416668187
 20
699.3779907322856
 30
0.0
  0
VERTEX
  5
181
330
130
100
AcDbEntity
  8
Make2D$可见线$普通线
100
AcDbVertex
100
AcDb2dVertex
 10
323.363297563038
 20
699.4487817703072
 30
0.0
  0
VERTEX
  5
182
330
130
100
AcDbEntity
  8
Make2D$可见线$普通线
100
AcDbVertex
100
AcDb2dVertex
 10
323.2297353804445
 20
699.5165821569348
 30
0.0
  0
VERTEX
  5
183
330
130
100
AcDbEntity
  8
Make2D$可见线$普通线
100
AcDbVertex
100
AcDb2dVertex
 10
323.0947571545158
 20
699.5813443362117
 30
0.0
  0
VERTEX
  5
184
330
130
100
AcDbEntity
  8
Make2D$可见线$普通线
100
AcDbVertex
100
AcDb2dVertex
 10
322.958466842111
 20
699.6430254079652
 30
0.0
  0
VERTEX
  5
185
330
130
100
AcDbEntity
  8
Make2D$可见线$普通线
100
AcDbVertex
100
AcDb2dVertex
 10
322.8209700556807
 20
699.7015872204701
 30
0.0
  0
VERTEX
  5
186
330
130
100
AcDbEntity
  8
Make2D$可见线$普通线
100
AcDbVertex
100
AcDb2dVertex
 10
322.6823737924748
 20
699.7569964449218
 30
0.0
  0
VERTEX
  5
187
330
130
100
AcDbEntity
  8
Make2D$可见线$普通线
100
AcDbVertex
100
AcDb2dVertex
 10
322.5427861601928
 20
699.8092246314378
 30
0.0
  0
VERTEX
  5
188
330
130
100
AcDbEntity
  8
Make2D$可见线$普通线
100
AcDbVertex
100
AcDb2dVertex
 10
322.4023161005397
 20
699.8582482464435
 30
0.0
  0
VERTEX
  5
189
330
130
100
AcDbEntity
  8
Make2D$可见线$普通线
100
AcDbVertex
100
AcDb2dVertex
 10
322.1223170088534
 20
699.9513832715149
 30
0.0
  0
VERTEX
  5
18A
330
130
100
AcDbEntity
  8
Make2D$可见线$普通线
100
AcDbVertex
100
AcDb2dVertex
 10
321.8396826292851
 20
700.0372391128924
 30
0.0
  0
VERTEX
  5
18B
330
130
100
AcDbEntity
  8
Make2D$可见线$普通线
100
AcDbVertex
100
AcDb2dVertex
 10
321.5546981056679
 20
700.1157082874663
 30
0.0
  0
VERTEX
  5
18C
330
130
100
AcDbEntity
  8
Make2D$可见线$普通线
100
AcDbVertex
100
AcDb2dVertex
 10
321.2676542234459
 20
700.1866982788559
 30
0.0
  0
VERTEX
  5
18D
330
130
100
AcDbEntity
  8
Make2D$可见线$普通线
100
AcDbVertex
100
AcDb2dVertex
 10
320.9788464230128
 20
700.25013189461
 30
0.0
  0
VERTEX
  5
18E
330
130
100
AcDbEntity
  8
Make2D$可见线$普通线
100
AcDbVertex
100
AcDb2dVertex
 10
320.6885737869851
 20
700.305947545042
 30
0.0
  0
VERTEX
  5
18F
330
130
100
AcDbEntity
  8
Make2D$可见线$普通线
100
AcDbVertex
100
AcDb2dVertex
 10
320.3971380086886
 20
700.3540994415913
 30
0.0
  0
VERTEX
  5
190
330
130
100
AcDbEntity
  8
Make2D$可见线$普通线
100
AcDbVertex
100
AcDb2dVertex
 10
320.1048423493223
 20
700.394557713376
 30
0.0
  0
VERTEX
  5
191
330
130
100
AcDbEntity
  8
Make2D$可见线$普通线
100
AcDbVertex
100
AcDb2dVertex
 10
319.8341397281235
 20
700.4278263967492
 30
0.0
  0
VERTEX
  5
192
330
130
100
AcDbEntity
  8
Make2D$可见线$普通线
100
AcDbVertex
100
AcDb2dVertex
 10
319.5626634242523
 20
700.455694434497
 30
0.0
  0
VERTEX
  5
193
330
130
100
AcDbEntity
  8
Make2D$可见线$普通线
100
AcDbVertex
100
AcDb2dVertex
 10
319.2905752706286
 20
700.478136988304
 30
0.0
  0
VERTEX
  5
194
330
130
100
AcDbEntity
  8
Make2D$可见线$普通线
100
AcDbVertex
100
AcDb2dVertex
 10
319.0180380940854
 20
700.4951356956506
 30
0.0
  0
VERTEX
  5
195
330
130
100
AcDbEntity
  8
Make2D$可见线$普通线
100
AcDbVertex
100
AcDb2dVertex
 10
318.7452153909898
 20
700.5066787162812
 30
0.0
  0
VERTEX
  5
196
330
130
100
AcDbEntity
  8
Make2D$可见线$普通线
100
AcDbVertex
100
AcDb2dVertex
 10
318.4722710004665
 20
700.5127607591571
 30
0.0
  0
VERTEX
  5
197
330
130
100
AcDbEntity
  8
Make2D$可见线$普通线
100
AcDbVertex
100
AcDb2dVertex
 10
318.1993687765911
 20
700.5133830897618
 30
0.0
  0
VERTEX
  5
198
330
130
100
AcDbEntity
  8
Make2D$可见线$普通线
100
AcDbVertex
100
AcDb2dVertex
 10
317.9266722609341
 20
700.5085535177465
 30
0.0
  0
VERTEX
  5
199
330
130
100
AcDbEntity
  8
Make2D$可见线$普通线
100
AcDbVertex
100
AcDb2dVertex
 10
317.6843503259237
 20
700.5010539761571
 30
0.0
  0
VERTEX
  5
19A
330
130
100
AcDbEntity
  8
Make2D$可见线$普通线
100
AcDbVertex
100
AcDb2dVertex
 10
317.44205429763
 20
700.4870149784578
 30
0.0
  0
VERTEX
  5
19B
330
130
100
AcDbEntity
  8
Make2D$可见线$普通线
100
AcDbVertex
100
AcDb2dVertex
 10
317.2000488307008
 20
700.46643400255
 30
0.0
  0
VERTEX
  5
19C
330
130
100
AcDbEntity
  8
Make2D$可见线$普通线
100
AcDbVertex
100
AcDb2dVertex
 10
316.9585987158957
 20
700.439322809092
 30
0.0
  0
VERTEX
  5
19D
330
130
100
AcDbEntity
  8
Make2D$可见线$普通线
100
AcDbVertex
100
AcDb2dVertex
 10
316.7179679166308
 20
700.405707437679
 30
0.0
  0
VERTEX
  5
19E
330
130
100
AcDbEntity
  8
Make2D$可见线$普通线
100
AcDbVertex
100
AcDb2dVertex
 10
316.4784186079361
 20
700.3656281251008
 30
0.0
  0
VERTEX
  5
19F
330
130
100
AcDbEntity
  8
Make2D$可见线$普通线
100
AcDbVertex
100
AcDb2dVertex
 10
316.2402102251628
 20
700.319139146193
 30
0.0
  0
VERTEX
  5
1A0
330
130
100
AcDbEntity
  8
Make2D$可见线$普通线
100
AcDbVertex
100
AcDb2dVertex
 10
316.0035985296807
 20
700.266308578599
 30
0.0
  0
VERTEX
  5
1A1
330
130
100
AcDbEntity
  8
Make2D$可见线$普通线
100
AcDbVertex
100
AcDb2dVertex
 10
315.8192578656431
 20
700.2168918877983
 30
0.0
  0
VERTEX
  5
1A2
330
130
100
AcDbEntity
  8
Make2D$可见线$普通线
100
AcDbVertex
100
AcDb2dVertex
 10
315.6391426437228
 20
700.1622892989944
 30
0.0
  0
VERTEX
  5
1A3
330
130
100
AcDbEntity
  8
Make2D$可见线$普通线
100
AcDbVertex
100
AcDb2dVertex
 10
315.5507236827227
 20
700.1329638198315
 30
0.0
  0
VERTEX
  5
1A4
330
130
100
AcDbEntity
  8
Make2D$可见线$普通线
100
AcDbVertex
100
AcDb2dVertex
 10
315.4634260132511
 20
700.102246498556
 30
0.0
  0
VERTEX
  5
1A5
330
130
100
AcDbEntity
  8
Make2D$可见线$普通线
100
AcDbVertex
100
AcDb2dVertex
 10
315.3772712789743
 20
700.0701055459638
 30
0.0
  0
VERTEX
  5
1A6
330
130
100
AcDbEntity
  8
Make2D$可见线$普通线
100
AcDbVertex
100
AcDb2dVertex
 10
315.2922811235586
 20
700.036509172851
 30
0.0
  0
VERTEX
  5
1A7
330
130
100
AcDbEntity
  8
Make2D$可见线$普通线
100
AcDbVertex
100
AcDb2dVertex
 10
315.2084771906704
 20
700.0014255900136
 30
0.0
  0
VERTEX
  5
1A8
330
130
100
AcDbEntity
  8
Make2D$可见线$普通线
100
AcDbVertex
100
AcDb2dVertex
 10
315.1258811239761
 20
699.9648230082479
 30
0.0
  0
VERTEX
  5
1A9
330
130
100
AcDbEntity
  8
Make2D$可见线$普通线
100
AcDbVertex
100
AcDb2dVertex
 10
315.044514567142
 20
699.9266696383495
 30
0.0
  0
VERTEX
  5
1AA
330
130
100
AcDbEntity
  8
Make2D$可见线$普通线
100
AcDbVertex
100
AcDb2dVertex
 10
314.9643991638345
 20
699.8869336911148
 30
0.0
  0
VERTEX
  5
1AB
330
130
100
AcDbEntity
  8
Make2D$可见线$普通线
100
AcDbVertex
100
AcDb2dVertex
 10
314.8855565577199
 20
699.8455833773395
 30
0.0
  0
VERTEX
  5
1AC
330
130
100
AcDbEntity
  8
Make2D$可见线$普通线
100
AcDbVertex
100
AcDb2dVertex
 10
314.8080083924646
 20
699.8025869078198
 30
0.0
  0
VERTEX
  5
1AD
330
130
100
AcDbEntity
  8
Make2D$可见线$普通线
100
AcDbVertex
100
AcDb2dVertex
 10
314.7317763117348
 20
699.7579124933519
 30
0.0
  0
VERTEX
  5
1AE
330
130
100
AcDbEntity
  8
Make2D$可见线$普通线
100
AcDbVertex
100
AcDb2dVertex
 10
314.6568819591971
 20
699.7115283447316
 30
0.0
  0
VERTEX
  5
1AF
330
130
100
AcDbEntity
  8
Make2D$可见线$普通线
100
AcDbVertex
100
AcDb2dVertex
 10
314.5833469785177
 20
699.6634026727551
 30
0.0
  0
VERTEX
  5
1B0
330
130
100
AcDbEntity
  8
Make2D$可见线$普通线
100
AcDbVertex
100
AcDb2dVertex
 10
314.511193013363
 20
699.6135036882184
 30
0.0
  0
VERTEX
  5
1B1
330
130
100
AcDbEntity
  8
Make2D$可见线$普通线
100
AcDbVertex
100
AcDb2dVertex
 10
314.4404417073993
 20
699.5617996019174
 30
0.0
  0
VERTEX
  5
1B2
330
130
100
AcDbEntity
  8
Make2D$可见线$普通线
100
AcDbVertex
100
AcDb2dVertex
 10
314.371114704293
 20
699.5082586246484
 30
0.0
  0
VERTEX
  5
1B3
330
130
100
AcDbEntity
  8
Make2D$可见线$普通线
100
AcDbVertex
100
AcDb2dVertex
 10
314.3032336477104
 20
699.452848967207
 30
0.0
  0
VERTEX
  5
1B4
330
130
100
AcDbEntity
  8
Make2D$可见线$普通线
100
AcDbVertex
100
AcDb2dVertex
 10
314.2368201813181
 20
699.3955388403899
 30
0.0
  0
VERTEX
  5
1B5
330
130
100
AcDbEntity
  8
Make2D$可见线$普通线
100
AcDbVertex
100
AcDb2dVertex
 10
314.1718959487821
 20
699.3362964549924
 30
0.0
  0
VERTEX
  5
1B6
330
130
100
AcDbEntity
  8
Make2D$可见线$普通线
100
AcDbVertex
100
AcDb2dVertex
 10
314.1084825937689
 20
699.275090021811
 30
0.0
  0
VERTEX
  5
1B7
330
130
100
AcDbEntity
  8
Make2D$可见线$普通线
100
AcDbVertex
100
AcDb2dVertex
 10
314.0466017599449
 20
699.2118877516415
 30
0.0
  0
VERTEX
  5
1B8
330
130
100
AcDbEntity
  8
Make2D$可见线$普通线
100
AcDbVertex
100
AcDb2dVertex
 10
313.9862750909764
 20
699.1466578552801
 30
0.0
  0
VERTEX
  5
1B9
330
130
100
AcDbEntity
  8
Make2D$可见线$普通线
100
AcDbVertex
100
AcDb2dVertex
 10
313.9275242305297
 20
699.0793685435226
 30
0.0
  0
VERTEX
  5
1BA
330
130
100
AcDbEntity
  8
Make2D$可见线$普通线
100
AcDbVertex
100
AcDb2dVertex
 10
313.8703708222713
 20
699.0099880271655
 30
0.0
  0
VERTEX
  5
1BB
330
130
100
AcDbEntity
  8
Make2D$可见线$普通线
100
AcDbVertex
100
AcDb2dVertex
 10
313.8148365098674
 20
698.9384845170043
 30
0.0
  0
VERTEX
  5
1BC
330
130
100
AcDbEntity
  8
Make2D$可见线$普通线
100
AcDbVertex
100
AcDb2dVertex
 10
313.7609429369844
 20
698.8648262238354
 30
0.0
  0
VERTEX
  5
1BD
330
130
100
AcDbEntity
  8
Make2D$可见线$普通线
100
AcDbVertex
100
AcDb2dVertex
 10
313.7087117472886
 20
698.7889813584546
 30
0.0
  0
VERTEX
  5
1BE
330
130
100
AcDbEntity
  8
Make2D$可见线$普通线
100
AcDbVertex
100
AcDb2dVertex
 10
313.6581645844467
 20
698.7109181316582
 30
0.0
  0
SEQEND
  5
1BF
330
130
100
AcDbEntity
  8
Make2D$可见线$普通线
  0
POLYLINE
  5
1C0
330
1F
100
AcDbEntity
  8
Make2D$可见线$普通线
100
AcDb2dPolyline
 66
     1
 10
0.0
 20
0.0
 30
0.0
  0
VERTEX
  5
1C1
330
1C0
100
AcDbEntity
  8
Make2D$可见线$普通线
100
AcDbVertex
100
AcDb2dVertex
 10
379.4227884772216
 20
667.5140551783294
 30
0.0
  0
VERTEX
  5
1C2
330
1C0
100
AcDbEntity
  8
Make2D$可见线$普通线
100
AcDbVertex
100
AcDb2dVertex
 10
379.2433390972407
 20
669.5278034200593
 30
0.0
 42
0.006327100296646
  0
VERTEX
  5
1C3
330
1C0
100
AcDbEntity
  8
Make2D$可见线$普通线
100
AcDbVertex
100
AcDb2dVertex
 10
330.5329314215141
 20
670.2773468514356
 30
0.0
  0
SEQEND
  5
1C4
330
1C0
100
AcDbEntity
  8
Make2D$可见线$普通线
  0
POLYLINE
  5
1C5
330
1F
100
AcDbEntity
  8
Make2D$可见线$普通线
100
AcDb2dPolyline
 66
     1
 10
0.0
 20
0.0
 30
0.0
  0
VERTEX
  5
1C6
330
1C5
100
AcDbEntity
  8
Make2D$可见线$普通线
100
AcDbVertex
100
AcDb2dVertex
 10
313.0752765341365
 20
692.2858474004488
 30
0.0
  0
VERTEX
  5
1C7
330
1C5
100
AcDbEntity
  8
Make2D$可见线$普通线
100
AcDbVertex
100
AcDb2dVertex
 10
299.9057816825344
 20
692.285847400449
 30
0.0
 42
0.4190773906009926
  0
VERTEX
  5
1C8
330
1C5
100
AcDbEntity
  8
Make2D$可见线$普通线
100
AcDbVertex
100
AcDb2dVertex
 10
299.7024029793669
 20
692.0858474004489
 30
0.0
  0
VERTEX
  5
1C9
330
1C5
100
AcDbEntity
  8
Make2D$可见线$普通线
100
AcDbVertex
100
AcDb2dVertex
 10
299.7021321179363
 20
671.2858474004489
 30
0.0
 42
0.4153334419235621
  0
VERTEX
  5
1CA
330
1C5
100
AcDbEntity
  8
Make2D$可见线$普通线
100
AcDbVertex
100
AcDb2dVertex
 10
300.7040246679369
 20
670.2858474004491
 30
0.0
  0
VERTEX
  5
1CB
330
1C5
100
AcDbEntity
  8
Make2D$可见线$普通线
100
AcDbVertex
100
AcDb2dVertex
 10
312.7025946925384
 20
670.2858474004488
 30
0.0
  0
SEQEND
  5
1CC
330
1C5
100
AcDbEntity
  8
Make2D$可见线$普通线
  0
LINE
  5
1CD
330
1F
100
AcDbEntity
  8
Make2D$可见线$普通线
100
AcDbLine
 10
335.7477924596774
 20
693.2858474004488
 30
0.0
 11
348.5024053245997
 21
693.2858474004489
 31
0.0
  0
POLYLINE
  5
1CE
330
1F
100
AcDbEntity
  8
Make2D$可见线$普通线
100
AcDb2dPolyline
 66
     1
 10
0.0
 20
0.0
 30
0.0
  0
VERTEX
  5
1CF
330
1CE
100
AcDbEntity
  8
Make2D$可见线$普通线
100
AcDbVertex
100
AcDb2dVertex
 10
335.7469480111426
 20
698.7108486885048
 30
0.0
  0
VERTEX
  5
1D0
330
1CE
100
AcDbEntity
  8
Make2D$可见线$普通线
100
AcDbVertex
100
AcDb2dVertex
 10
335.6964037958871
 20
698.7889163106896
 30
0.0
  0
VERTEX
  5
1D1
330
1CE
100
AcDbEntity
  8
Make2D$可见线$普通线
100
AcDbVertex
100
AcDb2dVertex
 10
335.6441852097003
 20
698.864763982045
 30
0.0
  0
VERTEX
  5
1D2
330
1CE
100
AcDbEntity
  8
Make2D$可见线$普通线
100
AcDbVertex
100
AcDb2dVertex
 10
335.5903130092532
 20
698.9384236235034
 30
0.0
  0
VERTEX
  5
1D3
330
1CE
100
AcDbEntity
  8
Make2D$可见线$普通线
100
AcDbVertex
100
AcDb2dVertex
 10
335.5348079512167
 20
699.009927155996
 30
0.0
  0
VERTEX
  5
1D4
330
1CE
100
AcDbEntity
  8
Make2D$可见线$普通线
100
AcDbVertex
100
AcDb2dVertex
 10
335.4776907922615
 20
699.0793065004544
 30
0.0
  0
VERTEX
  5
1D5
330
1CE
100
AcDbEntity
  8
Make2D$可见线$普通线
100
AcDbVertex
100
AcDb2dVertex
 10
335.4189822890585
 20
699.14659357781
 30
0.0
  0
VERTEX
  5
1D6
330
1CE
100
AcDbEntity
  8
Make2D$可见线$普通线
100
AcDbVertex
100
AcDb2dVertex
 10
335.3587031982788
 20
699.2118203089949
 30
0.0
  0
VERTEX
  5
1D7
330
1CE
100
AcDbEntity
  8
Make2D$可见线$普通线
100
AcDbVertex
100
AcDb2dVertex
 10
335.296874276593
 20
699.2750186149406
 30
0.0
  0
VERTEX
  5
1D8
330
1CE
100
AcDbEntity
  8
Make2D$可见线$普通线
100
AcDbVertex
100
AcDb2dVertex
 10
335.233516280672
 20
699.3362204165784
 30
0.0
  0
VERTEX
  5
1D9
330
1CE
100
AcDbEntity
  8
Make2D$可见线$普通线
100
AcDbVertex
100
AcDb2dVertex
 10
335.1686499671867
 20
699.3954576348402
 30
0.0
  0
VERTEX
  5
1DA
330
1CE
100
AcDbEntity
  8
Make2D$可见线$普通线
100
AcDbVertex
100
AcDb2dVertex
 10
335.1022960928078
 20
699.452762190657
 30
0.0
  0
VERTEX
  5
1DB
330
1CE
100
AcDbEntity
  8
Make2D$可见线$普通线
100
AcDbVertex
100
AcDb2dVertex
 10
335.0344754142064
 20
699.5081660049611
 30
0.0
  0
VERTEX
  5
1DC
330
1CE
100
AcDbEntity
  8
Make2D$可见线$普通线
100
AcDbVertex
100
AcDb2dVertex
 10
334.9652086880534
 20
699.561700998684
 30
0.0
  0
VERTEX
  5
1DD
330
1CE
100
AcDbEntity
  8
Make2D$可见线$普通线
100
AcDbVertex
100
AcDb2dVertex
 10
334.8945166710196
 20
699.6133990927573
 30
0.0
  0
VERTEX
  5
1DE
330
1CE
100
AcDbEntity
  8
Make2D$可见线$普通线
100
AcDbVertex
100
AcDb2dVertex
 10
334.8224201197758
 20
699.6632922081124
 30
0.0
  0
VERTEX
  5
1DF
330
1CE
100
AcDbEntity
  8
Make2D$可见线$普通线
100
AcDbVertex
100
AcDb2dVertex
 10
334.7489397909928
 20
699.711412265681
 30
0.0
  0
VERTEX
  5
1E0
330
1CE
100
AcDbEntity
  8
Make2D$可见线$普通线
100
AcDbVertex
100
AcDb2dVertex
 10
334.6740964413416
 20
699.7577911863947
 30
0.0
  0
VERTEX
  5
1E1
330
1CE
100
AcDbEntity
  8
Make2D$可见线$普通线
100
AcDbVertex
100
AcDb2dVertex
 10
334.5979108274931
 20
699.8024608911851
 30
0.0
  0
VERTEX
  5
1E2
330
1CE
100
AcDbEntity
  8
Make2D$可见线$普通线
100
AcDbVertex
100
AcDb2dVertex
 10
334.520403706118
 20
699.8454533009839
 30
0.0
  0
VERTEX
  5
1E3
330
1CE
100
AcDbEntity
  8
Make2D$可见线$普通线
100
AcDbVertex
100
AcDb2dVertex
 10
334.4415958338873
 20
699.8868003367226
 30
0.0
  0
VERTEX
  5
1E4
330
1CE
100
AcDbEntity
  8
Make2D$可见线$普通线
100
AcDbVertex
100
AcDb2dVertex
 10
334.3615079674718
 20
699.9265339193328
 30
0.0
  0
VERTEX
  5
1E5
330
1CE
100
AcDbEntity
  8
Make2D$可见线$普通线
100
AcDbVertex
100
AcDb2dVertex
 10
334.2801608635423
 20
699.9646859697461
 30
0.0
  0
VERTEX
  5
1E6
330
1CE
100
AcDbEntity
  8
Make2D$可见线$普通线
100
AcDbVertex
100
AcDb2dVertex
 10
334.1975752787697
 20
700.0012884088943
 30
0.0
  0
VERTEX
  5
1E7
330
1CE
100
AcDbEntity
  8
Make2D$可见线$普通线
100
AcDbVertex
100
AcDb2dVertex
 10
334.1137719698249
 20
700.0363731577088
 30
0.0
  0
VERTEX
  5
1E8
330
1CE
100
AcDbEntity
  8
Make2D$可见线$普通线
100
AcDbVertex
100
AcDb2dVertex
 10
334.0287716933789
 20
700.0699721371211
 30
0.0
  0
VERTEX
  5
1E9
330
1CE
100
AcDbEntity
  8
Make2D$可见线$普通线
100
AcDbVertex
100
AcDb2dVertex
 10
333.9425952061023
 20
700.1021172680632
 30
0.0
  0
VERTEX
  5
1EA
330
1CE
100
AcDbEntity
  8
Make2D$可见线$普通线
100
AcDbVertex
100
AcDb2dVertex
 10
333.8552632646661
 20
700.1328404714664
 30
0.0
  0
VERTEX
  5
1EB
330
1CE
100
AcDbEntity
  8
Make2D$可见线$普通线
100
AcDbVertex
100
AcDb2dVertex
 10
333.7667966257412
 20
700.1621736682623
 30
0.0
  0
VERTEX
  5
1EC
330
1CE
100
AcDbEntity
  8
Make2D$可见线$普通线
100
AcDbVertex
100
AcDb2dVertex
 10
333.5865422821086
 20
700.2167977257589
 30
0.0
  0
VERTEX
  5
1ED
330
1CE
100
AcDbEntity
  8
Make2D$可见线$普通线
100
AcDbVertex
100
AcDb2dVertex
 10
333.4019982285715
 20
700.2662448080061
 30
0.0
  0
VERTEX
  5
1EE
330
1CE
100
AcDbEntity
  8
Make2D$可见线$普通线
100
AcDbVertex
100
AcDb2dVertex
 10
333.1651986808935
 20
700.3191072953017
 30
0.0
  0
VERTEX
  5
1EF
330
1CE
100
AcDbEntity
  8
Make2D$可见线$普通线
100
AcDbVertex
100
AcDb2dVertex
 10
332.9268024887115
 20
700.3656268586215
 30
0.0
  0
VERTEX
  5
1F0
330
1CE
100
AcDbEntity
  8
Make2D$可见线$普通线
100
AcDbVertex
100
AcDb2dVertex
 10
332.6870653174832
 20
700.4057354634081
 30
0.0
  0
VERTEX
  5
1F1
330
1CE
100
AcDbEntity
  8
Make2D$可见线$普通线
100
AcDbVertex
100
AcDb2dVertex
 10
332.4462465021616
 20
700.4393788646163
 30
0.0
  0
VERTEX
  5
1F2
330
1CE
100
AcDbEntity
  8
Make2D$可见线$普通线
100
AcDbVertex
100
AcDb2dVertex
 10
332.2046081143447
 20
700.4665168415297
 30
0.0
  0
VERTEX
  5
1F3
330
1CE
100
AcDbEntity
  8
Make2D$可见线$普通线
100
AcDbVertex
100
AcDb2dVertex
 10
331.9624140124738
 20
700.4871233566507
 30
0.0
  0
VERTEX
  5
1F4
330
1CE
100
AcDbEntity
  8
Make2D$可见线$普通线
100
AcDbVertex
100
AcDb2dVertex
 10
331.7199288823026
 20
700.5011866373542
 30
0.0
  0
VERTEX
  5
1F5
330
1CE
100
AcDbEntity
  8
Make2D$可见线$普通线
100
AcDbVertex
100
AcDb2dVertex
 10
331.4774172749536
 20
700.5087091797818
 30
0.0
  0
VERTEX
  5
1F6
330
1CE
100
AcDbEntity
  8
Make2D$可见线$普通线
100
AcDbVertex
100
AcDb2dVertex
 10
330.9326756601143
 20
700.512651202969
 30
0.0
  0
VERTEX
  5
1F7
330
1CE
100
AcDbEntity
  8
Make2D$可见线$普通线
100
AcDbVertex
100
AcDb2dVertex
 10
330.6601645438843
 20
700.5064715549705
 30
0.0
  0
VERTEX
  5
1F8
330
1CE
100
AcDbEntity
  8
Make2D$可见线$普通线
100
AcDbVertex
100
AcDb2dVertex
 10
330.387776732248
 20
700.4948544010724
 30
0.0
  0
VERTEX
  5
1F9
330
1CE
100
AcDbEntity
  8
Make2D$可见线$普通线
100
AcDbVertex
100
AcDb2dVertex
 10
330.1156749167673
 20
700.4778050549011
 30
0.0
  0
VERTEX
  5
1FA
330
1CE
100
AcDbEntity
  8
Make2D$可见线$普通线
100
AcDbVertex
100
AcDb2dVertex
 10
329.8440214475445
 20
700.4553353157488
 30
0.0
  0
VERTEX
  5
1FB
330
1CE
100
AcDbEntity
  8
Make2D$可见线$普通线
100
AcDbVertex
100
AcDb2dVertex
 10
329.5729780104945
 20
700.4274634418815
 30
0.0
  0
VERTEX
  5
1FC
330
1CE
100
AcDbEntity
  8
Make2D$可见线$普通线
100
AcDbVertex
100
AcDb2dVertex
 10
329.3027053069811
 20
700.394214104621
 30
0.0
  0
VERTEX
  5
1FD
330
1CE
100
AcDbEntity
  8
Make2D$可见线$普通线
100
AcDbVertex
100
AcDb2dVertex
 10
329.0155256912032
 20
700.3533972036798
 30
0.0
  0
VERTEX
  5
1FE
330
1CE
100
AcDbEntity
  8
Make2D$可见线$普通线
100
AcDbVertex
100
AcDb2dVertex
 10
328.7268326753797
 20
700.3060136221412
 30
0.0
  0
VERTEX
  5
1FF
330
1CE
100
AcDbEntity
  8
Make2D$可见线$普通线
100
AcDbVertex
100
AcDb2dVertex
 10
328.4373286439961
 20
700.2516312122323
 30
0.0
  0
VERTEX
  5
200
330
1CE
100
AcDbEntity
  8
Make2D$可见线$普通线
100
AcDbVertex
100
AcDb2dVertex
 10
328.1477159815378
 20
700.1898178261802
 30
0.0
  0
VERTEX
  5
201
330
1CE
100
AcDbEntity
  8
Make2D$可见线$普通线
100
AcDbVertex
100
AcDb2dVertex
 10
327.8586970724903
 20
700.1201413162117
 30
0.0
  0
VERTEX
  5
202
330
1CE
100
AcDbEntity
  8
Make2D$可见线$普通线
100
AcDbVertex
100
AcDb2dVertex
 10
327.5709743013389
 20
700.0421695345538
 30
0.0
  0
VERTEX
  5
203
330
1CE
100
AcDbEntity
  8
Make2D$可见线$普通线
100
AcDbVertex
100
AcDb2dVertex
 10
327.2852500525692
 20
699.9554703334335
 30
0.0
  0
VERTEX
  5
204
330
1CE
100
AcDbEntity
  8
Make2D$可见线$普通线
100
AcDbVertex
100
AcDb2dVertex
 10
327.0022267106666
 20
699.8596115650777
 30
0.0
  0
VERTEX
  5
205
330
1CE
100
AcDbEntity
  8
Make2D$可见线$普通线
100
AcDbVertex
100
AcDb2dVertex
 10
326.8619473749421
 20
699.8081122970075
 30
0.0
  0
VERTEX
  5
206
330
1CE
100
AcDbEntity
  8
Make2D$可见线$普通线
100
AcDbVertex
100
AcDb2dVertex
 10
326.7226066601165
 20
699.7541610817134
 30
0.0
  0
VERTEX
  5
207
330
1CE
100
AcDbEntity
  8
Make2D$可见线$普通线
100
AcDbVertex
100
AcDb2dVertex
 10
326.5842923642502
 20
699.6977039007238
 30
0.0
  0
VERTEX
  5
208
330
1CE
100
AcDbEntity
  8
Make2D$可见线$普通线
100
AcDbVertex
100
AcDb2dVertex
 10
326.4470922854042
 20
699.6386867355673
 30
0.0
  0
VERTEX
  5
209
330
1CE
100
AcDbEntity
  8
Make2D$可见线$普通线
100
AcDbVertex
100
AcDb2dVertex
 10
326.311094221639
 20
699.577055567772
 30
0.0
  0
VERTEX
  5
20A
330
1CE
100
AcDbEntity
  8
Make2D$可见线$普通线
100
AcDbVertex
100
AcDb2dVertex
 10
326.1763859710154
 20
699.5127563788665
 30
0.0
  0
VERTEX
  5
20B
330
1CE
100
AcDbEntity
  8
Make2D$可见线$普通线
100
AcDbVertex
100
AcDb2dVertex
 10
326.0430553315939
 20
699.445735150379
 30
0.0
  0
VERTEX
  5
20C
330
1CE
100
AcDbEntity
  8
Make2D$可见线$普通线
100
AcDbVertex
100
AcDb2dVertex
 10
325.9111901014354
 20
699.375937863838
 30
0.0
  0
VERTEX
  5
20D
330
1CE
100
AcDbEntity
  8
Make2D$可见线$普通线
100
AcDbVertex
100
AcDb2dVertex
 10
325.7808780786004
 20
699.3033105007719
 30
0.0
  0
VERTEX
  5
20E
330
1CE
100
AcDbEntity
  8
Make2D$可见线$普通线
100
AcDbVertex
100
AcDb2dVertex
 10
325.6522070611496
 20
699.2277990427087
 30
0.0
  0
VERTEX
  5
20F
330
1CE
100
AcDbEntity
  8
Make2D$可见线$普通线
100
AcDbVertex
100
AcDb2dVertex
 10
325.5252648471437
 20
699.1493494711772
 30
0.0
  0
VERTEX
  5
210
330
1CE
100
AcDbEntity
  8
Make2D$可见线$普通线
100
AcDbVertex
100
AcDb2dVertex
 10
325.4001392346435
 20
699.0679077677056
 30
0.0
  0
VERTEX
  5
211
330
1CE
100
AcDbEntity
  8
Make2D$可见线$普通线
100
AcDbVertex
100
AcDb2dVertex
 10
325.2769180217096
 20
698.9834199138222
 30
0.0
  0
VERTEX
  5
212
330
1CE
100
AcDbEntity
  8
Make2D$可见线$普通线
100
AcDbVertex
100
AcDb2dVertex
 10
325.1556890064026
 20
698.8958318910556
 30
0.0
  0
VERTEX
  5
213
330
1CE
100
AcDbEntity
  8
Make2D$可见线$普通线
100
AcDbVertex
100
AcDb2dVertex
 10
325.0365399867833
 20
698.8050896809339
 30
0.0
  0
VERTEX
  5
214
330
1CE
100
AcDbEntity
  8
Make2D$可见线$普通线
100
AcDbVertex
100
AcDb2dVertex
 10
324.9195587609123
 20
698.7111392649856
 30
0.0
 42
-0.0108583426897615
  0
VERTEX
  5
215
330
1CE
100
AcDbEntity
  8
Make2D$可见线$普通线
100
AcDbVertex
100
AcDb2dVertex
 10
324.919558589668
 20
692.8605549610825
 30
0.0
  0
VERTEX
  5
216
330
1CE
100
AcDbEntity
  8
Make2D$可见线$普通线
100
AcDbVertex
100
AcDb2dVertex
 10
325.0360966816509
 20
692.7680654024558
 30
0.0
  0
VERTEX
  5
217
330
1CE
100
AcDbEntity
  8
Make2D$可见线$普通线
100
AcDbVertex
100
AcDb2dVertex
 10
325.1548708106384
 20
692.6780351195873
 30
0.0
  0
VERTEX
  5
218
330
1CE
100
AcDbEntity
  8
Make2D$可见线$普通线
100
AcDbVertex
100
AcDb2dVertex
 10
325.2758028345763
 20
692.5905435868102
 30
0.0
  0
VERTEX
  5
219
330
1CE
100
AcDbEntity
  8
Make2D$可见线$普通线
100
AcDbVertex
100
AcDb2dVertex
 10
325.3988109030385
 20
692.5056669447725
 30
0.0
  0
VERTEX
  5
21A
330
1CE
100
AcDbEntity
  8
Make2D$可见线$普通线
100
AcDbVertex
100
AcDb2dVertex
 10
325.5238096366442
 20
692.4234777868244
 30
0.0
  0
VERTEX
  5
21B
330
1CE
100
AcDbEntity
  8
Make2D$可见线$普通线
100
AcDbVertex
100
AcDb2dVertex
 10
325.650710321088
 20
692.3440449571324
 30
0.0
  0
VERTEX
  5
21C
330
1CE
100
AcDbEntity
  8
Make2D$可见线$普通线
100
AcDbVertex
100
AcDb2dVertex
 10
325.7794211148738
 20
692.2674333616771
 30
0.0
  0
VERTEX
  5
21D
330
1CE
100
AcDbEntity
  8
Make2D$可见线$普通线
100
AcDbVertex
100
AcDb2dVertex
 10
325.9098472697468
 20
692.1937037932032
 30
0.0
  0
VERTEX
  5
21E
330
1CE
100
AcDbEntity
  8
Make2D$可见线$普通线
100
AcDbVertex
100
AcDb2dVertex
 10
326.0418913627166
 20
692.1229127711106
 30
0.0
  0
VERTEX
  5
21F
330
1CE
100
AcDbEntity
  8
Make2D$可见线$普通线
100
AcDbVertex
100
AcDb2dVertex
 10
326.1754535384807
 20
692.0551123971634
 30
0.0
  0
VERTEX
  5
220
330
1CE
100
AcDbEntity
  8
Make2D$可见线$普通线
100
AcDbVertex
100
AcDb2dVertex
 10
326.3104317609858
 20
691.990350227794
 30
0.0
  0
VERTEX
  5
221
330
1CE
100
AcDbEntity
  8
Make2D$可见线$普通线
100
AcDbVertex
100
AcDb2dVertex
 10
326.4467220727929
 20
691.9286691636534
 30
0.0
  0
VERTEX
  5
222
330
1CE
100
AcDbEntity
  8
Make2D$可见线$普通线
100
AcDbVertex
100
AcDb2dVertex
 10
326.5842188608691
 20
691.8701073569472
 30
0.0
  0
VERTEX
  5
223
330
1CE
100
AcDbEntity
  8
Make2D$可见线$普通线
100
AcDbVertex
100
AcDb2dVertex
 10
326.7228151273818
 20
691.8146981369614
 30
0.0
  0
VERTEX
  5
224
330
1CE
100
AcDbEntity
  8
Make2D$可见线$普通线
100
AcDbVertex
100
AcDb2dVertex
 10
326.8624027640484
 20
691.7624699540594
 30
0.0
  0
VERTEX
  5
225
330
1CE
100
AcDbEntity
  8
Make2D$可见线$普通线
100
AcDbVertex
100
AcDb2dVertex
 10
327.002872828583
 20
691.7134463422951
 30
0.0
  0
VERTEX
  5
226
330
1CE
100
AcDbEntity
  8
Make2D$可见线$普通线
100
AcDbVertex
100
AcDb2dVertex
 10
327.2828719339999
 20
691.6203113220121
 30
0.0
  0
VERTEX
  5
227
330
1CE
100
AcDbEntity
  8
Make2D$可见线$普通线
100
AcDbVertex
100
AcDb2dVertex
 10
327.5655063271273
 20
691.5344554856454
 30
0.0
  0
VERTEX
  5
228
330
1CE
100
AcDbEntity
  8
Make2D$可见线$普通线
100
AcDbVertex
100
AcDb2dVertex
 10
327.8504908641291
 20
691.4559863162963
 30
0.0
  0
VERTEX
  5
229
330
1CE
100
AcDbEntity
  8
Make2D$可见线$普通线
100
AcDbVertex
100
AcDb2dVertex
 10
328.1375347595584
 20
691.3849963303365
 30
0.0
  0
VERTEX
  5
22A
330
1CE
100
AcDbEntity
  8
Make2D$可见线$普通线
100
AcDbVertex
100
AcDb2dVertex
 10
328.4263425730192
 20
691.3215627202095
 30
0.0
  0
VERTEX
  5
22B
330
1CE
100
AcDbEntity
  8
Make2D$可见线$普通线
100
AcDbVertex
100
AcDb2dVertex
 10
328.7166152218935
 20
691.2657470755928
 30
0.0
  0
VERTEX
  5
22C
330
1CE
100
AcDbEntity
  8
Make2D$可见线$普通线
100
AcDbVertex
100
AcDb2dVertex
 10
329.0080510128543
 20
691.2175951850395
 30
0.0
  0
VERTEX
  5
22D
330
1CE
100
AcDbEntity
  8
Make2D$可见线$普通线
100
AcDbVertex
100
AcDb2dVertex
 10
329.3003466847014
 20
691.177136919423
 30
0.0
 42
0.0400153127358959
  0
VERTEX
  5
22E
330
1CE
100
AcDbEntity
  8
Make2D$可见线$普通线
100
AcDbVertex
100
AcDb2dVertex
 10
331.4785168829398
 20
691.0631411611887
 30
0.0
  0
VERTEX
  5
22F
330
1CE
100
AcDbEntity
  8
Make2D$可见线$普通线
100
AcDbVertex
100
AcDb2dVertex
 10
331.7208388318253
 20
691.070640708312
 30
0.0
  0
VERTEX
  5
230
330
1CE
100
AcDbEntity
  8
Make2D$可见线$普通线
100
AcDbVertex
100
AcDb2dVertex
 10
331.9631348738474
 20
691.0846797115868
 30
0.0
  0
VERTEX
  5
231
330
1CE
100
AcDbEntity
  8
Make2D$可见线$普通线
100
AcDbVertex
100
AcDb2dVertex
 10
332.2051403543698
 20
691.1052606931046
 30
0.0
  0
VERTEX
  5
232
330
1CE
100
AcDbEntity
  8
Make2D$可见线$普通线
100
AcDbVertex
100
AcDb2dVertex
 10
332.4465904826455
 20
691.1323718922034
 30
0.0
  0
VERTEX
  5
233
330
1CE
100
AcDbEntity
  8
Make2D$可见线$普通线
100
AcDbVertex
100
AcDb2dVertex
 10
332.6872212952707
 20
691.1659872692837
 30
0.0
  0
VERTEX
  5
234
330
1CE
100
AcDbEntity
  8
Make2D$可见线$普通线
100
AcDbVertex
100
AcDb2dVertex
 10
332.9267706172279
 20
691.2060665875539
 30
0.0
  0
VERTEX
  5
235
330
1CE
100
AcDbEntity
  8
Make2D$可见线$普通线
100
AcDbVertex
100
AcDb2dVertex
 10
333.164979013178
 20
691.2525555721774
 30
0.0
  0
VERTEX
  5
236
330
1CE
100
AcDbEntity
  8
Make2D$可见线$普通线
100
AcDbVertex
100
AcDb2dVertex
 10
333.4015907217638
 20
691.3053861455124
 30
0.0
  0
VERTEX
  5
237
330
1CE
100
AcDbEntity
  8
Make2D$可见线$普通线
100
AcDbVertex
100
AcDb2dVertex
 10
333.5859313538763
 20
691.3548028288213
 30
0.0
  0
VERTEX
  5
238
330
1CE
100
AcDbEntity
  8
Make2D$可见线$普通线
100
AcDbVertex
100
AcDb2dVertex
 10
333.7660465463668
 20
691.4094054084661
 30
0.0
  0
VERTEX
  5
239
330
1CE
100
AcDbEntity
  8
Make2D$可见线$普通线
100
AcDbVertex
100
AcDb2dVertex
 10
333.8544654937941
 20
691.4387308826422
 30
0.0
  0
VERTEX
  5
23A
330
1CE
100
AcDbEntity
  8
Make2D$可见线$普通线
100
AcDbVertex
100
AcDb2dVertex
 10
333.9417631505642
 20
691.4694481987754
 30
0.0
  0
VERTEX
  5
23B
330
1CE
100
AcDbEntity
  8
Make2D$可见线$普通线
100
AcDbVertex
100
AcDb2dVertex
 10
334.0279178730933
 20
691.5015891461568
 30
0.0
  0
VERTEX
  5
23C
330
1CE
100
AcDbEntity
  8
Make2D$可见线$普通线
100
AcDbVertex
100
AcDb2dVertex
 10
334.1129080177973
 20
691.5351855140775
 30
0.0
  0
VERTEX
  5
23D
330
1CE
100
AcDbEntity
  8
Make2D$可见线$普通线
100
AcDbVertex
100
AcDb2dVertex
 10
334.1967119410925
 20
691.5702690918285
 30
0.0
  0
VERTEX
  5
23E
330
1CE
100
AcDbEntity
  8
Make2D$可见线$普通线
100
AcDbVertex
100
AcDb2dVertex
 10
334.279307999395
 20
691.6068716687014
 30
0.0
  0
VERTEX
  5
23F
330
1CE
100
AcDbEntity
  8
Make2D$可见线$普通线
100
AcDbVertex
100
AcDb2dVertex
 10
334.3606745491206
 20
691.6450250339863
 30
0.0
  0
VERTEX
  5
240
330
1CE
100
AcDbEntity
  8
Make2D$可见线$普通线
100
AcDbVertex
100
AcDb2dVertex
 10
334.4407899466859
 20
691.6847609769751
 30
0.0
  0
VERTEX
  5
241
330
1CE
100
AcDbEntity
  8
Make2D$可见线$普通线
100
AcDbVertex
100
AcDb2dVertex
 10
334.5196325485068
 20
691.7261112869587
 30
0.0
  0
VERTEX
  5
242
330
1CE
100
AcDbEntity
  8
Make2D$可见线$普通线
100
AcDbVertex
100
AcDb2dVertex
 10
334.5971807109992
 20
691.769107753228
 30
0.0
  0
VERTEX
  5
243
330
1CE
100
AcDbEntity
  8
Make2D$可见线$普通线
100
AcDbVertex
100
AcDb2dVertex
 10
334.6734127905794
 20
691.8137821650743
 30
0.0
  0
VERTEX
  5
244
330
1CE
100
AcDbEntity
  8
Make2D$可见线$普通线
100
AcDbVertex
100
AcDb2dVertex
 10
334.7483071436636
 20
691.8601663117885
 30
0.0
  0
VERTEX
  5
245
330
1CE
100
AcDbEntity
  8
Make2D$可见线$普通线
100
AcDbVertex
100
AcDb2dVertex
 10
334.8218421266677
 20
691.9082919826616
 30
0.0
  0
VERTEX
  5
246
330
1CE
100
AcDbEntity
  8
Make2D$可见线$普通线
100
AcDbVertex
100
AcDb2dVertex
 10
334.8939960960079
 20
691.958190966985
 30
0.0
  0
VERTEX
  5
247
330
1CE
100
AcDbEntity
  8
Make2D$可见线$普通线
100
AcDbVertex
100
AcDb2dVertex
 10
334.9647474081003
 20
692.0098950540493
 30
0.0
  0
VERTEX
  5
248
330
1CE
100
AcDbEntity
  8
Make2D$可见线$普通线
100
AcDbVertex
100
AcDb2dVertex
 10
335.034074419361
 20
692.0634360331459
 30
0.0
  0
VERTEX
  5
249
330
1CE
100
AcDbEntity
  8
Make2D$可见线$普通线
100
AcDbVertex
100
AcDb2dVertex
 10
335.1019554862061
 20
692.1188456935658
 30
0.0
  0
VERTEX
  5
24A
330
1CE
100
AcDbEntity
  8
Make2D$可见线$普通线
100
AcDbVertex
100
AcDb2dVertex
 10
335.1683689650518
 20
692.1761558246002
 30
0.0
  0
VERTEX
  5
24B
330
1CE
100
AcDbEntity
  8
Make2D$可见线$普通线
100
AcDbVertex
100
AcDb2dVertex
 10
335.233293212314
 20
692.2353982155399
 30
0.0
  0
VERTEX
  5
24C
330
1CE
100
AcDbEntity
  8
Make2D$可见线$普通线
100
AcDbVertex
100
AcDb2dVertex
 10
335.296706584409
 20
692.2966046556764
 30
0.0
  0
VERTEX
  5
24D
330
1CE
100
AcDbEntity
  8
Make2D$可见线$普通线
100
AcDbVertex
100
AcDb2dVertex
 10
335.3585874377528
 20
692.3598069343005
 30
0.0
  0
VERTEX
  5
24E
330
1CE
100
AcDbEntity
  8
Make2D$可见线$普通线
100
AcDbVertex
100
AcDb2dVertex
 10
335.4189141287615
 20
692.4250368407032
 30
0.0
  0
VERTEX
  5
24F
330
1CE
100
AcDbEntity
  8
Make2D$可见线$普通线
100
AcDbVertex
100
AcDb2dVertex
 10
335.4776650138512
 20
692.4923261641756
 30
0.0
  0
VERTEX
  5
250
330
1CE
100
AcDbEntity
  8
Make2D$可见线$普通线
100
AcDbVertex
100
AcDb2dVertex
 10
335.5348184494381
 20
692.5617066940089
 30
0.0
  0
VERTEX
  5
251
330
1CE
100
AcDbEntity
  8
Make2D$可见线$普通线
100
AcDbVertex
100
AcDb2dVertex
 10
335.5903527919384
 20
692.6332102194941
 30
0.0
  0
VERTEX
  5
252
330
1CE
100
AcDbEntity
  8
Make2D$可见线$普通线
100
AcDbVertex
100
AcDb2dVertex
 10
335.6442463977679
 20
692.7068685299223
 30
0.0
  0
VERTEX
  5
253
330
1CE
100
AcDbEntity
  8
Make2D$可见线$普通线
100
AcDbVertex
100
AcDb2dVertex
 10
335.6964776233428
 20
692.7827134145847
 30
0.0
  0
VERTEX
  5
254
330
1CE
100
AcDbEntity
  8
Make2D$可见线$普通线
100
AcDbVertex
100
AcDb2dVertex
 10
335.7470248250794
 20
692.8607766627723
 30
0.0
 42
-0.2713544349302888
  0
VERTEX
  5
255
330
1CE
100
AcDbEntity
  8
Make2D$可见线$普通线
100
AcDbVertex
100
AcDb2dVertex
 10
335.7469480111428
 20
698.7108486885047
 30
0.0
  0
SEQEND
  5
256
330
1CE
100
AcDbEntity
  8
Make2D$可见线$普通线
  0
POLYLINE
  5
257
330
1F
100
AcDbEntity
  8
Make2D$可见线$普通线
100
AcDb2dPolyline
 66
     1
 10
0.0
 20
0.0
 30
0.0
  0
VERTEX
  5
258
330
257
100
AcDbEntity
  8
Make2D$可见线$普通线
100
AcDbVertex
100
AcDb2dVertex
 10
311.7023121666631
 20
690.2446759154049
 30
0.0
 42
0.3928899553561011
  0
VERTEX
  5
259
330
257
100
AcDbEntity
  8
Make2D$可见线$普通线
100
AcDbVertex
100
AcDb2dVertex
 10
312.1658015472952
 20
689.7460214535778
 30
0.0
  0
VERTEX
  5
25A
330
257
100
AcDbEntity
  8
Make2D$可见线$普通线
100
AcDbVertex
100
AcDb2dVertex
 10
324.7025947842661
 20
689.7460214535906
 30
0.0
  0
VERTEX
  5
25B
330
257
100
AcDbEntity
  8
Make2D$可见线$普通线
100
AcDbVertex
100
AcDb2dVertex
 10
324.702594856341
 20
689.6400153388358
 30
0.0
  0
VERTEX
  5
25C
330
257
100
AcDbEntity
  8
Make2D$可见线$普通线
100
AcDbVertex
100
AcDb2dVertex
 10
313.7025947021517
 20
689.6400153388352
 30
0.0
  0
VERTEX
  5
25D
330
257
100
AcDbEntity
  8
Make2D$可见线$普通线
100
AcDbVertex
100
AcDb2dVertex
 10
312.29684359868
 20
689.7364488686468
 30
0.0
  0
SEQEND
  5
25E
330
257
100
AcDbEntity
  8
Make2D$可见线$普通线
  0
POLYLINE
  5
25F
330
1F
100
AcDbEntity
  8
Make2D$可见线$普通线
100
AcDb2dPolyline
 66
     1
 10
0.0
 20
0.0
 30
0.0
  0
VERTEX
  5
260
330
25F
100
AcDbEntity
  8
Make2D$可见线$普通线
100
AcDbVertex
100
AcDb2dVertex
 10
321.606050445753
 20
722.7858474004489
 30
0.0
  0
VERTEX
  5
261
330
25F
100
AcDbEntity
  8
Make2D$可见线$普通线
100
AcDbVertex
100
AcDb2dVertex
 10
320.1329816604921
 20
722.7858474004489
 30
0.0
  0
VERTEX
  5
262
330
25F
100
AcDbEntity
  8
Make2D$可见线$普通线
100
AcDbVertex
100
AcDb2dVertex
 10
320.0630786620491
 20
722.7867015781143
 30
0.0
  0
VERTEX
  5
263
330
25F
100
AcDbEntity
  8
Make2D$可见线$普通线
100
AcDbVertex
100
AcDb2dVertex
 10
319.9932918258372
 20
722.789424613825
 30
0.0
  0
VERTEX
  5
264
330
25F
100
AcDbEntity
  8
Make2D$可见线$普通线
100
AcDbVertex
100
AcDb2dVertex
 10
319.923616356826
 20
722.7938843323927
 30
0.0
  0
VERTEX
  5
265
330
25F
100
AcDbEntity
  8
Make2D$可见线$普通线
100
AcDbVertex
100
AcDb2dVertex
 10
319.8540474599851
 20
722.7999485586297
 30
0.0
  0
VERTEX
  5
266
330
25F
100
AcDbEntity
  8
Make2D$可见线$普通线
100
AcDbVertex
100
AcDb2dVertex
 10
319.7785729491022
 20
722.8082233383432
 30
0.0
  0
VERTEX
  5
267
330
25F
100
AcDbEntity
  8
Make2D$可见线$普通线
100
AcDbVertex
100
AcDb2dVertex
 10
319.7032711363083
 20
722.8181865153284
 30
0.0
  0
VERTEX
  5
268
330
25F
100
AcDbEntity
  8
Make2D$可见线$普通线
100
AcDbVertex
100
AcDb2dVertex
 10
319.6281945325144
 20
722.8297878303572
 30
0.0
  0
VERTEX
  5
269
330
25F
100
AcDbEntity
  8
Make2D$可见线$普通线
100
AcDbVertex
100
AcDb2dVertex
 10
319.5533956486314
 20
722.8429770242006
 30
0.0
  0
VERTEX
  5
26A
330
25F
100
AcDbEntity
  8
Make2D$可见线$普通线
100
AcDbVertex
100
AcDb2dVertex
 10
319.4726638917701
 20
722.8590067691597
 30
0.0
  0
VERTEX
  5
26B
330
25F
100
AcDbEntity
  8
Make2D$可见线$普通线
100
AcDbVertex
100
AcDb2dVertex
 10
319.3923170187604
 20
722.8767485559138
 30
0.0
  0
VERTEX
  5
26C
330
25F
100
AcDbEntity
  8
Make2D$可见线$普通线
100
AcDbVertex
100
AcDb2dVertex
 10
319.3123517509661
 20
722.896107065455
 30
0.0
  0
VERTEX
  5
26D
330
25F
100
AcDbEntity
  8
Make2D$可见线$普通线
100
AcDbVertex
100
AcDb2dVertex
 10
319.2327648097511
 20
722.9169869787758
 30
0.0
  0
VERTEX
  5
26E
330
25F
100
AcDbEntity
  8
Make2D$可见线$普通线
100
AcDbVertex
100
AcDb2dVertex
 10
319.0747127925151
 20
722.9629297407247
 30
0.0
  0
VERTEX
  5
26F
330
25F
100
AcDbEntity
  8
Make2D$可见线$普通线
100
AcDbVertex
100
AcDb2dVertex
 10
318.9181347379644
 20
723.0138142896982
 30
0.0
  0
VERTEX
  5
270
330
25F
100
AcDbEntity
  8
Make2D$可见线$普通线
100
AcDbVertex
100
AcDb2dVertex
 10
318.7631830548899
 20
723.0688961297296
 30
0.0
  0
VERTEX
  5
271
330
25F
100
AcDbEntity
  8
Make2D$可见线$普通线
100
AcDbVertex
100
AcDb2dVertex
 10
318.6096754962238
 20
723.1278815653418
 30
0.0
  0
VERTEX
  5
272
330
25F
100
AcDbEntity
  8
Make2D$可见线$普通线
100
AcDbVertex
100
AcDb2dVertex
 10
318.4576117199615
 20
723.1905043886735
 30
0.0
  0
VERTEX
  5
273
330
25F
100
AcDbEntity
  8
Make2D$可见线$普通线
100
AcDbVertex
100
AcDb2dVertex
 10
318.3069913840983
 20
723.2564983918633
 30
0.0
  0
VERTEX
  5
274
330
25F
100
AcDbEntity
  8
Make2D$可见线$普通线
100
AcDbVertex
100
AcDb2dVertex
 10
318.080408609542
 20
723.3626162489584
 30
0.0
  0
VERTEX
  5
275
330
25F
100
AcDbEntity
  8
Make2D$可见线$普通线
100
AcDbVertex
100
AcDb2dVertex
 10
317.3619444390971
 20
723.7297427760918
 30
0.0
  0
VERTEX
  5
276
330
25F
100
AcDbEntity
  8
Make2D$可见线$普通线
100
AcDbVertex
100
AcDb2dVertex
 10
317.3366056604337
 20
723.7419183877962
 30
0.0
  0
VERTEX
  5
277
330
25F
100
AcDbEntity
  8
Make2D$可见线$普通线
100
AcDbVertex
100
AcDb2dVertex
 10
317.3238135491845
 20
723.7477277797775
 30
0.0
  0
VERTEX
  5
278
330
25F
100
AcDbEntity
  8
Make2D$可见线$普通线
100
AcDbVertex
100
AcDb2dVertex
 10
317.3109204666396
 20
723.7533085070224
 30
0.0
  0
VERTEX
  5
279
330
25F
100
AcDbEntity
  8
Make2D$可见线$普通线
100
AcDbVertex
100
AcDb2dVertex
 10
317.2979120452862
 20
723.7586282779141
 30
0.0
  0
VERTEX
  5
27A
330
25F
100
AcDbEntity
  8
Make2D$可见线$普通线
100
AcDbVertex
100
AcDb2dVertex
 10
317.2847739176117
 20
723.7636548008358
 30
0.0
  0
VERTEX
  5
27B
330
25F
100
AcDbEntity
  8
Make2D$可见线$普通线
100
AcDbVertex
100
AcDb2dVertex
 10
317.2714917161029
 20
723.7683557841704
 30
0.0
  0
VERTEX
  5
27C
330
25F
100
AcDbEntity
  8
Make2D$可见线$普通线
100
AcDbVertex
100
AcDb2dVertex
 10
317.2580510732471
 20
723.7726989363011
 30
0.0
  0
VERTEX
  5
27D
330
25F
100
AcDbEntity
  8
Make2D$可见线$普通线
100
AcDbVertex
100
AcDb2dVertex
 10
317.2444376215314
 20
723.7766519656113
 30
0.0
  0
VERTEX
  5
27E
330
25F
100
AcDbEntity
  8
Make2D$可见线$普通线
100
AcDbVertex
100
AcDb2dVertex
 10
317.2306369934429
 20
723.7801825804838
 30
0.0
  0
VERTEX
  5
27F
330
25F
100
AcDbEntity
  8
Make2D$可见线$普通线
100
AcDbVertex
100
AcDb2dVertex
 10
317.2236619984111
 20
723.7817793913757
 30
0.0
  0
VERTEX
  5
280
330
25F
100
AcDbEntity
  8
Make2D$可见线$普通线
100
AcDbVertex
100
AcDb2dVertex
 10
317.2166348214689
 20
723.7832584893019
 30
0.0
  0
VERTEX
  5
281
330
25F
100
AcDbEntity
  8
Make2D$可见线$普通线
100
AcDbVertex
100
AcDb2dVertex
 10
317.2095536666769
 20
723.7846158378104
 30
0.0
  0
VERTEX
  5
282
330
25F
100
AcDbEntity
  8
Make2D$可见线$普通线
100
AcDbVertex
100
AcDb2dVertex
 10
317.2024167380963
 20
723.7858474004489
 30
0.0
  0
VERTEX
  5
283
330
25F
100
AcDbEntity
  8
Make2D$可见线$普通线
100
AcDbVertex
100
AcDb2dVertex
 10
317.2024412776286
 20
736.2858474004488
 30
0.0
  0
VERTEX
  5
284
330
25F
100
AcDbEntity
  8
Make2D$可见线$普通线
100
AcDbVertex
100
AcDb2dVertex
 10
317.2036556612416
 20
736.3757018383459
 30
0.0
  0
VERTEX
  5
285
330
25F
100
AcDbEntity
  8
Make2D$可见线$普通线
100
AcDbVertex
100
AcDb2dVertex
 10
317.2074514626152
 20
736.4678104528599
 30
0.0
  0
VERTEX
  5
286
330
25F
100
AcDbEntity
  8
Make2D$可见线$普通线
100
AcDbVertex
100
AcDb2dVertex
 10
317.2140244021011
 20
736.561005615293
 30
0.0
  0
VERTEX
  5
287
330
25F
100
AcDbEntity
  8
Make2D$可见线$普通线
100
AcDbVertex
100
AcDb2dVertex
 10
317.2235086836216
 20
736.6539421100096
 30
0.0
  0
VERTEX
  5
288
330
25F
100
AcDbEntity
  8
Make2D$可见线$普通线
100
AcDbVertex
100
AcDb2dVertex
 10
317.2293637215859
 20
736.6998550809825
 30
0.0
  0
VERTEX
  5
289
330
25F
100
AcDbEntity
  8
Make2D$可见线$普通线
100
AcDbVertex
100
AcDb2dVertex
 10
317.2359611120131
 20
736.7451419935038
 30
0.0
  0
VERTEX
  5
28A
330
25F
100
AcDbEntity
  8
Make2D$可见线$普通线
100
AcDbVertex
100
AcDb2dVertex
 10
317.2432938462973
 20
736.7896076447668
 30
0.0
  0
VERTEX
  5
28B
330
25F
100
AcDbEntity
  8
Make2D$可见线$普通线
100
AcDbVertex
100
AcDb2dVertex
 10
317.2513488415169
 20
736.8330571538331
 30
0.0
  0
VERTEX
  5
28C
330
25F
100
AcDbEntity
  8
Make2D$可见线$普通线
100
AcDbVertex
100
AcDb2dVertex
 10
317.2601068921814
 20
736.8752985699708
 30
0.0
  0
VERTEX
  5
28D
330
25F
100
AcDbEntity
  8
Make2D$可见线$普通线
100
AcDbVertex
100
AcDb2dVertex
 10
317.269542742819
 20
736.9161455268475
 30
0.0
  0
VERTEX
  5
28E
330
25F
100
AcDbEntity
  8
Make2D$可见线$普通线
100
AcDbVertex
100
AcDb2dVertex
 10
317.2796252844555
 20
736.9554198698405
 30
0.0
  0
VERTEX
  5
28F
330
25F
100
AcDbEntity
  8
Make2D$可见线$普通线
100
AcDbVertex
100
AcDb2dVertex
 10
317.2903178735276
 20
736.992954181635
 30
0.0
  0
VERTEX
  5
290
330
25F
100
AcDbEntity
  8
Make2D$可见线$普通线
100
AcDbVertex
100
AcDb2dVertex
 10
317.3015787671258
 20
737.0285941326744
 30
0.0
  0
VERTEX
  5
291
330
25F
100
AcDbEntity
  8
Make2D$可见线$普通线
100
AcDbVertex
100
AcDb2dVertex
 10
317.3133616639842
 20
737.0622005880236
 30
0.0
  0
VERTEX
  5
292
330
25F
100
AcDbEntity
  8
Make2D$可见线$普通线
100
AcDbVertex
100
AcDb2dVertex
 10
317.319433302032
 20
737.0782023807334
 30
0.0
  0
VERTEX
  5
293
330
25F
100
AcDbEntity
  8
Make2D$可见线$普通线
100
AcDbVertex
100
AcDb2dVertex
 10
317.3256163365707
 20
737.0936514105578
 30
0.0
  0
VERTEX
  5
294
330
25F
100
AcDbEntity
  8
Make2D$可见线$普通线
100
AcDbVertex
100
AcDb2dVertex
 10
317.3319039914336
 20
737.1085353043577
 30
0.0
  0
VERTEX
  5
295
330
25F
100
AcDbEntity
  8
Make2D$可见线$普通线
100
AcDbVertex
100
AcDb2dVertex
 10
317.3382893362529
 20
737.1228429116677
 30
0.0
  0
VERTEX
  5
296
330
25F
100
AcDbEntity
  8
Make2D$可见线$普通线
100
AcDbVertex
100
AcDb2dVertex
 10
317.34476531103
 20
737.1365643284227
 30
0.0
  0
VERTEX
  5
297
330
25F
100
AcDbEntity
  8
Make2D$可见线$普通线
100
AcDbVertex
100
AcDb2dVertex
 10
317.3513247510053
 20
737.1496909141963
 30
0.0
  0
VERTEX
  5
298
330
25F
100
AcDbEntity
  8
Make2D$可见线$普通线
100
AcDbVertex
100
AcDb2dVertex
 10
317.3579604116537
 20
737.16221530294
 30
0.0
  0
VERTEX
  5
299
330
25F
100
AcDbEntity
  8
Make2D$可见线$普通线
100
AcDbVertex
100
AcDb2dVertex
 10
317.3646649936283
 20
737.1741314072789
 30
0.0
  0
VERTEX
  5
29A
330
25F
100
AcDbEntity
  8
Make2D$可见线$普通线
100
AcDbVertex
100
AcDb2dVertex
 10
317.3714311674852
 20
737.1854344164722
 30
0.0
  0
VERTEX
  5
29B
330
25F
100
AcDbEntity
  8
Make2D$可见线$普通线
100
AcDbVertex
100
AcDb2dVertex
 10
317.3782515980258
 20
737.1961207882059
 30
0.0
  0
VERTEX
  5
29C
330
25F
100
AcDbEntity
  8
Make2D$可见线$普通线
100
AcDbVertex
100
AcDb2dVertex
 10
317.3851189681
 20
737.206188234431
 30
0.0
  0
VERTEX
  5
29D
330
25F
100
AcDbEntity
  8
Make2D$可见线$普通线
100
AcDbVertex
100
AcDb2dVertex
 10
317.3920260017263
 20
737.2156357015116
 30
0.0
  0
VERTEX
  5
29E
330
25F
100
AcDbEntity
  8
Make2D$可见线$普通线
100
AcDbVertex
100
AcDb2dVertex
 10
317.3954921353915
 20
737.2201269450402
 30
0.0
  0
VERTEX
  5
29F
330
25F
100
AcDbEntity
  8
Make2D$可见线$普通线
100
AcDbVertex
100
AcDb2dVertex
 10
317.3989654863938
 20
737.2244633449866
 30
0.0
  0
VERTEX
  5
2A0
330
25F
100
AcDbEntity
  8
Make2D$可见线$普通线
100
AcDbVertex
100
AcDb2dVertex
 10
317.4024451665914
 20
737.2286451047577
 30
0.0
  0
VERTEX
  5
2A1
330
25F
100
AcDbEntity
  8
Make2D$可见线$普通线
100
AcDbVertex
100
AcDb2dVertex
 10
317.4059302944234
 20
737.2326724992909
 30
0.0
  0
VERTEX
  5
2A2
330
25F
100
AcDbEntity
  8
Make2D$可见线$普通线
100
AcDbVertex
100
AcDb2dVertex
 10
317.4094199955172
 20
737.2365458738574
 30
0.0
  0
VERTEX
  5
2A3
330
25F
100
AcDbEntity
  8
Make2D$可见线$普通线
100
AcDbVertex
100
AcDb2dVertex
 10
317.4129134032794
 20
737.2402656428047
 30
0.0
  0
VERTEX
  5
2A4
330
25F
100
AcDbEntity
  8
Make2D$可见线$普通线
100
AcDbVertex
100
AcDb2dVertex
 10
317.4164096594665
 20
737.2438322882365
 30
0.0
  0
VERTEX
  5
2A5
330
25F
100
AcDbEntity
  8
Make2D$可见线$普通线
100
AcDbVertex
100
AcDb2dVertex
 10
317.4199079147349
 20
737.2472463586361
 30
0.0
  0
VERTEX
  5
2A6
330
25F
100
AcDbEntity
  8
Make2D$可见线$普通线
100
AcDbVertex
100
AcDb2dVertex
 10
317.4234073291726
 20
737.2505084674386
 30
0.0
  0
VERTEX
  5
2A7
330
25F
100
AcDbEntity
  8
Make2D$可见线$普通线
100
AcDbVertex
100
AcDb2dVertex
 10
317.4269070728085
 20
737.2536192915509
 30
0.0
  0
VERTEX
  5
2A8
330
25F
100
AcDbEntity
  8
Make2D$可见线$普通线
100
AcDbVertex
100
AcDb2dVertex
 10
317.4304063261015
 20
737.256579569825
 30
0.0
  0
VERTEX
  5
2A9
330
25F
100
AcDbEntity
  8
Make2D$可见线$普通线
100
AcDbVertex
100
AcDb2dVertex
 10
317.4339042804077
 20
737.2593901014917
 30
0.0
  0
VERTEX
  5
2AA
330
25F
100
AcDbEntity
  8
Make2D$可见线$普通线
100
AcDbVertex
100
AcDb2dVertex
 10
317.4374001384261
 20
737.26205174455
 30
0.0
  0
VERTEX
  5
2AB
330
25F
100
AcDbEntity
  8
Make2D$可见线$普通线
100
AcDbVertex
100
AcDb2dVertex
 10
317.4408931146224
 20
737.2645654141252
 30
0.0
  0
VERTEX
  5
2AC
330
25F
100
AcDbEntity
  8
Make2D$可见线$普通线
100
AcDbVertex
100
AcDb2dVertex
 10
317.4443824356304
 20
737.2669320807911
 30
0.0
  0
VERTEX
  5
2AD
330
25F
100
AcDbEntity
  8
Make2D$可见线$普通线
100
AcDbVertex
100
AcDb2dVertex
 10
317.4478673406314
 20
737.2691527688655
 30
0.0
  0
VERTEX
  5
2AE
330
25F
100
AcDbEntity
  8
Make2D$可见线$普通线
100
AcDbVertex
100
AcDb2dVertex
 10
317.4513470817117
 20
737.2712285546794
 30
0.0
  0
VERTEX
  5
2AF
330
25F
100
AcDbEntity
  8
Make2D$可见线$普通线
100
AcDbVertex
100
AcDb2dVertex
 10
317.4548209241966
 20
737.2731605648233
 30
0.0
  0
VERTEX
  5
2B0
330
25F
100
AcDbEntity
  8
Make2D$可见线$普通线
100
AcDbVertex
100
AcDb2dVertex
 10
317.4582881469635
 20
737.2749499743762
 30
0.0
  0
VERTEX
  5
2B1
330
25F
100
AcDbEntity
  8
Make2D$可见线$普通线
100
AcDbVertex
100
AcDb2dVertex
 10
317.461748042732
 20
737.2765980051171
 30
0.0
  0
VERTEX
  5
2B2
330
25F
100
AcDbEntity
  8
Make2D$可见线$普通线
100
AcDbVertex
100
AcDb2dVertex
 10
317.4651999183317
 20
737.2781059237266
 30
0.0
  0
VERTEX
  5
2B3
330
25F
100
AcDbEntity
  8
Make2D$可见线$普通线
100
AcDbVertex
100
AcDb2dVertex
 10
317.4686430949492
 20
737.2794750399777
 30
0.0
  0
VERTEX
  5
2B4
330
25F
100
AcDbEntity
  8
Make2D$可见线$普通线
100
AcDbVertex
100
AcDb2dVertex
 10
317.4720769083517
 20
737.2807067049196
 30
0.0
  0
VERTEX
  5
2B5
330
25F
100
AcDbEntity
  8
Make2D$可见线$普通线
100
AcDbVertex
100
AcDb2dVertex
 10
317.473790100312
 20
737.2812714261922
 30
0.0
  0
VERTEX
  5
2B6
330
25F
100
AcDbEntity
  8
Make2D$可见线$普通线
100
AcDbVertex
100
AcDb2dVertex
 10
317.4755007090907
 20
737.2818023090617
 30
0.0
  0
VERTEX
  5
2B7
330
25F
100
AcDbEntity
  8
Make2D$可见线$普通线
100
AcDbVertex
100
AcDb2dVertex
 10
317.4772086558465
 20
737.2822995332092
 30
0.0
  0
VERTEX
  5
2B8
330
25F
100
AcDbEntity
  8
Make2D$可见线$普通线
100
AcDbVertex
100
AcDb2dVertex
 10
317.4789138626836
 20
737.282763280554
 30
0.0
  0
VERTEX
  5
2B9
330
25F
100
AcDbEntity
  8
Make2D$可见线$普通线
100
AcDbVertex
100
AcDb2dVertex
 10
317.4806162526567
 20
737.2831937351987
 30
0.0
  0
VERTEX
  5
2BA
330
25F
100
AcDbEntity
  8
Make2D$可见线$普通线
100
AcDbVertex
100
AcDb2dVertex
 10
317.4823157497748
 20
737.2835910833716
 30
0.0
  0
VERTEX
  5
2BB
330
25F
100
AcDbEntity
  8
Make2D$可见线$普通线
100
AcDbVertex
100
AcDb2dVertex
 10
317.4840122790047
 20
737.2839555133695
 30
0.0
  0
VERTEX
  5
2BC
330
25F
100
AcDbEntity
  8
Make2D$可见线$普通线
100
AcDbVertex
100
AcDb2dVertex
 10
317.4857057662757
 20
737.2842872155042
 30
0.0
  0
VERTEX
  5
2BD
330
25F
100
AcDbEntity
  8
Make2D$可见线$普通线
100
AcDbVertex
100
AcDb2dVertex
 10
317.4873961384818
 20
737.2845863820427
 30
0.0
  0
VERTEX
  5
2BE
330
25F
100
AcDbEntity
  8
Make2D$可见线$普通线
100
AcDbVertex
100
AcDb2dVertex
 10
317.4890833234854
 20
737.2848532071546
 30
0.0
  0
VERTEX
  5
2BF
330
25F
100
AcDbEntity
  8
Make2D$可见线$普通线
100
AcDbVertex
100
AcDb2dVertex
 10
317.4907672501196
 20
737.2850878868542
 30
0.0
  0
VERTEX
  5
2C0
330
25F
100
AcDbEntity
  8
Make2D$可见线$普通线
100
AcDbVertex
100
AcDb2dVertex
 10
317.4924478481908
 20
737.2852906189461
 30
0.0
  0
VERTEX
  5
2C1
330
25F
100
AcDbEntity
  8
Make2D$可见线$普通线
100
AcDbVertex
100
AcDb2dVertex
 10
317.4941250484807
 20
737.285461602969
 30
0.0
  0
VERTEX
  5
2C2
330
25F
100
AcDbEntity
  8
Make2D$可见线$普通线
100
AcDbVertex
100
AcDb2dVertex
 10
317.495798782748
 20
737.2856010401424
 30
0.0
  0
VERTEX
  5
2C3
330
25F
100
AcDbEntity
  8
Make2D$可见线$普通线
100
AcDbVertex
100
AcDb2dVertex
 10
317.4974689837303
 20
737.2857091333101
 30
0.0
  0
VERTEX
  5
2C4
330
25F
100
AcDbEntity
  8
Make2D$可见线$普通线
100
AcDbVertex
100
AcDb2dVertex
 10
317.4991355851446
 20
737.2857860868861
 30
0.0
  0
VERTEX
  5
2C5
330
25F
100
AcDbEntity
  8
Make2D$可见线$普通线
100
AcDbVertex
100
AcDb2dVertex
 10
317.5007985216889
 20
737.2858321068012
 30
0.0
  0
VERTEX
  5
2C6
330
25F
100
AcDbEntity
  8
Make2D$可见线$普通线
100
AcDbVertex
100
AcDb2dVertex
 10
317.5024577290429
 20
737.2858474004489
 30
0.0
  0
SEQEND
  5
2C7
330
25F
100
AcDbEntity
  8
Make2D$可见线$普通线
  0
POLYLINE
  5
2C8
330
1F
100
AcDbEntity
  8
Make2D$可见线$普通线
100
AcDb2dPolyline
 66
     1
 10
0.0
 20
0.0
 30
0.0
  0
VERTEX
  5
2C9
330
2C8
100
AcDbEntity
  8
Make2D$可见线$普通线
100
AcDbVertex
100
AcDb2dVertex
 10
324.7024104937952
 20
720.3154207902094
 30
0.0
  0
VERTEX
  5
2CA
330
2C8
100
AcDbEntity
  8
Make2D$可见线$普通线
100
AcDbVertex
100
AcDb2dVertex
 10
324.8546103178215
 20
720.313229518853
 30
0.0
  0
VERTEX
  5
2CB
330
2C8
100
AcDbEntity
  8
Make2D$可见线$普通线
100
AcDbVertex
100
AcDb2dVertex
 10
325.0066894363088
 20
720.3061464709174
 30
0.0
  0
VERTEX
  5
2CC
330
2C8
100
AcDbEntity
  8
Make2D$可见线$普通线
100
AcDbVertex
100
AcDb2dVertex
 10
325.158483578088
 20
720.2942230938561
 30
0.0
  0
VERTEX
  5
2CD
330
2C8
100
AcDbEntity
  8
Make2D$可见线$普通线
100
AcDbVertex
100
AcDb2dVertex
 10
325.3098284719899
 20
720.2775108351224
 30
0.0
  0
VERTEX
  5
2CE
330
2C8
100
AcDbEntity
  8
Make2D$可见线$普通线
100
AcDbVertex
100
AcDb2dVertex
 10
325.4605598468456
 20
720.2560611421698
 30
0.0
  0
VERTEX
  5
2CF
330
2C8
100
AcDbEntity
  8
Make2D$可见线$普通线
100
AcDbVertex
100
AcDb2dVertex
 10
325.6105134314861
 20
720.2299254624514
 30
0.0
  0
VERTEX
  5
2D0
330
2C8
100
AcDbEntity
  8
Make2D$可见线$普通线
100
AcDbVertex
100
AcDb2dVertex
 10
325.7595249547423
 20
720.199155243421
 30
0.0
  0
VERTEX
  5
2D1
330
2C8
100
AcDbEntity
  8
Make2D$可见线$普通线
100
AcDbVertex
100
AcDb2dVertex
 10
325.9074301454454
 20
720.1638019325319
 30
0.0
  0
VERTEX
  5
2D2
330
2C8
100
AcDbEntity
  8
Make2D$可见线$普通线
100
AcDbVertex
100
AcDb2dVertex
 10
326.0540647324261
 20
720.1239169772375
 30
0.0
  0
VERTEX
  5
2D3
330
2C8
100
AcDbEntity
  8
Make2D$可见线$普通线
100
AcDbVertex
100
AcDb2dVertex
 10
326.1992644445156
 20
720.0795518249911
 30
0.0
  0
VERTEX
  5
2D4
330
2C8
100
AcDbEntity
  8
Make2D$可见线$普通线
100
AcDbVertex
100
AcDb2dVertex
 10
326.3428650105447
 20
720.030757923246
 30
0.0
  0
VERTEX
  5
2D5
330
2C8
100
AcDbEntity
  8
Make2D$可见线$普通线
100
AcDbVertex
100
AcDb2dVertex
 10
326.4847021593445
 20
719.977586719456
 30
0.0
  0
VERTEX
  5
2D6
330
2C8
100
AcDbEntity
  8
Make2D$可见线$普通线
100
AcDbVertex
100
AcDb2dVertex
 10
326.6246116197459
 20
719.9200896610741
 30
0.0
  0
VERTEX
  5
2D7
330
2C8
100
AcDbEntity
  8
Make2D$可见线$普通线
100
AcDbVertex
100
AcDb2dVertex
 10
326.7624291205799
 20
719.8583181955541
 30
0.0
  0
VERTEX
  5
2D8
330
2C8
100
AcDbEntity
  8
Make2D$可见线$普通线
100
AcDbVertex
100
AcDb2dVertex
 10
326.8979903906776
 20
719.792323770349
 30
0.0
  0
VERTEX
  5
2D9
330
2C8
100
AcDbEntity
  8
Make2D$可见线$普通线
100
AcDbVertex
100
AcDb2dVertex
 10
327.0311311588698
 20
719.7221578329124
 30
0.0
  0
VERTEX
  5
2DA
330
2C8
100
AcDbEntity
  8
Make2D$可见线$普通线
100
AcDbVertex
100
AcDb2dVertex
 10
327.10375875229
 20
719.6815296068518
 30
0.0
  0
VERTEX
  5
2DB
330
2C8
100
AcDbEntity
  8
Make2D$可见线$普通线
100
AcDbVertex
100
AcDb2dVertex
 10
327.175580908654
 20
719.6396574630683
 30
0.0
  0
VERTEX
  5
2DC
330
2C8
100
AcDbEntity
  8
Make2D$可见线$普通线
100
AcDbVertex
100
AcDb2dVertex
 10
327.2465847795407
 20
719.5965608506519
 30
0.0
  0
VERTEX
  5
2DD
330
2C8
100
AcDbEntity
  8
Make2D$可见线$普通线
100
AcDbVertex
100
AcDb2dVertex
 10
327.3167575165297
 20
719.552259218693
 30
0.0
  0
VERTEX
  5
2DE
330
2C8
100
AcDbEntity
  8
Make2D$可见线$普通线
100
AcDbVertex
100
AcDb2dVertex
 10
327.4545581951317
 20
719.460118692508
 30
0.0
  0
VERTEX
  5
2DF
330
2C8
100
AcDbEntity
  8
Make2D$可见线$普通线
100
AcDbVertex
100
AcDb2dVertex
 10
327.5888801570942
 20
719.3633914772342
 30
0.0
  0
VERTEX
  5
2E0
330
2C8
100
AcDbEntity
  8
Make2D$可见线$普通线
100
AcDbVertex
100
AcDb2dVertex
 10
327.7196206150518
 20
719.262233165593
 30
0.0
  0
VERTEX
  5
2E1
330
2C8
100
AcDbEntity
  8
Make2D$可见线$普通线
100
AcDbVertex
100
AcDb2dVertex
 10
327.846676781639
 20
719.1567993503054
 30
0.0
  0
VERTEX
  5
2E2
330
2C8
100
AcDbEntity
  8
Make2D$可见线$普通线
100
AcDbVertex
100
AcDb2dVertex
 10
327.9699458694903
 20
719.0472456240925
 30
0.0
  0
VERTEX
  5
2E3
330
2C8
100
AcDbEntity
  8
Make2D$可见线$普通线
100
AcDbVertex
100
AcDb2dVertex
 10
328.0893250912401
 20
718.9337275796756
 30
0.0
  0
VERTEX
  5
2E4
330
2C8
100
AcDbEntity
  8
Make2D$可见线$普通线
100
AcDbVertex
100
AcDb2dVertex
 10
328.2047116595229
 20
718.816400809776
 30
0.0
  0
VERTEX
  5
2E5
330
2C8
100
AcDbEntity
  8
Make2D$可见线$普通线
100
AcDbVertex
100
AcDb2dVertex
 10
328.3160027869731
 20
718.6954209071147
 30
0.0
  0
VERTEX
  5
2E6
330
2C8
100
AcDbEntity
  8
Make2D$可见线$普通线
100
AcDbVertex
100
AcDb2dVertex
 10
328.4230956862253
 20
718.5709434644127
 30
0.0
  0
VERTEX
  5
2E7
330
2C8
100
AcDbEntity
  8
Make2D$可见线$普通线
100
AcDbVertex
100
AcDb2dVertex
 10
328.5258875699139
 20
718.4431240743916
 30
0.0
  0
VERTEX
  5
2E8
330
2C8
100
AcDbEntity
  8
Make2D$可见线$普通线
100
AcDbVertex
100
AcDb2dVertex
 10
328.6242756506735
 20
718.3121183297721
 30
0.0
  0
VERTEX
  5
2E9
330
2C8
100
AcDbEntity
  8
Make2D$可见线$普通线
100
AcDbVertex
100
AcDb2dVertex
 10
328.7181571411384
 20
718.1780818232756
 30
0.0
  0
VERTEX
  5
2EA
330
2C8
100
AcDbEntity
  8
Make2D$可见线$普通线
100
AcDbVertex
100
AcDb2dVertex
 10
328.8074292539432
 20
718.0411701476232
 30
0.0
  0
VERTEX
  5
2EB
330
2C8
100
AcDbEntity
  8
Make2D$可见线$普通线
100
AcDbVertex
100
AcDb2dVertex
 10
328.8919892017224
 20
717.9015388955362
 30
0.0
  0
VERTEX
  5
2EC
330
2C8
100
AcDbEntity
  8
Make2D$可见线$普通线
100
AcDbVertex
100
AcDb2dVertex
 10
328.9346179250574
 20
717.8269222326436
 30
0.0
  0
VERTEX
  5
2ED
330
2C8
100
AcDbEntity
  8
Make2D$可见线$普通线
100
AcDbVertex
100
AcDb2dVertex
 10
328.9759088623598
 20
717.7516166129924
 30
0.0
  0
VERTEX
  5
2EE
330
2C8
100
AcDbEntity
  8
Make2D$可见线$普通线
100
AcDbVertex
100
AcDb2dVertex
 10
329.0544737435849
 20
717.5990302487929
 30
0.0
  0
VERTEX
  5
2EF
330
2C8
100
AcDbEntity
  8
Make2D$可见线$普通线
100
AcDbVertex
100
AcDb2dVertex
 10
329.1276765748338
 20
717.4439632936945
 30
0.0
  0
VERTEX
  5
2F0
330
2C8
100
AcDbEntity
  8
Make2D$可见线$普通线
100
AcDbVertex
100
AcDb2dVertex
 10
329.1955100855427
 20
717.2865992384537
 30
0.0
  0
VERTEX
  5
2F1
330
2C8
100
AcDbEntity
  8
Make2D$可见线$普通线
100
AcDbVertex
100
AcDb2dVertex
 10
329.2579670051475
 20
717.1271215738273
 30
0.0
  0
VERTEX
  5
2F2
330
2C8
100
AcDbEntity
  8
Make2D$可见线$普通线
100
AcDbVertex
100
AcDb2dVertex
 10
329.3150400630844
 20
716.9657137905718
 30
0.0
  0
VERTEX
  5
2F3
330
2C8
100
AcDbEntity
  8
Make2D$可见线$普通线
100
AcDbVertex
100
AcDb2dVertex
 10
329.3667219887894
 20
716.8025593794439
 30
0.0
  0
VERTEX
  5
2F4
330
2C8
100
AcDbEntity
  8
Make2D$可见线$普通线
100
AcDbVertex
100
AcDb2dVertex
 10
329.4130055116988
 20
716.6378418312001
 30
0.0
  0
VERTEX
  5
2F5
330
2C8
100
AcDbEntity
  8
Make2D$可见线$普通线
100
AcDbVertex
100
AcDb2dVertex
 10
329.4538833612484
 20
716.4717446365972
 30
0.0
  0
VERTEX
  5
2F6
330
2C8
100
AcDbEntity
  8
Make2D$可见线$普通线
100
AcDbVertex
100
AcDb2dVertex
 10
329.4893482668745
 20
716.3044512863918
 30
0.0
  0
VERTEX
  5
2F7
330
2C8
100
AcDbEntity
  8
Make2D$可见线$普通线
100
AcDbVertex
100
AcDb2dVertex
 10
329.519392958013
 20
716.1361452713404
 30
0.0
  0
VERTEX
  5
2F8
330
2C8
100
AcDbEntity
  8
Make2D$可见线$普通线
100
AcDbVertex
100
AcDb2dVertex
 10
329.5440101641001
 20
715.9670100821996
 30
0.0
  0
VERTEX
  5
2F9
330
2C8
100
AcDbEntity
  8
Make2D$可见线$普通线
100
AcDbVertex
100
AcDb2dVertex
 10
329.5631926145718
 20
715.7972292097263
 30
0.0
  0
VERTEX
  5
2FA
330
2C8
100
AcDbEntity
  8
Make2D$可见线$普通线
100
AcDbVertex
100
AcDb2dVertex
 10
329.5769330388644
 20
715.626986144677
 30
0.0
  0
VERTEX
  5
2FB
330
2C8
100
AcDbEntity
  8
Make2D$可见线$普通线
100
AcDbVertex
100
AcDb2dVertex
 10
329.5852241664137
 20
715.4564643778081
 30
0.0
  0
VERTEX
  5
2FC
330
2C8
100
AcDbEntity
  8
Make2D$可见线$普通线
100
AcDbVertex
100
AcDb2dVertex
 10
329.588058726656
 20
715.2858473998765
 30
0.0
  0
VERTEX
  5
2FD
330
2C8
100
AcDbEntity
  8
Make2D$可见线$普通线
100
AcDbVertex
100
AcDb2dVertex
 10
329.5863707400381
 20
715.163474545343
 30
0.0
  0
VERTEX
  5
2FE
330
2C8
100
AcDbEntity
  8
Make2D$可见线$普通线
100
AcDbVertex
100
AcDb2dVertex
 10
329.5819587371404
 20
715.0411624408063
 30
0.0
  0
VERTEX
  5
2FF
330
2C8
100
AcDbEntity
  8
Make2D$可见线$普通线
100
AcDbVertex
100
AcDb2dVertex
 10
329.574814810716
 20
714.918974518369
 30
0.0
  0
VERTEX
  5
300
330
2C8
100
AcDbEntity
  8
Make2D$可见线$普通线
100
AcDbVertex
100
AcDb2dVertex
 10
329.564931053518
 20
714.7969742101342
 30
0.0
  0
VERTEX
  5
301
330
2C8
100
AcDbEntity
  8
Make2D$可见线$普通线
100
AcDbVertex
100
AcDb2dVertex
 10
329.5522995582995
 20
714.6752249482047
 30
0.0
  0
VERTEX
  5
302
330
2C8
100
AcDbEntity
  8
Make2D$可见线$普通线
100
AcDbVertex
100
AcDb2dVertex
 10
329.5369124178136
 20
714.553790164683
 30
0.0
  0
VERTEX
  5
303
330
2C8
100
AcDbEntity
  8
Make2D$可见线$普通线
100
AcDbVertex
100
AcDb2dVertex
 10
329.5187617248135
 20
714.4327332916725
 30
0.0
  0
VERTEX
  5
304
330
2C8
100
AcDbEntity
  8
Make2D$可见线$普通线
100
AcDbVertex
100
AcDb2dVertex
 10
329.4978395720524
 20
714.3121177612759
 30
0.0
  0
VERTEX
  5
305
330
2C8
100
AcDbEntity
  8
Make2D$可见线$普通线
100
AcDbVertex
100
AcDb2dVertex
 10
329.4741380522832
 20
714.1920070055961
 30
0.0
  0
VERTEX
  5
306
330
2C8
100
AcDbEntity
  8
Make2D$可见线$普通线
100
AcDbVertex
100
AcDb2dVertex
 10
329.4476492582593
 20
714.0724644567358
 30
0.0
  0
VERTEX
  5
307
330
2C8
100
AcDbEntity
  8
Make2D$可见线$普通线
100
AcDbVertex
100
AcDb2dVertex
 10
329.4183652827336
 20
713.953553546798
 30
0.0
  0
VERTEX
  5
308
330
2C8
100
AcDbEntity
  8
Make2D$可见线$普通线
100
AcDbVertex
100
AcDb2dVertex
 10
329.3862782184593
 20
713.8353377078856
 30
0.0
  0
VERTEX
  5
309
330
2C8
100
AcDbEntity
  8
Make2D$可见线$普通线
100
AcDbVertex
100
AcDb2dVertex
 10
329.3513801581895
 20
713.7178803721015
 30
0.0
  0
VERTEX
  5
30A
330
2C8
100
AcDbEntity
  8
Make2D$可见线$普通线
100
AcDbVertex
100
AcDb2dVertex
 10
329.3136631946774
 20
713.6012449715486
 30
0.0
  0
VERTEX
  5
30B
330
2C8
100
AcDbEntity
  8
Make2D$可见线$普通线
100
AcDbVertex
100
AcDb2dVertex
 10
329.273119420676
 20
713.4854949383296
 30
0.0
  0
VERTEX
  5
30C
330
2C8
100
AcDbEntity
  8
Make2D$可见线$普通线
100
AcDbVertex
100
AcDb2dVertex
 10
329.2297409289387
 20
713.3706937045474
 30
0.0
  0
VERTEX
  5
30D
330
2C8
100
AcDbEntity
  8
Make2D$可见线$普通线
100
AcDbVertex
100
AcDb2dVertex
 10
329.1962306438397
 20
713.2873987352345
 30
0.0
  0
VERTEX
  5
30E
330
2C8
100
AcDbEntity
  8
Make2D$可见线$普通线
100
AcDbVertex
100
AcDb2dVertex
 10
329.1612132923032
 20
713.2046720920765
 30
0.0
  0
VERTEX
  5
30F
330
2C8
100
AcDbEntity
  8
Make2D$可见线$普通线
100
AcDbVertex
100
AcDb2dVertex
 10
329.1247012533918
 20
713.1225410412333
 30
0.0
  0
VERTEX
  5
310
330
2C8
100
AcDbEntity
  8
Make2D$可见线$普通线
100
AcDbVertex
100
AcDb2dVertex
 10
329.0867069061686
 20
713.0410328488649
 30
0.0
  0
VERTEX
  5
311
330
2C8
100
AcDbEntity
  8
Make2D$可见线$普通线
100
AcDbVertex
100
AcDb2dVertex
 10
329.0472426296964
 20
712.9601747811313
 30
0.0
  0
VERTEX
  5
312
330
2C8
100
AcDbEntity
  8
Make2D$可见线$普通线
100
AcDbVertex
100
AcDb2dVertex
 10
329.006320803038
 20
712.8799941041925
 30
0.0
  0
VERTEX
  5
313
330
2C8
100
AcDbEntity
  8
Make2D$可见线$普通线
100
AcDbVertex
100
AcDb2dVertex
 10
328.9639538052563
 20
712.8005180842088
 30
0.0
  0
VERTEX
  5
314
330
2C8
100
AcDbEntity
  8
Make2D$可见线$普通线
100
AcDbVertex
100
AcDb2dVertex
 10
328.9201540154142
 20
712.7217739873396
 30
0.0
  0
VERTEX
  5
315
330
2C8
100
AcDbEntity
  8
Make2D$可见线$普通线
100
AcDbVertex
100
AcDb2dVertex
 10
328.8749338125746
 20
712.6437890797454
 30
0.0
  0
VERTEX
  5
316
330
2C8
100
AcDbEntity
  8
Make2D$可见线$普通线
100
AcDbVertex
100
AcDb2dVertex
 10
328.8283055758004
 20
712.5665906275862
 30
0.0
  0
VERTEX
  5
317
330
2C8
100
AcDbEntity
  8
Make2D$可见线$普通线
100
AcDbVertex
100
AcDb2dVertex
 10
328.7802816841544
 20
712.4902058970217
 30
0.0
  0
VERTEX
  5
318
330
2C8
100
AcDbEntity
  8
Make2D$可见线$普通线
100
AcDbVertex
100
AcDb2dVertex
 10
328.7308745166995
 20
712.4146621542122
 30
0.0
  0
VERTEX
  5
319
330
2C8
100
AcDbEntity
  8
Make2D$可见线$普通线
100
AcDbVertex
100
AcDb2dVertex
 10
328.6800964524985
 20
712.3399866653176
 30
0.0
  0
VERTEX
  5
31A
330
2C8
100
AcDbEntity
  8
Make2D$可见线$普通线
100
AcDbVertex
100
AcDb2dVertex
 10
328.6279598706144
 20
712.2662066964979
 30
0.0
  0
VERTEX
  5
31B
330
2C8
100
AcDbEntity
  8
Make2D$可见线$普通线
100
AcDbVertex
100
AcDb2dVertex
 10
328.5744771501101
 20
712.1933495139131
 30
0.0
  0
VERTEX
  5
31C
330
2C8
100
AcDbEntity
  8
Make2D$可见线$普通线
100
AcDbVertex
100
AcDb2dVertex
 10
328.5196606700483
 20
712.1214423837232
 30
0.0
  0
VERTEX
  5
31D
330
2C8
100
AcDbEntity
  8
Make2D$可见线$普通线
100
AcDbVertex
100
AcDb2dVertex
 10
328.463522809492
 20
712.0505125720882
 30
0.0
  0
VERTEX
  5
31E
330
2C8
100
AcDbEntity
  8
Make2D$可见线$普通线
100
AcDbVertex
100
AcDb2dVertex
 10
328.4060759475041
 20
711.9805873451681
 30
0.0
  0
VERTEX
  5
31F
330
2C8
100
AcDbEntity
  8
Make2D$可见线$普通线
100
AcDbVertex
100
AcDb2dVertex
 10
328.3473324631474
 20
711.911693969123
 30
0.0
  0
VERTEX
  5
320
330
2C8
100
AcDbEntity
  8
Make2D$可见线$普通线
100
AcDbVertex
100
AcDb2dVertex
 10
328.2873047354848
 20
711.8438597101128
 30
0.0
  0
VERTEX
  5
321
330
2C8
100
AcDbEntity
  8
Make2D$可见线$普通线
100
AcDbVertex
100
AcDb2dVertex
 10
328.2260051435791
 20
711.7771118342976
 30
0.0
  0
VERTEX
  5
322
330
2C8
100
AcDbEntity
  8
Make2D$可见线$普通线
100
AcDbVertex
100
AcDb2dVertex
 10
328.1634460664933
 20
711.7114776078373
 30
0.0
  0
VERTEX
  5
323
330
2C8
100
AcDbEntity
  8
Make2D$可见线$普通线
100
AcDbVertex
100
AcDb2dVertex
 10
328.0996398832903
 20
711.646984296892
 30
0.0
  0
VERTEX
  5
324
330
2C8
100
AcDbEntity
  8
Make2D$可见线$普通线
100
AcDbVertex
100
AcDb2dVertex
 10
328.0345989730328
 20
711.5836591676215
 30
0.0
  0
VERTEX
  5
325
330
2C8
100
AcDbEntity
  8
Make2D$可见线$普通线
100
AcDbVertex
100
AcDb2dVertex
 10
327.9683357147837
 20
711.521529486186
 30
0.0
  0
VERTEX
  5
326
330
2C8
100
AcDbEntity
  8
Make2D$可见线$普通线
100
AcDbVertex
100
AcDb2dVertex
 10
327.9008624876061
 20
711.4606225187456
 30
0.0
  0
VERTEX
  5
327
330
2C8
100
AcDbEntity
  8
Make2D$可见线$普通线
100
AcDbVertex
100
AcDb2dVertex
 10
327.8321916705627
 20
711.4009655314601
 30
0.0
  0
VERTEX
  5
328
330
2C8
100
AcDbEntity
  8
Make2D$可见线$普通线
100
AcDbVertex
100
AcDb2dVertex
 10
327.7623356427163
 20
711.3425857904897
 30
0.0
  0
VERTEX
  5
329
330
2C8
100
AcDbEntity
  8
Make2D$可见线$普通线
100
AcDbVertex
100
AcDb2dVertex
 10
327.6913067831299
 20
711.2855105619942
 30
0.0
  0
VERTEX
  5
32A
330
2C8
100
AcDbEntity
  8
Make2D$可见线$普通线
100
AcDbVertex
100
AcDb2dVertex
 10
327.6191174708663
 20
711.2297671121337
 30
0.0
  0
VERTEX
  5
32B
330
2C8
100
AcDbEntity
  8
Make2D$可见线$普通线
100
AcDbVertex
100
AcDb2dVertex
 10
327.5457800849885
 20
711.1753827070681
 30
0.0
  0
VERTEX
  5
32C
330
2C8
100
AcDbEntity
  8
Make2D$可见线$普通线
100
AcDbVertex
100
AcDb2dVertex
 10
327.4713070045592
 20
711.1223846129576
 30
0.0
  0
VERTEX
  5
32D
330
2C8
100
AcDbEntity
  8
Make2D$可见线$普通线
100
AcDbVertex
100
AcDb2dVertex
 10
327.3961617412046
 20
711.0710970734698
 30
0.0
  0
VERTEX
  5
32E
330
2C8
100
AcDbEntity
  8
Make2D$可见线$普通线
100
AcDbVertex
100
AcDb2dVertex
 10
327.3199404869169
 20
711.0212216082282
 30
0.0
  0
VERTEX
  5
32F
330
2C8
100
AcDbEntity
  8
Make2D$可见线$普通线
100
AcDbVertex
100
AcDb2dVertex
 10
327.2426774036982
 20
710.9727732780858
 30
0.0
  0
VERTEX
  5
330
330
2C8
100
AcDbEntity
  8
Make2D$可见线$普通线
100
AcDbVertex
100
AcDb2dVertex
 10
327.1644066535498
 20
710.9257671438955
 30
0.0
  0
VERTEX
  5
331
330
2C8
100
AcDbEntity
  8
Make2D$可见线$普通线
100
AcDbVertex
100
AcDb2dVertex
 10
327.0851623984736
 20
710.8802182665104
 30
0.0
  0
VERTEX
  5
332
330
2C8
100
AcDbEntity
  8
Make2D$可见线$普通线
100
AcDbVertex
100
AcDb2dVertex
 10
327.0049788004712
 20
710.8361417067833
 30
0.0
  0
VERTEX
  5
333
330
2C8
100
AcDbEntity
  8
Make2D$可见线$普通线
100
AcDbVertex
100
AcDb2dVertex
 10
326.9238900215444
 20
710.7935525255673
 30
0.0
  0
VERTEX
  5
334
330
2C8
100
AcDbEntity
  8
Make2D$可见线$普通线
100
AcDbVertex
100
AcDb2dVertex
 10
326.8419302236947
 20
710.752465783715
 30
0.0
  0
VERTEX
  5
335
330
2C8
100
AcDbEntity
  8
Make2D$可见线$普通线
100
AcDbVertex
100
AcDb2dVertex
 10
326.7591335689239
 20
710.7128965420795
 30
0.0
  0
VERTEX
  5
336
330
2C8
100
AcDbEntity
  8
Make2D$可见线$普通线
100
AcDbVertex
100
AcDb2dVertex
 10
326.6755342192337
 20
710.674859861514
 30
0.0
  0
VERTEX
  5
337
330
2C8
100
AcDbEntity
  8
Make2D$可见线$普通线
100
AcDbVertex
100
AcDb2dVertex
 10
326.5911663366256
 20
710.6383708028711
 30
0.0
  0
VERTEX
  5
338
330
2C8
100
AcDbEntity
  8
Make2D$可见线$普通线
100
AcDbVertex
100
AcDb2dVertex
 10
326.5060640831015
 20
710.6034444270038
 30
0.0
  0
VERTEX
  5
339
330
2C8
100
AcDbEntity
  8
Make2D$可见线$普通线
100
AcDbVertex
100
AcDb2dVertex
 10
326.420261620663
 20
710.5700957947649
 30
0.0
  0
VERTEX
  5
33A
330
2C8
100
AcDbEntity
  8
Make2D$可见线$普通线
100
AcDbVertex
100
AcDb2dVertex
 10
326.3337931113117
 20
710.5383399670077
 30
0.0
  0
VERTEX
  5
33B
330
2C8
100
AcDbEntity
  8
Make2D$可见线$普通线
100
AcDbVertex
100
AcDb2dVertex
 10
326.2466927170494
 20
710.5081920045847
 30
0.0
  0
VERTEX
  5
33C
330
2C8
100
AcDbEntity
  8
Make2D$可见线$普通线
100
AcDbVertex
100
AcDb2dVertex
 10
326.1589945998778
 20
710.4796669683491
 30
0.0
  0
VERTEX
  5
33D
330
2C8
100
AcDbEntity
  8
Make2D$可见线$普通线
100
AcDbVertex
100
AcDb2dVertex
 10
326.0707329217985
 20
710.4527799191538
 30
0.0
  0
VERTEX
  5
33E
330
2C8
100
AcDbEntity
  8
Make2D$可见线$普通线
100
AcDbVertex
100
AcDb2dVertex
 10
325.9819418448132
 20
710.4275459178516
 30
0.0
  0
VERTEX
  5
33F
330
2C8
100
AcDbEntity
  8
Make2D$可见线$普通线
100
AcDbVertex
100
AcDb2dVertex
 10
325.8926555309235
 20
710.4039800252955
 30
0.0
  0
VERTEX
  5
340
330
2C8
100
AcDbEntity
  8
Make2D$可见线$普通线
100
AcDbVertex
100
AcDb2dVertex
 10
325.8029081421313
 20
710.3820973023384
 30
0.0
  0
VERTEX
  5
341
330
2C8
100
AcDbEntity
  8
Make2D$可见线$普通线
100
AcDbVertex
100
AcDb2dVertex
 10
325.712733840438
 20
710.3619128098334
 30
0.0
  0
VERTEX
  5
342
330
2C8
100
AcDbEntity
  8
Make2D$可见线$普通线
100
AcDbVertex
100
AcDb2dVertex
 10
325.6221667878455
 20
710.343441608633
 30
0.0
  0
VERTEX
  5
343
330
2C8
100
AcDbEntity
  8
Make2D$可见线$普通线
100
AcDbVertex
100
AcDb2dVertex
 10
325.5312411463554
 20
710.3266987595906
 30
0.0
  0
VERTEX
  5
344
330
2C8
100
AcDbEntity
  8
Make2D$可见线$普通线
100
AcDbVertex
100
AcDb2dVertex
 10
325.4399910779694
 20
710.3116993235591
 30
0.0
  0
VERTEX
  5
345
330
2C8
100
AcDbEntity
  8
Make2D$可见线$普通线
100
AcDbVertex
100
AcDb2dVertex
 10
325.3484507446891
 20
710.2984583613912
 30
0.0
  0
VERTEX
  5
346
330
2C8
100
AcDbEntity
  8
Make2D$可见线$普通线
100
AcDbVertex
100
AcDb2dVertex
 10
325.2566543085163
 20
710.2869909339398
 30
0.0
  0
VERTEX
  5
347
330
2C8
100
AcDbEntity
  8
Make2D$可见线$普通线
100
AcDbVertex
100
AcDb2dVertex
 10
325.1646359314526
 20
710.277312102058
 30
0.0
  0
VERTEX
  5
348
330
2C8
100
AcDbEntity
  8
Make2D$可见线$普通线
100
AcDbVertex
100
AcDb2dVertex
 10
325.0724297754997
 20
710.2694369265987
 30
0.0
  0
VERTEX
  5
349
330
2C8
100
AcDbEntity
  8
Make2D$可见线$普通线
100
AcDbVertex
100
AcDb2dVertex
 10
324.9800700026593
 20
710.2633804684147
 30
0.0
  0
VERTEX
  5
34A
330
2C8
100
AcDbEntity
  8
Make2D$可见线$普通线
100
AcDbVertex
100
AcDb2dVertex
 10
324.8875907749331
 20
710.2591577883592
 30
0.0
  0
VERTEX
  5
34B
330
2C8
100
AcDbEntity
  8
Make2D$可见线$普通线
100
AcDbVertex
100
AcDb2dVertex
 10
324.7950262543226
 20
710.2567839472849
 30
0.0
  0
VERTEX
  5
34C
330
2C8
100
AcDbEntity
  8
Make2D$可见线$普通线
100
AcDbVertex
100
AcDb2dVertex
 10
324.7024106028297
 20
710.2562740060447
 30
0.0
  0
VERTEX
  5
34D
330
2C8
100
AcDbEntity
  8
Make2D$可见线$普通线
100
AcDbVertex
100
AcDb2dVertex
 10
324.6097949513205
 20
710.2567839473235
 30
0.0
  0
VERTEX
  5
34E
330
2C8
100
AcDbEntity
  8
Make2D$可见线$普通线
100
AcDbVertex
100
AcDb2dVertex
 10
324.5172304307888
 20
710.2591577884317
 30
0.0
  0
VERTEX
  5
34F
330
2C8
100
AcDbEntity
  8
Make2D$可见线$普通线
100
AcDbVertex
100
AcDb2dVertex
 10
324.4247512032354
 20
710.2633804685165
 30
0.0
  0
VERTEX
  5
350
330
2C8
100
AcDbEntity
  8
Make2D$可见线$普通线
100
AcDbVertex
100
AcDb2dVertex
 10
324.3323914306609
 20
710.2694369267253
 30
0.0
  0
VERTEX
  5
351
330
2C8
100
AcDbEntity
  8
Make2D$可见线$普通线
100
AcDbVertex
100
AcDb2dVertex
 10
324.2401852750663
 20
710.2773121022054
 30
0.0
  0
VERTEX
  5
352
330
2C8
100
AcDbEntity
  8
Make2D$可见线$普通线
100
AcDbVertex
100
AcDb2dVertex
 10
324.1481668984522
 20
710.2869909341041
 30
0.0
  0
VERTEX
  5
353
330
2C8
100
AcDbEntity
  8
Make2D$可见线$普通线
100
AcDbVertex
100
AcDb2dVertex
 10
324.0563704628195
 20
710.2984583615687
 30
0.0
  0
VERTEX
  5
354
330
2C8
100
AcDbEntity
  8
Make2D$可见线$普通线
100
AcDbVertex
100
AcDb2dVertex
 10
323.9648301301687
 20
710.3116993237463
 30
0.0
  0
VERTEX
  5
355
330
2C8
100
AcDbEntity
  8
Make2D$可见线$普通线
100
AcDbVertex
100
AcDb2dVertex
 10
323.8735800625006
 20
710.3266987597844
 30
0.0
  0
VERTEX
  5
356
330
2C8
100
AcDbEntity
  8
Make2D$可见线$普通线
100
AcDbVertex
100
AcDb2dVertex
 10
323.782654421816
 20
710.3434416088303
 30
0.0
  0
VERTEX
  5
357
330
2C8
100
AcDbEntity
  8
Make2D$可见线$普通线
100
AcDbVertex
100
AcDb2dVertex
 10
323.6920873701156
 20
710.3619128100311
 30
0.0
  0
VERTEX
  5
358
330
2C8
100
AcDbEntity
  8
Make2D$可见线$普通线
100
AcDbVertex
100
AcDb2dVertex
 10
323.6019130694002
 20
710.3820973025339
 30
0.0
  0
VERTEX
  5
359
330
2C8
100
AcDbEntity
  8
Make2D$可见线$普通线
100
AcDbVertex
100
AcDb2dVertex
 10
323.5121656816704
 20
710.4039800254864
 30
0.0
  0
VERTEX
  5
35A
330
2C8
100
AcDbEntity
  8
Make2D$可见线$普通线
100
AcDbVertex
100
AcDb2dVertex
 10
323.4228793689271
 20
710.4275459180358
 30
0.0
  0
VERTEX
  5
35B
330
2C8
100
AcDbEntity
  8
Make2D$可见线$普通线
100
AcDbVertex
100
AcDb2dVertex
 10
323.3340882931709
 20
710.4527799193293
 30
0.0
  0
VERTEX
  5
35C
330
2C8
100
AcDbEntity
  8
Make2D$可见线$普通线
100
AcDbVertex
100
AcDb2dVertex
 10
323.2458266164026
 20
710.4796669685142
 30
0.0
  0
VERTEX
  5
35D
330
2C8
100
AcDbEntity
  8
Make2D$可见线$普通线
100
AcDbVertex
100
AcDb2dVertex
 10
323.158128500623
 20
710.5081920047377
 30
0.0
  0
VERTEX
  5
35E
330
2C8
100
AcDbEntity
  8
Make2D$可见线$普通线
100
AcDbVertex
100
AcDb2dVertex
 10
323.0710281078327
 20
710.5383399671473
 30
0.0
  0
VERTEX
  5
35F
330
2C8
100
AcDbEntity
  8
Make2D$可见线$普通线
100
AcDbVertex
100
AcDb2dVertex
 10
322.9845596000326
 20
710.57009579489
 30
0.0
  0
VERTEX
  5
360
330
2C8
100
AcDbEntity
  8
Make2D$可见线$普通线
100
AcDbVertex
100
AcDb2dVertex
 10
322.8987571392233
 20
710.6034444271132
 30
0.0
  0
VERTEX
  5
361
330
2C8
100
AcDbEntity
  8
Make2D$可见线$普通线
100
AcDbVertex
100
AcDb2dVertex
 10
322.8136548874056
 20
710.6383708029643
 30
0.0
  0
VERTEX
  5
362
330
2C8
100
AcDbEntity
  8
Make2D$可见线$普通线
100
AcDbVertex
100
AcDb2dVertex
 10
322.7292870065802
 20
710.6748598615904
 30
0.0
  0
VERTEX
  5
363
330
2C8
100
AcDbEntity
  8
Make2D$可见线$普通线
100
AcDbVertex
100
AcDb2dVertex
 10
322.645687658748
 20
710.7128965421391
 30
0.0
  0
VERTEX
  5
364
330
2C8
100
AcDbEntity
  8
Make2D$可见线$普通线
100
AcDbVertex
100
AcDb2dVertex
 10
322.5628910059095
 20
710.7524657837573
 30
0.0
  0
VERTEX
  5
365
330
2C8
100
AcDbEntity
  8
Make2D$可见线$普通线
100
AcDbVertex
100
AcDb2dVertex
 10
322.4809312100655
 20
710.7935525255925
 30
0.0
  0
VERTEX
  5
366
330
2C8
100
AcDbEntity
  8
Make2D$可见线$普通线
100
AcDbVertex
100
AcDb2dVertex
 10
322.3998424332169
 20
710.836141706792
 30
0.0
  0
VERTEX
  5
367
330
2C8
100
AcDbEntity
  8
Make2D$可见线$普通线
100
AcDbVertex
100
AcDb2dVertex
 10
322.3196588373643
 20
710.8802182665029
 30
0.0
  0
VERTEX
  5
368
330
2C8
100
AcDbEntity
  8
Make2D$可见线$普通线
100
AcDbVertex
100
AcDb2dVertex
 10
322.2404145845084
 20
710.9257671438727
 30
0.0
  0
VERTEX
  5
369
330
2C8
100
AcDbEntity
  8
Make2D$可见线$普通线
100
AcDbVertex
100
AcDb2dVertex
 10
322.16214383665
 20
710.9727732780485
 30
0.0
  0
VERTEX
  5
36A
330
2C8
100
AcDbEntity
  8
Make2D$可见线$普通线
100
AcDbVertex
100
AcDb2dVertex
 10
322.0848807557898
 20
711.0212216081777
 30
0.0
  0
VERTEX
  5
36B
330
2C8
100
AcDbEntity
  8
Make2D$可见线$普通线
100
AcDbVertex
100
AcDb2dVertex
 10
322.0086595039286
 20
711.0710970734076
 30
0.0
  0
VERTEX
  5
36C
330
2C8
100
AcDbEntity
  8
Make2D$可见线$普通线
100
AcDbVertex
100
AcDb2dVertex
 10
321.9335142430671
 20
711.1223846128853
 30
0.0
  0
VERTEX
  5
36D
330
2C8
100
AcDbEntity
  8
Make2D$可见线$普通线
100
AcDbVertex
100
AcDb2dVertex
 10
321.8590411652123
 20
711.1753827069874
 30
0.0
  0
VERTEX
  5
36E
330
2C8
100
AcDbEntity
  8
Make2D$可见线$普通线
100
AcDbVertex
100
AcDb2dVertex
 10
321.7857037819742
 20
711.2297671120463
 30
0.0
  0
VERTEX
  5
36F
330
2C8
100
AcDbEntity
  8
Make2D$可见线$普通线
100
AcDbVertex
100
AcDb2dVertex
 10
321.7135144724147
 20
711.2855105619019
 30
0.0
  0
VERTEX
  5
370
330
2C8
100
AcDbEntity
  8
Make2D$可见线$普通线
100
AcDbVertex
100
AcDb2dVertex
 10
321.6424856155954
 20
711.342585790394
 30
0.0
  0
VERTEX
  5
371
330
2C8
100
AcDbEntity
  8
Make2D$可见线$普通线
100
AcDbVertex
100
AcDb2dVertex
 10
321.5726295905779
 20
711.4009655313625
 30
0.0
  0
VERTEX
  5
372
330
2C8
100
AcDbEntity
  8
Make2D$可见线$普通线
100
AcDbVertex
100
AcDb2dVertex
 10
321.5039587764238
 20
711.4606225186474
 30
0.0
  0
VERTEX
  5
373
330
2C8
100
AcDbEntity
  8
Make2D$可见线$普通线
100
AcDbVertex
100
AcDb2dVertex
 10
321.4364855521949
 20
711.5215294860884
 30
0.0
  0
VERTEX
  5
374
330
2C8
100
AcDbEntity
  8
Make2D$可见线$普通线
100
AcDbVertex
100
AcDb2dVertex
 10
321.3702222969528
 20
711.5836591675256
 30
0.0
  0
VERTEX
  5
375
330
2C8
100
AcDbEntity
  8
Make2D$可见线$普通线
100
AcDbVertex
100
AcDb2dVertex
 10
321.3051813897591
 20
711.6469842967989
 30
0.0
  0
VERTEX
  5
376
330
2C8
100
AcDbEntity
  8
Make2D$可见线$普通线
100
AcDbVertex
100
AcDb2dVertex
 10
321.2413752096757
 20
711.7114776077481
 30
0.0
  0
VERTEX
  5
377
330
2C8
100
AcDbEntity
  8
Make2D$可见线$普通线
100
AcDbVertex
100
AcDb2dVertex
 10
321.178816135764
 20
711.7771118342131
 30
0.0
  0
VERTEX
  5
378
330
2C8
100
AcDbEntity
  8
Make2D$可见线$普通线
100
AcDbVertex
100
AcDb2dVertex
 10
321.1175165470858
 20
711.8438597100338
 30
0.0
  0
VERTEX
  5
379
330
2C8
100
AcDbEntity
  8
Make2D$可见线$普通线
100
AcDbVertex
100
AcDb2dVertex
 10
321.0574888227026
 20
711.91169396905
 30
0.0
  0
VERTEX
  5
37A
330
2C8
100
AcDbEntity
  8
Make2D$可见线$普通线
100
AcDbVertex
100
AcDb2dVertex
 10
320.9987453416762
 20
711.9805873451019
 30
0.0
  0
VERTEX
  5
37B
330
2C8
100
AcDbEntity
  8
Make2D$可见线$普通线
100
AcDbVertex
100
AcDb2dVertex
 10
320.9412984830683
 20
712.0505125720291
 30
0.0
  0
VERTEX
  5
37C
330
2C8
100
AcDbEntity
  8
Make2D$可见线$普通线
100
AcDbVertex
100
AcDb2dVertex
 10
320.8851606259404
 20
712.1214423836716
 30
0.0
  0
VERTEX
  5
37D
330
2C8
100
AcDbEntity
  8
Make2D$可见线$普通线
100
AcDbVertex
100
AcDb2dVertex
 10
320.8303441493542
 20
712.1933495138692
 30
0.0
  0
VERTEX
  5
37E
330
2C8
100
AcDbEntity
  8
Make2D$可见线$普通线
100
AcDbVertex
100
AcDb2dVertex
 10
320.7768614323716
 20
712.266206696462
 30
0.0
  0
VERTEX
  5
37F
330
2C8
100
AcDbEntity
  8
Make2D$可见线$普通线
100
AcDbVertex
100
AcDb2dVertex
 10
320.7247248540539
 20
712.3399866652896
 30
0.0
  0
VERTEX
  5
380
330
2C8
100
AcDbEntity
  8
Make2D$可见线$普通线
100
AcDbVertex
100
AcDb2dVertex
 10
320.673946793463
 20
712.4146621541921
 30
0.0
  0
VERTEX
  5
381
330
2C8
100
AcDbEntity
  8
Make2D$可见线$普通线
100
AcDbVertex
100
AcDb2dVertex
 10
320.6245396296604
 20
712.4902058970093
 30
0.0
  0
VERTEX
  5
382
330
2C8
100
AcDbEntity
  8
Make2D$可见线$普通线
100
AcDbVertex
100
AcDb2dVertex
 10
320.5765157417079
 20
712.5665906275813
 30
0.0
  0
VERTEX
  5
383
330
2C8
100
AcDbEntity
  8
Make2D$可见线$普通线
100
AcDbVertex
100
AcDb2dVertex
 10
320.5298875086671
 20
712.6437890797476
 30
0.0
  0
VERTEX
  5
384
330
2C8
100
AcDbEntity
  8
Make2D$可见线$普通线
100
AcDbVertex
100
AcDb2dVertex
 10
320.4846673095997
 20
712.7217739873486
 30
0.0
  0
VERTEX
  5
385
330
2C8
100
AcDbEntity
  8
Make2D$可见线$普通线
100
AcDbVertex
100
AcDb2dVertex
 10
320.4408675235674
 20
712.8005180842238
 30
0.0
  0
VERTEX
  5
386
330
2C8
100
AcDbEntity
  8
Make2D$可见线$普通线
100
AcDbVertex
100
AcDb2dVertex
 10
320.3985005296316
 20
712.8799941042132
 30
0.0
  0
VERTEX
  5
387
330
2C8
100
AcDbEntity
  8
Make2D$可见线$普通线
100
AcDbVertex
100
AcDb2dVertex
 10
320.3575787068543
 20
712.9601747811569
 30
0.0
  0
VERTEX
  5
388
330
2C8
100
AcDbEntity
  8
Make2D$可见线$普通线
100
AcDbVertex
100
AcDb2dVertex
 10
320.3181144342968
 20
713.0410328488945
 30
0.0
  0
VERTEX
  5
389
330
2C8
100
AcDbEntity
  8
Make2D$可见线$普通线
100
AcDbVertex
100
AcDb2dVertex
 10
320.2801200910212
 20
713.122541041266
 30
0.0
  0
VERTEX
  5
38A
330
2C8
100
AcDbEntity
  8
Make2D$可见线$普通线
100
AcDbVertex
100
AcDb2dVertex
 10
320.2436080560888
 20
713.2046720921113
 30
0.0
  0
VERTEX
  5
38B
330
2C8
100
AcDbEntity
  8
Make2D$可见线$普通线
100
AcDbVertex
100
AcDb2dVertex
 10
320.2085907085614
 20
713.2873987352702
 30
0.0
  0
VERTEX
  5
38C
330
2C8
100
AcDbEntity
  8
Make2D$可见线$普通线
100
AcDbVertex
100
AcDb2dVertex
 10
320.1750804275007
 20
713.3706937045829
 30
0.0
  0
VERTEX
  5
38D
330
2C8
100
AcDbEntity
  8
Make2D$可见线$普通线
100
AcDbVertex
100
AcDb2dVertex
 10
320.1317019413312
 20
713.4854949383625
 30
0.0
  0
VERTEX
  5
38E
330
2C8
100
AcDbEntity
  8
Make2D$可见线$普通线
100
AcDbVertex
100
AcDb2dVertex
 10
320.0911581729457
 20
713.6012449715771
 30
0.0
  0
VERTEX
  5
38F
330
2C8
100
AcDbEntity
  8
Make2D$可见线$普通线
100
AcDbVertex
100
AcDb2dVertex
 10
320.0534412150931
 20
713.717880372124
 30
0.0
  0
VERTEX
  5
390
330
2C8
100
AcDbEntity
  8
Make2D$可见线$普通线
100
AcDbVertex
100
AcDb2dVertex
 10
320.0185431605225
 20
713.8353377079009
 30
0.0
  0
VERTEX
  5
391
330
2C8
100
AcDbEntity
  8
Make2D$可见线$普通线
100
AcDbVertex
100
AcDb2dVertex
 10
319.9864561019829
 20
713.9535535468052
 30
0.0
  0
VERTEX
  5
392
330
2C8
100
AcDbEntity
  8
Make2D$可见线$普通线
100
AcDbVertex
100
AcDb2dVertex
 10
319.9571721322233
 20
714.0724644567348
 30
0.0
  0
VERTEX
  5
393
330
2C8
100
AcDbEntity
  8
Make2D$可见线$普通线
100
AcDbVertex
100
AcDb2dVertex
 10
319.9306833439926
 20
714.1920070055869
 30
0.0
  0
VERTEX
  5
394
330
2C8
100
AcDbEntity
  8
Make2D$可见线$普通线
100
AcDbVertex
100
AcDb2dVertex
 10
319.9069818300399
 20
714.3121177612593
 30
0.0
  0
VERTEX
  5
395
330
2C8
100
AcDbEntity
  8
Make2D$可见线$普通线
100
AcDbVertex
100
AcDb2dVertex
 10
319.8860596831142
 20
714.4327332916495
 30
0.0
  0
VERTEX
  5
396
330
2C8
100
AcDbEntity
  8
Make2D$可见线$普通线
100
AcDbVertex
100
AcDb2dVertex
 10
319.8679089959644
 20
714.5537901646551
 30
0.0
  0
VERTEX
  5
397
330
2C8
100
AcDbEntity
  8
Make2D$可见线$普通线
100
AcDbVertex
100
AcDb2dVertex
 10
319.8525218613397
 20
714.6752249481735
 30
0.0
  0
VERTEX
  5
398
330
2C8
100
AcDbEntity
  8
Make2D$可见线$普通线
100
AcDbVertex
100
AcDb2dVertex
 10
319.8398903719889
 20
714.7969742101025
 30
0.0
  0
VERTEX
  5
399
330
2C8
100
AcDbEntity
  8
Make2D$可见线$普通线
100
AcDbVertex
100
AcDb2dVertex
 10
319.8300066206612
 20
714.9189745183396
 30
0.0
  0
VERTEX
  5
39A
330
2C8
100
AcDbEntity
  8
Make2D$可见线$普通线
100
AcDbVertex
100
AcDb2dVertex
 10
319.8228627001054
 20
715.0411624407823
 30
0.0
  0
VERTEX
  5
39B
330
2C8
100
AcDbEntity
  8
Make2D$可见线$普通线
100
AcDbVertex
100
AcDb2dVertex
 10
319.8184507030706
 20
715.1634745453281
 30
0.0
  0
VERTEX
  5
39C
330
2C8
100
AcDbEntity
  8
Make2D$可见线$普通线
100
AcDbVertex
100
AcDb2dVertex
 10
319.8167627223058
 20
715.2858473998748
 30
0.0
  0
VERTEX
  5
39D
330
2C8
100
AcDbEntity
  8
Make2D$可见线$普通线
100
AcDbVertex
100
AcDb2dVertex
 10
319.8176899683396
 20
715.4046144362324
 30
0.0
  0
VERTEX
  5
39E
330
2C8
100
AcDbEntity
  8
Make2D$可见线$普通线
100
AcDbVertex
100
AcDb2dVertex
 10
319.8213868090556
 20
715.5233756318619
 30
0.0
  0
VERTEX
  5
39F
330
2C8
100
AcDbEntity
  8
Make2D$可见线$普通线
100
AcDbVertex
100
AcDb2dVertex
 10
319.8278403429981
 20
715.6420681493779
 30
0.0
  0
VERTEX
  5
3A0
330
2C8
100
AcDbEntity
  8
Make2D$可见线$普通线
100
AcDbVertex
100
AcDb2dVertex
 10
319.8370376687117
 20
715.7606291513944
 30
0.0
  0
VERTEX
  5
3A1
330
2C8
100
AcDbEntity
  8
Make2D$可见线$普通线
100
AcDbVertex
100
AcDb2dVertex
 10
319.8489658847404
 20
715.8789958005259
 30
0.0
  0
VERTEX
  5
3A2
330
2C8
100
AcDbEntity
  8
Make2D$可见线$普通线
100
AcDbVertex
100
AcDb2dVertex
 10
319.8636120896288
 20
715.9971052593869
 30
0.0
  0
VERTEX
  5
3A3
330
2C8
100
AcDbEntity
  8
Make2D$可见线$普通线
100
AcDbVertex
100
AcDb2dVertex
 10
319.880963381921
 20
716.1148946905917
 30
0.0
  0
VERTEX
  5
3A4
330
2C8
100
AcDbEntity
  8
Make2D$可见线$普通线
100
AcDbVertex
100
AcDb2dVertex
 10
319.9010068601616
 20
716.2323012567548
 30
0.0
  0
VERTEX
  5
3A5
330
2C8
100
AcDbEntity
  8
Make2D$可见线$普通线
100
AcDbVertex
100
AcDb2dVertex
 10
319.9237296228948
 20
716.3492621204905
 30
0.0
  0
VERTEX
  5
3A6
330
2C8
100
AcDbEntity
  8
Make2D$可见线$普通线
100
AcDbVertex
100
AcDb2dVertex
 10
319.9491187686648
 20
716.4657144444132
 30
0.0
  0
VERTEX
  5
3A7
330
2C8
100
AcDbEntity
  8
Make2D$可见线$普通线
100
AcDbVertex
100
AcDb2dVertex
 10
319.9771613960162
 20
716.5815953911371
 30
0.0
  0
VERTEX
  5
3A8
330
2C8
100
AcDbEntity
  8
Make2D$可见线$普通线
100
AcDbVertex
100
AcDb2dVertex
 10
320.0078446034932
 20
716.6968421232768
 30
0.0
  0
VERTEX
  5
3A9
330
2C8
100
AcDbEntity
  8
Make2D$可见线$普通线
100
AcDbVertex
100
AcDb2dVertex
 10
320.0411554896401
 20
716.8113918034467
 30
0.0
  0
VERTEX
  5
3AA
330
2C8
100
AcDbEntity
  8
Make2D$可见线$普通线
100
AcDbVertex
100
AcDb2dVertex
 10
320.0770811530014
 20
716.9251815942611
 30
0.0
  0
VERTEX
  5
3AB
330
2C8
100
AcDbEntity
  8
Make2D$可见线$普通线
100
AcDbVertex
100
AcDb2dVertex
 10
320.1156086921213
 20
717.0381486583344
 30
0.0
  0
VERTEX
  5
3AC
330
2C8
100
AcDbEntity
  8
Make2D$可见线$普通线
100
AcDbVertex
100
AcDb2dVertex
 10
320.1567252055441
 20
717.1502301582809
 30
0.0
  0
VERTEX
  5
3AD
330
2C8
100
AcDbEntity
  8
Make2D$可见线$普通线
100
AcDbVertex
100
AcDb2dVertex
 10
320.2004177918143
 20
717.2613632567152
 30
0.0
  0
VERTEX
  5
3AE
330
2C8
100
AcDbEntity
  8
Make2D$可见线$普通线
100
AcDbVertex
100
AcDb2dVertex
 10
320.2466735494761
 20
717.3714851162515
 30
0.0
  0
VERTEX
  5
3AF
330
2C8
100
AcDbEntity
  8
Make2D$可见线$普通线
100
AcDbVertex
100
AcDb2dVertex
 10
320.2954795770739
 20
717.4805328995042
 30
0.0
  0
VERTEX
  5
3B0
330
2C8
100
AcDbEntity
  8
Make2D$可见线$普通线
100
AcDbVertex
100
AcDb2dVertex
 10
320.346822973152
 20
717.5884437690877
 30
0.0
  0
VERTEX
  5
3B1
330
2C8
100
AcDbEntity
  8
Make2D$可见线$普通线
100
AcDbVertex
100
AcDb2dVertex
 10
320.4006908362548
 20
717.6951548876165
 30
0.0
  0
VERTEX
  5
3B2
330
2C8
100
AcDbEntity
  8
Make2D$可见线$普通线
100
AcDbVertex
100
AcDb2dVertex
 10
320.4570702649266
 20
717.8006034177049
 30
0.0
  0
VERTEX
  5
3B3
330
2C8
100
AcDbEntity
  8
Make2D$可见线$普通线
100
AcDbVertex
100
AcDb2dVertex
 10
320.5159483577117
 20
717.9047265219672
 30
0.0
  0
VERTEX
  5
3B4
330
2C8
100
AcDbEntity
  8
Make2D$可见线$普通线
100
AcDbVertex
100
AcDb2dVertex
 10
320.5773122131545
 20
718.0074613630179
 30
0.0
  0
VERTEX
  5
3B5
330
2C8
100
AcDbEntity
  8
Make2D$可见线$普通线
100
AcDbVertex
100
AcDb2dVertex
 10
320.6411489297993
 20
718.1087451034713
 30
0.0
  0
VERTEX
  5
3B6
330
2C8
100
AcDbEntity
  8
Make2D$可见线$普通线
100
AcDbVertex
100
AcDb2dVertex
 10
320.7074456061904
 20
718.2085149059419
 30
0.0
  0
VERTEX
  5
3B7
330
2C8
100
AcDbEntity
  8
Make2D$可见线$普通线
100
AcDbVertex
100
AcDb2dVertex
 10
320.7761893408722
 20
718.306707933044
 30
0.0
  0
VERTEX
  5
3B8
330
2C8
100
AcDbEntity
  8
Make2D$可见线$普通线
100
AcDbVertex
100
AcDb2dVertex
 10
320.8473672323891
 20
718.4032613473919
 30
0.0
  0
VERTEX
  5
3B9
330
2C8
100
AcDbEntity
  8
Make2D$可见线$普通线
100
AcDbVertex
100
AcDb2dVertex
 10
320.9209663792853
 20
718.4981123116002
 30
0.0
  0
VERTEX
  5
3BA
330
2C8
100
AcDbEntity
  8
Make2D$可见线$普通线
100
AcDbVertex
100
AcDb2dVertex
 10
320.9969738801053
 20
718.591197988283
 30
0.0
  0
VERTEX
  5
3BB
330
2C8
100
AcDbEntity
  8
Make2D$可见线$普通线
100
AcDbVertex
100
AcDb2dVertex
 10
321.0753768333932
 20
718.6824555400549
 30
0.0
  0
VERTEX
  5
3BC
330
2C8
100
AcDbEntity
  8
Make2D$可见线$普通线
100
AcDbVertex
100
AcDb2dVertex
 10
321.1561623376936
 20
718.7718221295304
 30
0.0
  0
VERTEX
  5
3BD
330
2C8
100
AcDbEntity
  8
Make2D$可见线$普通线
100
AcDbVertex
100
AcDb2dVertex
 10
321.2446867836362
 20
718.864738811382
 30
0.0
  0
VERTEX
  5
3BE
330
2C8
100
AcDbEntity
  8
Make2D$可见线$普通线
100
AcDbVertex
100
AcDb2dVertex
 10
321.335819059793
 20
718.9553771058336
 30
0.0
  0
VERTEX
  5
3BF
330
2C8
100
AcDbEntity
  8
Make2D$可见线$普通线
100
AcDbVertex
100
AcDb2dVertex
 10
321.4294857199322
 20
719.0436693646441
 30
0.0
  0
VERTEX
  5
3C0
330
2C8
100
AcDbEntity
  8
Make2D$可见线$普通线
100
AcDbVertex
100
AcDb2dVertex
 10
321.525613317822
 20
719.1295479395724
 30
0.0
  0
VERTEX
  5
3C1
330
2C8
100
AcDbEntity
  8
Make2D$可见线$普通线
100
AcDbVertex
100
AcDb2dVertex
 10
321.6241284072304
 20
719.2129451823778
 30
0.0
  0
VERTEX
  5
3C2
330
2C8
100
AcDbEntity
  8
Make2D$可见线$普通线
100
AcDbVertex
100
AcDb2dVertex
 10
321.7249575419254
 20
719.2937934448192
 30
0.0
  0
VERTEX
  5
3C3
330
2C8
100
AcDbEntity
  8
Make2D$可见线$普通线
100
AcDbVertex
100
AcDb2dVertex
 10
321.8280272756752
 20
719.3720250786557
 30
0.0
  0
VERTEX
  5
3C4
330
2C8
100
AcDbEntity
  8
Make2D$可见线$普通线
100
AcDbVertex
100
AcDb2dVertex
 10
321.933264162248
 20
719.4475724356463
 30
0.0
  0
VERTEX
  5
3C5
330
2C8
100
AcDbEntity
  8
Make2D$可见线$普通线
100
AcDbVertex
100
AcDb2dVertex
 10
322.0405947554118
 20
719.52036786755
 30
0.0
  0
VERTEX
  5
3C6
330
2C8
100
AcDbEntity
  8
Make2D$可见线$普通线
100
AcDbVertex
100
AcDb2dVertex
 10
322.1499456089347
 20
719.5903437261256
 30
0.0
  0
VERTEX
  5
3C7
330
2C8
100
AcDbEntity
  8
Make2D$可见线$普通线
100
AcDbVertex
100
AcDb2dVertex
 10
322.2612432765849
 20
719.6574323631326
 30
0.0
  0
VERTEX
  5
3C8
330
2C8
100
AcDbEntity
  8
Make2D$可见线$普通线
100
AcDbVertex
100
AcDb2dVertex
 10
322.3744143121305
 20
719.7215661303294
 30
0.0
  0
VERTEX
  5
3C9
330
2C8
100
AcDbEntity
  8
Make2D$可见线$普通线
100
AcDbVertex
100
AcDb2dVertex
 10
322.4893852693396
 20
719.7826773794754
 30
0.0
  0
VERTEX
  5
3CA
330
2C8
100
AcDbEntity
  8
Make2D$可见线$普通线
100
AcDbVertex
100
AcDb2dVertex
 10
322.6060827019802
 20
719.8406984623298
 30
0.0
  0
VERTEX
  5
3CB
330
2C8
100
AcDbEntity
  8
Make2D$可见线$普通线
100
AcDbVertex
100
AcDb2dVertex
 10
322.7244331638206
 20
719.8955617306513
 30
0.0
  0
VERTEX
  5
3CC
330
2C8
100
AcDbEntity
  8
Make2D$可见线$普通线
100
AcDbVertex
100
AcDb2dVertex
 10
322.8443632086288
 20
719.947199536199
 30
0.0
  0
VERTEX
  5
3CD
330
2C8
100
AcDbEntity
  8
Make2D$可见线$普通线
100
AcDbVertex
100
AcDb2dVertex
 10
322.9544095525164
 20
719.9911826409175
 30
0.0
  0
VERTEX
  5
3CE
330
2C8
100
AcDbEntity
  8
Make2D$可见线$普通线
100
AcDbVertex
100
AcDb2dVertex
 10
323.0656187875626
 20
720.0324426089675
 30
0.0
  0
VERTEX
  5
3CF
330
2C8
100
AcDbEntity
  8
Make2D$可见线$普通线
100
AcDbVertex
100
AcDb2dVertex
 10
323.1779154831316
 20
720.0709638474539
 30
0.0
  0
VERTEX
  5
3D0
330
2C8
100
AcDbEntity
  8
Make2D$可见线$普通线
100
AcDbVertex
100
AcDb2dVertex
 10
323.2912242085877
 20
720.1067307634816
 30
0.0
  0
VERTEX
  5
3D1
330
2C8
100
AcDbEntity
  8
Make2D$可见线$普通线
100
AcDbVertex
100
AcDb2dVertex
 10
323.4054695332947
 20
720.1397277641554
 30
0.0
  0
VERTEX
  5
3D2
330
2C8
100
AcDbEntity
  8
Make2D$可见线$普通线
100
AcDbVertex
100
AcDb2dVertex
 10
323.5205760266171
 20
720.1699392565802
 30
0.0
  0
VERTEX
  5
3D3
330
2C8
100
AcDbEntity
  8
Make2D$可见线$普通线
100
AcDbVertex
100
AcDb2dVertex
 10
323.6364682579189
 20
720.1973496478608
 30
0.0
  0
VERTEX
  5
3D4
330
2C8
100
AcDbEntity
  8
Make2D$可见线$普通线
100
AcDbVertex
100
AcDb2dVertex
 10
323.7530707965643
 20
720.2219433451023
 30
0.0
  0
VERTEX
  5
3D5
330
2C8
100
AcDbEntity
  8
Make2D$可见线$普通线
100
AcDbVertex
100
AcDb2dVertex
 10
323.8703082119174
 20
720.2437047554097
 30
0.0
  0
VERTEX
  5
3D6
330
2C8
100
AcDbEntity
  8
Make2D$可见线$普通线
100
AcDbVertex
100
AcDb2dVertex
 10
323.9881050733424
 20
720.2626182858874
 30
0.0
  0
VERTEX
  5
3D7
330
2C8
100
AcDbEntity
  8
Make2D$可见线$普通线
100
AcDbVertex
100
AcDb2dVertex
 10
324.1063859502035
 20
720.2786683436406
 30
0.0
  0
VERTEX
  5
3D8
330
2C8
100
AcDbEntity
  8
Make2D$可见线$普通线
100
AcDbVertex
100
AcDb2dVertex
 10
324.2250754118648
 20
720.2918393357741
 30
0.0
  0
VERTEX
  5
3D9
330
2C8
100
AcDbEntity
  8
Make2D$可见线$普通线
100
AcDbVertex
100
AcDb2dVertex
 10
324.3440980276905
 20
720.302115669393
 30
0.0
  0
VERTEX
  5
3DA
330
2C8
100
AcDbEntity
  8
Make2D$可见线$普通线
100
AcDbVertex
100
AcDb2dVertex
 10
324.4633783670447
 20
720.3094817516018
 30
0.0
  0
VERTEX
  5
3DB
330
2C8
100
AcDbEntity
  8
Make2D$可见线$普通线
100
AcDbVertex
100
AcDb2dVertex
 10
324.5828409992915
 20
720.3139219895056
 30
0.0
  0
VERTEX
  5
3DC
330
2C8
100
AcDbEntity
  8
Make2D$可见线$普通线
100
AcDbVertex
100
AcDb2dVertex
 10
324.7024104937952
 20
720.3154207902094
 30
0.0
  0
SEQEND
  5
3DD
330
2C8
100
AcDbEntity
  8
Make2D$可见线$普通线
  0
POLYLINE
  5
3DE
330
1F
100
AcDbEntity
  8
Make2D$可见线$普通线
100
AcDb2dPolyline
 66
     1
 10
0.0
 20
0.0
 30
0.0
  0
VERTEX
  5
3DF
330
3DE
100
AcDbEntity
  8
Make2D$可见线$普通线
100
AcDbVertex
100
AcDb2dVertex
 10
327.7024179154729
 20
722.7858474004489
 30
0.0
 42
0.4142135623731283
  0
VERTEX
  5
3E0
330
3DE
100
AcDbEntity
  8
Make2D$可见线$普通线
100
AcDbVertex
100
AcDb2dVertex
 10
328.702417915473
 20
723.7858474004488
 30
0.0
  0
VERTEX
  5
3E1
330
3DE
100
AcDbEntity
  8
Make2D$可见线$普通线
100
AcDbVertex
100
AcDb2dVertex
 10
328.702417915473
 20
736.2858474004489
 30
0.0
 42
0.4142135623730459
  0
VERTEX
  5
3E2
330
3DE
100
AcDbEntity
  8
Make2D$可见线$普通线
100
AcDbVertex
100
AcDb2dVertex
 10
327.7024179154735
 20
737.2858474004488
 30
0.0
  0
VERTEX
  5
3E3
330
3DE
100
AcDbEntity
  8
Make2D$可见线$普通线
100
AcDbVertex
100
AcDb2dVertex
 10
321.7024179154729
 20
737.285847400449
 30
0.0
 42
0.4142135623730415
  0
VERTEX
  5
3E4
330
3DE
100
AcDbEntity
  8
Make2D$可见线$普通线
100
AcDbVertex
100
AcDb2dVertex
 10
320.702417915473
 20
736.2858474004486
 30
0.0
  0
VERTEX
  5
3E5
330
3DE
100
AcDbEntity
  8
Make2D$可见线$普通线
100
AcDbVertex
100
AcDb2dVertex
 10
320.702417915473
 20
723.7858474004488
 30
0.0
 42
0.414213562373127
  0
VERTEX
  5
3E6
330
3DE
100
AcDbEntity
  8
Make2D$可见线$普通线
100
AcDbVertex
100
AcDb2dVertex
 10
321.7024179154739
 20
722.785847400449
 30
0.0
  0
SEQEND
  5
3E7
330
3DE
100
AcDbEntity
  8
Make2D$可见线$普通线
  0
POLYLINE
  5
3E8
330
1F
100
AcDbEntity
  8
Make2D$可见线$普通线
100
AcDb2dPolyline
 66
     1
 10
0.0
 20
0.0
 30
0.0
  0
VERTEX
  5
3E9
330
3E8
100
AcDbEntity
  8
Make2D$可见线$普通线
100
AcDbVertex
100
AcDb2dVertex
 10
321.5204548630608
 20
722.8025420320323
 30
0.0
  0
VERTEX
  5
3EA
330
3E8
100
AcDbEntity
  8
Make2D$可见线$普通线
100
AcDbVertex
100
AcDb2dVertex
 10
321.7024179154729
 20
722.7858474004489
 30
0.0
  0
VERTEX
  5
3EB
330
3E8
100
AcDbEntity
  8
Make2D$可见线$普通线
100
AcDbVertex
100
AcDb2dVertex
 10
327.7024179154729
 20
722.7858474004489
 30
0.0
  0
VERTEX
  5
3EC
330
3E8
100
AcDbEntity
  8
Make2D$可见线$普通线
100
AcDbVertex
100
AcDb2dVertex
 10
327.884380967885
 20
722.8025420320323
 30
0.0
  0
SEQEND
  5
3ED
330
3E8
100
AcDbEntity
  8
Make2D$可见线$普通线
  0
POLYLINE
  5
3EE
330
1F
100
AcDbEntity
  8
Make2D$可见线$普通线
100
AcDb2dPolyline
 66
     1
 10
0.0
 20
0.0
 30
0.0
  0
VERTEX
  5
3EF
330
3EE
100
AcDbEntity
  8
Make2D$可见线$普通线
100
AcDbVertex
100
AcDb2dVertex
 10
318.8718761525243
 20
670.27734681023
 30
0.0
 42
0.0063271003549236
  0
VERTEX
  5
3F0
330
3EE
100
AcDbEntity
  8
Make2D$可见线$普通线
100
AcDbVertex
100
AcDb2dVertex
 10
270.1614695673121
 20
669.5278030505033
 30
0.0
  0
VERTEX
  5
3F1
330
3EE
100
AcDbEntity
  8
Make2D$可见线$普通线
100
AcDbVertex
100
AcDb2dVertex
 10
269.9373626740173
 20
667.0140560981935
 30
0.0
  0
VERTEX
  5
3F2
330
3EE
100
AcDbEntity
  8
Make2D$可见线$普通线
100
AcDbVertex
100
AcDb2dVertex
 10
269.9372905150326
 20
667.013664341482
 30
0.0
  0
VERTEX
  5
3F3
330
3EE
100
AcDbEntity
  8
Make2D$可见线$普通线
100
AcDbVertex
100
AcDb2dVertex
 10
269.9372412042835
 20
667.0132733066546
 30
0.0
  0
VERTEX
  5
3F4
330
3EE
100
AcDbEntity
  8
Make2D$可见线$普通线
100
AcDbVertex
100
AcDb2dVertex
 10
269.9372147132024
 20
667.0128829962605
 30
0.0
  0
VERTEX
  5
3F5
330
3EE
100
AcDbEntity
  8
Make2D$可见线$普通线
100
AcDbVertex
100
AcDb2dVertex
 10
269.9372110132218
 20
667.0124934128488
 30
0.0
  0
VERTEX
  5
3F6
330
3EE
100
AcDbEntity
  8
Make2D$可见线$普通线
100
AcDbVertex
100
AcDb2dVertex
 10
269.9372300757744
 20
667.012104558969
 30
0.0
  0
VERTEX
  5
3F7
330
3EE
100
AcDbEntity
  8
Make2D$可见线$普通线
100
AcDbVertex
100
AcDb2dVertex
 10
269.9372718722927
 20
667.0117164371704
 30
0.0
  0
VERTEX
  5
3F8
330
3EE
100
AcDbEntity
  8
Make2D$可见线$普通线
100
AcDbVertex
100
AcDb2dVertex
 10
269.9373363742092
 20
667.0113290500019
 30
0.0
  0
VERTEX
  5
3F9
330
3EE
100
AcDbEntity
  8
Make2D$可见线$普通线
100
AcDbVertex
100
AcDb2dVertex
 10
269.9374235529564
 20
667.0109424000129
 30
0.0
  0
VERTEX
  5
3FA
330
3EE
100
AcDbEntity
  8
Make2D$可见线$普通线
100
AcDbVertex
100
AcDb2dVertex
 10
269.9375333799669
 20
667.0105564897526
 30
0.0
  0
VERTEX
  5
3FB
330
3EE
100
AcDbEntity
  8
Make2D$可见线$普通线
100
AcDbVertex
100
AcDb2dVertex
 10
269.937665826673
 20
667.0101713217703
 30
0.0
  0
VERTEX
  5
3FC
330
3EE
100
AcDbEntity
  8
Make2D$可见线$普通线
100
AcDbVertex
100
AcDb2dVertex
 10
269.9378208645074
 20
667.0097868986152
 30
0.0
  0
VERTEX
  5
3FD
330
3EE
100
AcDbEntity
  8
Make2D$可见线$普通线
100
AcDbVertex
100
AcDb2dVertex
 10
269.9379984649026
 20
667.0094032228363
 30
0.0
  0
VERTEX
  5
3FE
330
3EE
100
AcDbEntity
  8
Make2D$可见线$普通线
100
AcDbVertex
100
AcDb2dVertex
 10
269.9381985992911
 20
667.0090202969832
 30
0.0
  0
VERTEX
  5
3FF
330
3EE
100
AcDbEntity
  8
Make2D$可见线$普通线
100
AcDbVertex
100
AcDb2dVertex
 10
269.9384212391054
 20
667.0086381236049
 30
0.0
  0
VERTEX
  5
400
330
3EE
100
AcDbEntity
  8
Make2D$可见线$普通线
100
AcDbVertex
100
AcDb2dVertex
 10
269.9386663557781
 20
667.0082567052507
 30
0.0
  0
VERTEX
  5
401
330
3EE
100
AcDbEntity
  8
Make2D$可见线$普通线
100
AcDbVertex
100
AcDb2dVertex
 10
269.9389339207417
 20
667.0078760444699
 30
0.0
  0
VERTEX
  5
402
330
3EE
100
AcDbEntity
  8
Make2D$可见线$普通线
100
AcDbVertex
100
AcDb2dVertex
 10
269.9392239054287
 20
667.0074961438116
 30
0.0
  0
VERTEX
  5
403
330
3EE
100
AcDbEntity
  8
Make2D$可见线$普通线
100
AcDbVertex
100
AcDb2dVertex
 10
269.9395362812716
 20
667.0071170058251
 30
0.0
  0
VERTEX
  5
404
330
3EE
100
AcDbEntity
  8
Make2D$可见线$普通线
100
AcDbVertex
100
AcDb2dVertex
 10
269.939871019703
 20
667.0067386330595
 30
0.0
  0
VERTEX
  5
405
330
3EE
100
AcDbEntity
  8
Make2D$可见线$普通线
100
AcDbVertex
100
AcDb2dVertex
 10
269.9402280921553
 20
667.0063610280642
 30
0.0
  0
VERTEX
  5
406
330
3EE
100
AcDbEntity
  8
Make2D$可见线$普通线
100
AcDbVertex
100
AcDb2dVertex
 10
269.9406074700612
 20
667.0059841933885
 30
0.0
  0
VERTEX
  5
407
330
3EE
100
AcDbEntity
  8
Make2D$可见线$普通线
100
AcDbVertex
100
AcDb2dVertex
 10
269.9410091248531
 20
667.0056081315812
 30
0.0
  0
VERTEX
  5
408
330
3EE
100
AcDbEntity
  8
Make2D$可见线$普通线
100
AcDbVertex
100
AcDb2dVertex
 10
269.9414330279636
 20
667.005232845192
 30
0.0
  0
VERTEX
  5
409
330
3EE
100
AcDbEntity
  8
Make2D$可见线$普通线
100
AcDbVertex
100
AcDb2dVertex
 10
269.9418791508251
 20
667.00485833677
 30
0.0
  0
VERTEX
  5
40A
330
3EE
100
AcDbEntity
  8
Make2D$可见线$普通线
100
AcDbVertex
100
AcDb2dVertex
 10
269.9423474648702
 20
667.0044846088642
 30
0.0
  0
VERTEX
  5
40B
330
3EE
100
AcDbEntity
  8
Make2D$可见线$普通线
100
AcDbVertex
100
AcDb2dVertex
 10
269.9428379415314
 20
667.0041116640241
 30
0.0
  0
VERTEX
  5
40C
330
3EE
100
AcDbEntity
  8
Make2D$可见线$普通线
100
AcDbVertex
100
AcDb2dVertex
 10
269.9433505522412
 20
667.0037395047989
 30
0.0
  0
VERTEX
  5
40D
330
3EE
100
AcDbEntity
  8
Make2D$可见线$普通线
100
AcDbVertex
100
AcDb2dVertex
 10
269.9438852684323
 20
667.0033681337377
 30
0.0
  0
VERTEX
  5
40E
330
3EE
100
AcDbEntity
  8
Make2D$可见线$普通线
100
AcDbVertex
100
AcDb2dVertex
 10
269.944442061537
 20
667.0029975533897
 30
0.0
  0
VERTEX
  5
40F
330
3EE
100
AcDbEntity
  8
Make2D$可见线$普通线
100
AcDbVertex
100
AcDb2dVertex
 10
269.9450209029878
 20
667.0026277663044
 30
0.0
  0
VERTEX
  5
410
330
3EE
100
AcDbEntity
  8
Make2D$可见线$普通线
100
AcDbVertex
100
AcDb2dVertex
 10
269.9462446166584
 20
667.001890582118
 30
0.0
  0
VERTEX
  5
411
330
3EE
100
AcDbEntity
  8
Make2D$可见线$普通线
100
AcDbVertex
100
AcDb2dVertex
 10
269.947556180904
 20
667.0011566015726
 30
0.0
  0
VERTEX
  5
412
330
3EE
100
AcDbEntity
  8
Make2D$可见线$普通线
100
AcDbVertex
100
AcDb2dVertex
 10
269.948955367185
 20
667.0004258450617
 30
0.0
  0
VERTEX
  5
413
330
3EE
100
AcDbEntity
  8
Make2D$可见线$普通线
100
AcDbVertex
100
AcDb2dVertex
 10
269.9504419469615
 20
666.9996983329794
 30
0.0
  0
VERTEX
  5
414
330
3EE
100
AcDbEntity
  8
Make2D$可见线$普通线
100
AcDbVertex
100
AcDb2dVertex
 10
269.9520156916936
 20
666.9989740857195
 30
0.0
  0
VERTEX
  5
415
330
3EE
100
AcDbEntity
  8
Make2D$可见线$普通线
100
AcDbVertex
100
AcDb2dVertex
 10
269.9536763728416
 20
666.9982531236757
 30
0.0
  0
VERTEX
  5
416
330
3EE
100
AcDbEntity
  8
Make2D$可见线$普通线
100
AcDbVertex
100
AcDb2dVertex
 10
269.9554237618656
 20
666.9975354672418
 30
0.0
  0
VERTEX
  5
417
330
3EE
100
AcDbEntity
  8
Make2D$可见线$普通线
100
AcDbVertex
100
AcDb2dVertex
 10
269.9591777493825
 20
666.9961101527795
 30
0.0
  0
VERTEX
  5
418
330
3EE
100
AcDbEntity
  8
Make2D$可见线$普通线
100
AcDbVertex
100
AcDb2dVertex
 10
269.9632758259259
 20
666.9946983054831
 30
0.0
  0
VERTEX
  5
419
330
3EE
100
AcDbEntity
  8
Make2D$可见线$普通线
100
AcDbVertex
100
AcDb2dVertex
 10
269.9677161631772
 20
666.9933000885031
 30
0.0
  0
VERTEX
  5
41A
330
3EE
100
AcDbEntity
  8
Make2D$可见线$普通线
100
AcDbVertex
100
AcDb2dVertex
 10
269.9724969328179
 20
666.9919156649904
 30
0.0
  0
VERTEX
  5
41B
330
3EE
100
AcDbEntity
  8
Make2D$可见线$普通线
100
AcDbVertex
100
AcDb2dVertex
 10
269.9776163065294
 20
666.9905451980956
 30
0.0
  0
VERTEX
  5
41C
330
3EE
100
AcDbEntity
  8
Make2D$可见线$普通线
100
AcDbVertex
100
AcDb2dVertex
 10
269.9888635528911
 20
666.987846786762
 30
0.0
  0
VERTEX
  5
41D
330
3EE
100
AcDbEntity
  8
Make2D$可见线$普通线
100
AcDbVertex
100
AcDb2dVertex
 10
270.0014432757141
 20
666.9852061597078
 30
0.0
  0
VERTEX
  5
41E
330
3EE
100
AcDbEntity
  8
Make2D$可见线$普通线
100
AcDbVertex
100
AcDb2dVertex
 10
270.0153408484503
 20
666.9826246221379
 30
0.0
  0
VERTEX
  5
41F
330
3EE
100
AcDbEntity
  8
Make2D$可见线$普通线
100
AcDbVertex
100
AcDb2dVertex
 10
270.0305416445517
 20
666.9801034792577
 30
0.0
  0
VERTEX
  5
420
330
3EE
100
AcDbEntity
  8
Make2D$可见线$普通线
100
AcDbVertex
100
AcDb2dVertex
 10
270.0647944006577
 20
666.9752475983867
 30
0.0
  0
VERTEX
  5
421
330
3EE
100
AcDbEntity
  8
Make2D$可见线$普通线
100
AcDbVertex
100
AcDb2dVertex
 10
270.104084531647
 20
666.9706489587363
 30
0.0
  0
VERTEX
  5
422
330
3EE
100
AcDbEntity
  8
Make2D$可见线$普通线
100
AcDbVertex
100
AcDb2dVertex
 10
270.1973088687367
 20
666.9622651696633
 30
0.0
  0
VERTEX
  5
423
330
3EE
100
AcDbEntity
  8
Make2D$可见线$普通线
100
AcDbVertex
100
AcDb2dVertex
 10
270.3092785567425
 20
666.9550356451705
 30
0.0
  0
VERTEX
  5
424
330
3EE
100
AcDbEntity
  8
Make2D$可见线$普通线
100
AcDbVertex
100
AcDb2dVertex
 10
270.5857095891879
 20
666.9443735224527
 30
0.0
  0
VERTEX
  5
425
330
3EE
100
AcDbEntity
  8
Make2D$可见线$普通线
100
AcDbVertex
100
AcDb2dVertex
 10
271.3131621817063
 20
666.9396240488093
 30
0.0
  0
VERTEX
  5
426
330
3EE
100
AcDbEntity
  8
Make2D$可见线$普通线
100
AcDbVertex
100
AcDb2dVertex
 10
272.1709629359527
 20
666.956998794737
 30
0.0
 42
-0.007872651452681
  0
VERTEX
  5
427
330
3EE
100
AcDbEntity
  8
Make2D$可见线$普通线
100
AcDbVertex
100
AcDb2dVertex
 10
324.7024108512135
 20
667.7691551100066
 30
0.0
 42
-0.007872648395868
  0
VERTEX
  5
428
330
3EE
100
AcDbEntity
  8
Make2D$可见线$普通线
100
AcDbVertex
100
AcDb2dVertex
 10
377.2338457596737
 20
666.9569992067703
 30
0.0
  0
VERTEX
  5
429
330
3EE
100
AcDbEntity
  8
Make2D$可见线$普通线
100
AcDbVertex
100
AcDb2dVertex
 10
378.0916465025113
 20
666.9396244682611
 30
0.0
  0
VERTEX
  5
42A
330
3EE
100
AcDbEntity
  8
Make2D$可见线$普通线
100
AcDbVertex
100
AcDb2dVertex
 10
378.8190990834223
 20
666.9443739475455
 30
0.0
  0
VERTEX
  5
42B
330
3EE
100
AcDbEntity
  8
Make2D$可见线$普通线
100
AcDbVertex
100
AcDb2dVertex
 10
379.095530109725
 20
666.9550360720134
 30
0.0
  0
VERTEX
  5
42C
330
3EE
100
AcDbEntity
  8
Make2D$可见线$普通线
100
AcDbVertex
100
AcDb2dVertex
 10
379.2074997953311
 20
666.96226559708
 30
0.0
  0
VERTEX
  5
42D
330
3EE
100
AcDbEntity
  8
Make2D$可见线$普通线
100
AcDbVertex
100
AcDb2dVertex
 10
379.3007241304507
 20
666.9706493865208
 30
0.0
  0
VERTEX
  5
42E
330
3EE
100
AcDbEntity
  8
Make2D$可见线$普通线
100
AcDbVertex
100
AcDb2dVertex
 10
379.3400142606118
 20
666.9752480262769
 30
0.0
  0
VERTEX
  5
42F
330
3EE
100
AcDbEntity
  8
Make2D$可见线$普通线
100
AcDbVertex
100
AcDb2dVertex
 10
379.3742670159917
 20
666.9801039072006
 30
0.0
  0
VERTEX
  5
430
330
3EE
100
AcDbEntity
  8
Make2D$可见线$普通线
100
AcDbVertex
100
AcDb2dVertex
 10
379.3894678117679
 20
666.9826250500873
 30
0.0
  0
VERTEX
  5
431
330
3EE
100
AcDbEntity
  8
Make2D$可见线$普通线
100
AcDbVertex
100
AcDb2dVertex
 10
379.4033653842039
 20
666.9852065876503
 30
0.0
  0
VERTEX
  5
432
330
3EE
100
AcDbEntity
  8
Make2D$可见线$普通线
100
AcDbVertex
100
AcDb2dVertex
 10
379.4159451067512
 20
666.987847214684
 30
0.0
  0
VERTEX
  5
433
330
3EE
100
AcDbEntity
  8
Make2D$可见线$普通线
100
AcDbVertex
100
AcDb2dVertex
 10
379.4271923528618
 20
666.9905456259836
 30
0.0
  0
VERTEX
  5
434
330
3EE
100
AcDbEntity
  8
Make2D$可见线$普通线
100
AcDbVertex
100
AcDb2dVertex
 10
379.4323117264569
 20
666.9919160928564
 30
0.0
  0
VERTEX
  5
435
330
3EE
100
AcDbEntity
  8
Make2D$可见线$普通线
100
AcDbVertex
100
AcDb2dVertex
 10
379.4370924959871
 20
666.9933005163437
 30
0.0
  0
VERTEX
  5
436
330
3EE
100
AcDbEntity
  8
Make2D$可见线$普通线
100
AcDbVertex
100
AcDb2dVertex
 10
379.4415328331339
 20
666.9946987332947
 30
0.0
  0
VERTEX
  5
437
330
3EE
100
AcDbEntity
  8
Make2D$可见线$普通线
100
AcDbVertex
100
AcDb2dVertex
 10
379.4456309095789
 20
666.9961105805589
 30
0.0
  0
VERTEX
  5
438
330
3EE
100
AcDbEntity
  8
Make2D$可见线$普通线
100
AcDbVertex
100
AcDb2dVertex
 10
379.4493848970034
 20
666.9975358949856
 30
0.0
  0
VERTEX
  5
439
330
3EE
100
AcDbEntity
  8
Make2D$可见线$普通线
100
AcDbVertex
100
AcDb2dVertex
 10
379.4511322859835
 20
666.9982535514002
 30
0.0
  0
VERTEX
  5
43A
330
3EE
100
AcDbEntity
  8
Make2D$可见线$普通线
100
AcDbVertex
100
AcDb2dVertex
 10
379.452792967089
 20
666.9989745134242
 30
0.0
  0
VERTEX
  5
43B
330
3EE
100
AcDbEntity
  8
Make2D$可见线$普通线
100
AcDbVertex
100
AcDb2dVertex
 10
379.45436671178
 20
666.9996987606634
 30
0.0
  0
VERTEX
  5
43C
330
3EE
100
AcDbEntity
  8
Make2D$可见线$普通线
100
AcDbVertex
100
AcDb2dVertex
 10
379.4558532915169
 20
667.0004262727239
 30
0.0
  0
VERTEX
  5
43D
330
3EE
100
AcDbEntity
  8
Make2D$可见线$普通线
100
AcDbVertex
100
AcDb2dVertex
 10
379.4572524777598
 20
667.0011570292122
 30
0.0
  0
VERTEX
  5
43E
330
3EE
100
AcDbEntity
  8
Make2D$可见线$普通线
100
AcDbVertex
100
AcDb2dVertex
 10
379.4585640419688
 20
667.0018910097342
 30
0.0
  0
VERTEX
  5
43F
330
3EE
100
AcDbEntity
  8
Make2D$可见线$普通线
100
AcDbVertex
100
AcDb2dVertex
 10
379.4597877556042
 20
667.0026281938962
 30
0.0
  0
VERTEX
  5
440
330
3EE
100
AcDbEntity
  8
Make2D$可见线$普通线
100
AcDbVertex
100
AcDb2dVertex
 10
379.460366597038
 20
667.0029979809691
 30
0.0
  0
VERTEX
  5
441
330
3EE
100
AcDbEntity
  8
Make2D$可见线$普通线
100
AcDbVertex
100
AcDb2dVertex
 10
379.4609233901261
 20
667.0033685613043
 30
0.0
  0
VERTEX
  5
442
330
3EE
100
AcDbEntity
  8
Make2D$可见线$普通线
100
AcDbVertex
100
AcDb2dVertex
 10
379.4614581063008
 20
667.0037399323527
 30
0.0
  0
VERTEX
  5
443
330
3EE
100
AcDbEntity
  8
Make2D$可见线$普通线
100
AcDbVertex
100
AcDb2dVertex
 10
379.4619707169948
 20
667.0041120915648
 30
0.0
  0
VERTEX
  5
444
330
3EE
100
AcDbEntity
  8
Make2D$可见线$普通线
100
AcDbVertex
100
AcDb2dVertex
 10
379.4624611936404
 20
667.0044850363915
 30
0.0
  0
VERTEX
  5
445
330
3EE
100
AcDbEntity
  8
Make2D$可见线$普通线
100
AcDbVertex
100
AcDb2dVertex
 10
379.4629295076703
 20
667.0048587642838
 30
0.0
  0
VERTEX
  5
446
330
3EE
100
AcDbEntity
  8
Make2D$可见线$普通线
100
AcDbVertex
100
AcDb2dVertex
 10
379.4633756305169
 20
667.0052332726921
 30
0.0
  0
VERTEX
  5
447
330
3EE
100
AcDbEntity
  8
Make2D$可见线$普通线
100
AcDbVertex
100
AcDb2dVertex
 10
379.4637995336129
 20
667.0056085590674
 30
0.0
  0
VERTEX
  5
448
330
3EE
100
AcDbEntity
  8
Make2D$可见线$普通线
100
AcDbVertex
100
AcDb2dVertex
 10
379.4642011883907
 20
667.0059846208603
 30
0.0
  0
VERTEX
  5
449
330
3EE
100
AcDbEntity
  8
Make2D$可见线$普通线
100
AcDbVertex
100
AcDb2dVertex
 10
379.4645805662827
 20
667.0063614555218
 30
0.0
  0
VERTEX
  5
44A
330
3EE
100
AcDbEntity
  8
Make2D$可见线$普通线
100
AcDbVertex
100
AcDb2dVertex
 10
379.4649376387217
 20
667.0067390605024
 30
0.0
  0
VERTEX
  5
44B
330
3EE
100
AcDbEntity
  8
Make2D$可见线$普通线
100
AcDbVertex
100
AcDb2dVertex
 10
379.46527237714
 20
667.007117433253
 30
0.0
  0
VERTEX
  5
44C
330
3EE
100
AcDbEntity
  8
Make2D$可见线$普通线
100
AcDbVertex
100
AcDb2dVertex
 10
379.4655847529702
 20
667.0074965712245
 30
0.0
  0
VERTEX
  5
44D
330
3EE
100
AcDbEntity
  8
Make2D$可见线$普通线
100
AcDbVertex
100
AcDb2dVertex
 10
379.465874737645
 20
667.0078764718676
 30
0.0
  0
VERTEX
  5
44E
330
3EE
100
AcDbEntity
  8
Make2D$可见线$普通线
100
AcDbVertex
100
AcDb2dVertex
 10
379.4661423025966
 20
667.0082571326329
 30
0.0
  0
VERTEX
  5
44F
330
3EE
100
AcDbEntity
  8
Make2D$可见线$普通线
100
AcDbVertex
100
AcDb2dVertex
 10
379.4663874192578
 20
667.0086385509715
 30
0.0
  0
VERTEX
  5
450
330
3EE
100
AcDbEntity
  8
Make2D$可见线$普通线
100
AcDbVertex
100
AcDb2dVertex
 10
379.4666100590609
 20
667.0090207243338
 30
0.0
  0
VERTEX
  5
451
330
3EE
100
AcDbEntity
  8
Make2D$可见线$普通线
100
AcDbVertex
100
AcDb2dVertex
 10
379.4668101934384
 20
667.0094036501707
 30
0.0
  0
VERTEX
  5
452
330
3EE
100
AcDbEntity
  8
Make2D$可见线$普通线
100
AcDbVertex
100
AcDb2dVertex
 10
379.4669877938231
 20
667.0097873259331
 30
0.0
  0
VERTEX
  5
453
330
3EE
100
AcDbEntity
  8
Make2D$可见线$普通线
100
AcDbVertex
100
AcDb2dVertex
 10
379.4671428316473
 20
667.0101717490716
 30
0.0
  0
VERTEX
  5
454
330
3EE
100
AcDbEntity
  8
Make2D$可见线$普通线
100
AcDbVertex
100
AcDb2dVertex
 10
379.4672752783437
 20
667.0105569170371
 30
0.0
  0
VERTEX
  5
455
330
3EE
100
AcDbEntity
  8
Make2D$可见线$普通线
100
AcDbVertex
100
AcDb2dVertex
 10
379.4673851053446
 20
667.0109428272804
 30
0.0
  0
VERTEX
  5
456
330
3EE
100
AcDbEntity
  8
Make2D$可见线$普通线
100
AcDbVertex
100
AcDb2dVertex
 10
379.4674722840826
 20
667.011329477252
 30
0.0
  0
VERTEX
  5
457
330
3EE
100
AcDbEntity
  8
Make2D$可见线$普通线
100
AcDbVertex
100
AcDb2dVertex
 10
379.4675367859904
 20
667.0117168644031
 30
0.0
  0
VERTEX
  5
458
330
3EE
100
AcDbEntity
  8
Make2D$可见线$普通线
100
AcDbVertex
100
AcDb2dVertex
 10
379.4675785825003
 20
667.0121049861841
 30
0.0
  0
VERTEX
  5
459
330
3EE
100
AcDbEntity
  8
Make2D$可见线$普通线
100
AcDbVertex
100
AcDb2dVertex
 10
379.4675976450449
 20
667.0124938400461
 30
0.0
  0
VERTEX
  5
45A
330
3EE
100
AcDbEntity
  8
Make2D$可见线$普通线
100
AcDbVertex
100
AcDb2dVertex
 10
379.4675939450567
 20
667.0128834234395
 30
0.0
  0
VERTEX
  5
45B
330
3EE
100
AcDbEntity
  8
Make2D$可见线$普通线
100
AcDbVertex
100
AcDb2dVertex
 10
379.4675674539682
 20
667.0132737338151
 30
0.0
  0
VERTEX
  5
45C
330
3EE
100
AcDbEntity
  8
Make2D$可见线$普通线
100
AcDbVertex
100
AcDb2dVertex
 10
379.4675181432121
 20
667.013664768624
 30
0.0
  0
VERTEX
  5
45D
330
3EE
100
AcDbEntity
  8
Make2D$可见线$普通线
100
AcDbVertex
100
AcDb2dVertex
 10
379.4674459842208
 20
667.014056525317
 30
0.0
  0
SEQEND
  5
45E
330
3EE
100
AcDbEntity
  8
Make2D$可见线$普通线
  0
POLYLINE
  5
45F
330
1F
100
AcDbEntity
  8
Make2D$可见线$普通线
100
AcDb2dPolyline
 66
     1
 10
0.0
 20
0.0
 30
0.0
  0
VERTEX
  5
460
330
45F
100
AcDbEntity
  8
Make2D$可见线$普通线
100
AcDbVertex
100
AcDb2dVertex
 10
337.7025947021227
 20
690.6622010211071
 30
0.0
  0
VERTEX
  5
461
330
45F
100
AcDbEntity
  8
Make2D$可见线$普通线
100
AcDbVertex
100
AcDb2dVertex
 10
337.7025947021339
 20
690.2446759154229
 30
0.0
  0
VERTEX
  5
462
330
45F
100
AcDbEntity
  8
Make2D$可见线$普通线
100
AcDbVertex
100
AcDb2dVertex
 10
337.702876948627
 20
690.2446759154229
 30
0.0
  0
VERTEX
  5
463
330
45F
100
AcDbEntity
  8
Make2D$可见线$普通线
100
AcDbVertex
100
AcDb2dVertex
 10
337.702819687231
 20
690.2446759154229
 30
0.0
  0
VERTEX
  5
464
330
45F
100
AcDbEntity
  8
Make2D$可见线$普通线
100
AcDbVertex
100
AcDb2dVertex
 10
324.7025950002505
 20
690.2446759154229
 30
0.0
  0
VERTEX
  5
465
330
45F
100
AcDbEntity
  8
Make2D$可见线$普通线
100
AcDbVertex
100
AcDb2dVertex
 10
324.7025948664095
 20
689.7460214535906
 30
0.0
  0
VERTEX
  5
466
330
45F
100
AcDbEntity
  8
Make2D$可见线$普通线
100
AcDbVertex
100
AcDb2dVertex
 10
337.2394685372211
 20
689.7460214536377
 30
0.0
  0
VERTEX
  5
467
330
45F
100
AcDbEntity
  8
Make2D$可见线$普通线
100
AcDbVertex
100
AcDb2dVertex
 10
337.2395237654184
 20
689.7460214536381
 30
0.0
  0
VERTEX
  5
468
330
45F
100
AcDbEntity
  8
Make2D$可见线$普通线
100
AcDbVertex
100
AcDb2dVertex
 10
337.2392515942962
 20
689.7460214536393
 30
0.0
  0
VERTEX
  5
469
330
45F
100
AcDbEntity
  8
Make2D$可见线$普通线
100
AcDbVertex
100
AcDb2dVertex
 10
337.2393645171773
 20
689.7460197399349
 30
0.0
 42
0.3928899526794337
  0
VERTEX
  5
46A
330
45F
100
AcDbEntity
  8
Make2D$可见线$普通线
100
AcDbVertex
100
AcDb2dVertex
 10
337.7028772422673
 20
690.2446759154229
 30
0.0
  0
SEQEND
  5
46B
330
45F
100
AcDbEntity
  8
Make2D$可见线$普通线
  0
CIRCLE
  5
46C
330
1F
100
AcDbEntity
  8
Make2D$可见线$普通线
100
AcDbCircle
 10
324.7024108512132
 20
715.2858474004487
 30
0.0
 40
4.299999999999955
  0
POLYLINE
  5
46D
330
1F
100
AcDbEntity
  8
Make2D$可见线$普通线
100
AcDb2dPolyline
 66
     1
 10
0.0
 20
0.0
 30
0.0
  0
VERTEX
  5
46E
330
46D
100
AcDbEntity
  8
Make2D$可见线$普通线
100
AcDbVertex
100
AcDb2dVertex
 10
337.7025947021518
 20
686.2858474004488
 30
0.0
  0
VERTEX
  5
46F
330
46D
100
AcDbEntity
  8
Make2D$可见线$普通线
100
AcDbVertex
100
AcDb2dVertex
 10
311.7025947021518
 20
686.2858474004489
 30
0.0
  0
VERTEX
  5
470
330
46D
100
AcDbEntity
  8
Make2D$可见线$普通线
100
AcDbVertex
100
AcDb2dVertex
 10
311.7025947021518
 20
686.7858474004489
 30
0.0
  0
VERTEX
  5
471
330
46D
100
AcDbEntity
  8
Make2D$可见线$普通线
100
AcDbVertex
100
AcDb2dVertex
 10
337.7025947021518
 20
686.7858474004489
 30
0.0
  0
VERTEX
  5
472
330
46D
100
AcDbEntity
  8
Make2D$可见线$普通线
100
AcDbVertex
100
AcDb2dVertex
 10
337.7025947021518
 20
686.2858474004489
 30
0.0
  0
VERTEX
  5
473
330
46D
100
AcDbEntity
  8
Make2D$可见线$普通线
100
AcDbVertex
100
AcDb2dVertex
 10
337.702735970042
 20
671.2858474004489
 30
0.0
 42
-0.4141204698517693
  0
VERTEX
  5
474
330
46D
100
AcDbEntity
  8
Make2D$可见线$普通线
100
AcDbVertex
100
AcDb2dVertex
 10
336.7028555044068
 20
670.2858474004489
 30
0.0
  0
SEQEND
  5
475
330
46D
100
AcDbEntity
  8
Make2D$可见线$普通线
  0
POLYLINE
  5
476
330
1F
100
AcDbEntity
  8
Make2D$可见线$普通线
100
AcDb2dPolyline
 66
     1
 10
0.0
 20
0.0
 30
0.0
  0
VERTEX
  5
477
330
476
100
AcDbEntity
  8
Make2D$可见线$普通线
100
AcDbVertex
100
AcDb2dVertex
 10
324.7025947021227
 20
690.2446759154229
 30
0.0
  0
VERTEX
  5
478
330
476
100
AcDbEntity
  8
Make2D$可见线$普通线
100
AcDbVertex
100
AcDb2dVertex
 10
311.7023697236423
 20
690.2446759154052
 30
0.0
  0
VERTEX
  5
479
330
476
100
AcDbEntity
  8
Make2D$可见线$普通线
100
AcDbVertex
100
AcDb2dVertex
 10
311.7023124601518
 20
690.2446759154047
 30
0.0
  0
VERTEX
  5
47A
330
476
100
AcDbEntity
  8
Make2D$可见线$普通线
100
AcDbVertex
100
AcDb2dVertex
 10
311.7025947021227
 20
690.2446759154041
 30
0.0
  0
VERTEX
  5
47B
330
476
100
AcDbEntity
  8
Make2D$可见线$普通线
100
AcDbVertex
100
AcDb2dVertex
 10
311.7051546434469
 20
690.664161881065
 30
0.0
  0
VERTEX
  5
47C
330
476
100
AcDbEntity
  8
Make2D$可见线$普通线
100
AcDbVertex
100
AcDb2dVertex
 10
311.7021232287486
 20
690.6621045402294
 30
0.0
 42
0.0192024165675234
  0
VERTEX
  5
47D
330
476
100
AcDbEntity
  8
Make2D$可见线$普通线
100
AcDbVertex
100
AcDb2dVertex
 10
312.0385974527704
 20
690.9331105151767
 30
0.0
 42
0.0847568870734256
  0
VERTEX
  5
47E
330
476
100
AcDbEntity
  8
Make2D$可见线$普通线
100
AcDbVertex
100
AcDb2dVertex
 10
313.4440309896365
 20
692.6160924822842
 30
0.0
  0
VERTEX
  5
47F
330
476
100
AcDbEntity
  8
Make2D$可见线$普通线
100
AcDbVertex
100
AcDb2dVertex
 10
313.4946853925503
 20
692.5315222130487
 30
0.0
  0
VERTEX
  5
480
330
476
100
AcDbEntity
  8
Make2D$可见线$普通线
100
AcDbVertex
100
AcDb2dVertex
 10
313.547084498314
 20
692.4493551330056
 30
0.0
  0
VERTEX
  5
481
330
476
100
AcDbEntity
  8
Make2D$可见线$普通线
100
AcDbVertex
100
AcDb2dVertex
 10
313.6012077790081
 20
692.3695568047365
 30
0.0
  0
VERTEX
  5
482
330
476
100
AcDbEntity
  8
Make2D$可见线$普通线
100
AcDbVertex
100
AcDb2dVertex
 10
313.6570347067127
 20
692.2920927908224
 30
0.0
  0
VERTEX
  5
483
330
476
100
AcDbEntity
  8
Make2D$可见线$普通线
100
AcDbVertex
100
AcDb2dVertex
 10
313.7145447535083
 20
692.2169286538449
 30
0.0
  0
VERTEX
  5
484
330
476
100
AcDbEntity
  8
Make2D$可见线$普通线
100
AcDbVertex
100
AcDb2dVertex
 10
313.7737173914754
 20
692.1440299563853
 30
0.0
  0
VERTEX
  5
485
330
476
100
AcDbEntity
  8
Make2D$可见线$普通线
100
AcDbVertex
100
AcDb2dVertex
 10
313.8345320926942
 20
692.0733622610248
 30
0.0
  0
VERTEX
  5
486
330
476
100
AcDbEntity
  8
Make2D$可见线$普通线
100
AcDbVertex
100
AcDb2dVertex
 10
313.8969683292452
 20
692.004891130345
 30
0.0
  0
VERTEX
  5
487
330
476
100
AcDbEntity
  8
Make2D$可见线$普通线
100
AcDbVertex
100
AcDb2dVertex
 10
313.9610055732086
 20
691.938582126927
 30
0.0
  0
VERTEX
  5
488
330
476
100
AcDbEntity
  8
Make2D$可见线$普通线
100
AcDbVertex
100
AcDb2dVertex
 10
314.0266232966648
 20
691.8744008133522
 30
0.0
  0
VERTEX
  5
489
330
476
100
AcDbEntity
  8
Make2D$可见线$普通线
100
AcDbVertex
100
AcDb2dVertex
 10
314.0938009716941
 20
691.8123127522016
 30
0.0
  0
VERTEX
  5
48A
330
476
100
AcDbEntity
  8
Make2D$可见线$普通线
100
AcDbVertex
100
AcDb2dVertex
 10
314.1625180703771
 20
691.7522835060572
 30
0.0
  0
VERTEX
  5
48B
330
476
100
AcDbEntity
  8
Make2D$可见线$普通线
100
AcDbVertex
100
AcDb2dVertex
 10
314.2327540647941
 20
691.6942786375001
 30
0.0
  0
VERTEX
  5
48C
330
476
100
AcDbEntity
  8
Make2D$可见线$普通线
100
AcDbVertex
100
AcDb2dVertex
 10
314.3044884270253
 20
691.6382637091116
 30
0.0
  0
VERTEX
  5
48D
330
476
100
AcDbEntity
  8
Make2D$可见线$普通线
100
AcDbVertex
100
AcDb2dVertex
 10
314.3777006291511
 20
691.584204283473
 30
0.0
  0
VERTEX
  5
48E
330
476
100
AcDbEntity
  8
Make2D$可见线$普通线
100
AcDbVertex
100
AcDb2dVertex
 10
314.452370143252
 20
691.5320659231658
 30
0.0
  0
VERTEX
  5
48F
330
476
100
AcDbEntity
  8
Make2D$可见线$普通线
100
AcDbVertex
100
AcDb2dVertex
 10
314.5284764414082
 20
691.481814190771
 30
0.0
  0
VERTEX
  5
490
330
476
100
AcDbEntity
  8
Make2D$可见线$普通线
100
AcDbVertex
100
AcDb2dVertex
 10
314.6059989957001
 20
691.4334146488703
 30
0.0
  0
VERTEX
  5
491
330
476
100
AcDbEntity
  8
Make2D$可见线$普通线
100
AcDbVertex
100
AcDb2dVertex
 10
314.6849172782082
 20
691.3868328600448
 30
0.0
  0
VERTEX
  5
492
330
476
100
AcDbEntity
  8
Make2D$可见线$普通线
100
AcDbVertex
100
AcDb2dVertex
 10
314.7652107610127
 20
691.342034386876
 30
0.0
  0
VERTEX
  5
493
330
476
100
AcDbEntity
  8
Make2D$可见线$普通线
100
AcDbVertex
100
AcDb2dVertex
 10
314.846858916194
 20
691.2989847919451
 30
0.0
  0
VERTEX
  5
494
330
476
100
AcDbEntity
  8
Make2D$可见线$普通线
100
AcDbVertex
100
AcDb2dVertex
 10
314.9298412158323
 20
691.2576496378333
 30
0.0
  0
VERTEX
  5
495
330
476
100
AcDbEntity
  8
Make2D$可见线$普通线
100
AcDbVertex
100
AcDb2dVertex
 10
315.0141371320083
 20
691.2179944871225
 30
0.0
  0
VERTEX
  5
496
330
476
100
AcDbEntity
  8
Make2D$可见线$普通线
100
AcDbVertex
100
AcDb2dVertex
 10
315.0997261368023
 20
691.1799849023936
 30
0.0
  0
VERTEX
  5
497
330
476
100
AcDbEntity
  8
Make2D$可见线$普通线
100
AcDbVertex
100
AcDb2dVertex
 10
315.1865877022945
 20
691.1435864462279
 30
0.0
  0
VERTEX
  5
498
330
476
100
AcDbEntity
  8
Make2D$可见线$普通线
100
AcDbVertex
100
AcDb2dVertex
 10
315.2747013005654
 20
691.108764681207
 30
0.0
  0
VERTEX
  5
499
330
476
100
AcDbEntity
  8
Make2D$可见线$普通线
100
AcDbVertex
100
AcDb2dVertex
 10
315.3640464036952
 20
691.0754851699122
 30
0.0
  0
VERTEX
  5
49A
330
476
100
AcDbEntity
  8
Make2D$可见线$普通线
100
AcDbVertex
100
AcDb2dVertex
 10
315.4546024837644
 20
691.0437134749246
 30
0.0
  0
VERTEX
  5
49B
330
476
100
AcDbEntity
  8
Make2D$可见线$普通线
100
AcDbVertex
100
AcDb2dVertex
 10
315.5463490128533
 20
691.0134151588258
 30
0.0
  0
VERTEX
  5
49C
330
476
100
AcDbEntity
  8
Make2D$可见线$普通线
100
AcDbVertex
100
AcDb2dVertex
 10
315.6392654630424
 20
690.9845557841969
 30
0.0
  0
VERTEX
  5
49D
330
476
100
AcDbEntity
  8
Make2D$可见线$普通线
100
AcDbVertex
100
AcDb2dVertex
 10
315.828526015042
 20
690.9310161096745
 30
0.0
  0
VERTEX
  5
49E
330
476
100
AcDbEntity
  8
Make2D$可见线$普通线
100
AcDbVertex
100
AcDb2dVertex
 10
316.0726256397136
 20
690.873683742641
 30
0.0
  0
VERTEX
  5
49F
330
476
100
AcDbEntity
  8
Make2D$可见线$普通线
100
AcDbVertex
100
AcDb2dVertex
 10
316.3185500796639
 20
690.8232359565154
 30
0.0
  0
VERTEX
  5
4A0
330
476
100
AcDbEntity
  8
Make2D$可见线$普通线
100
AcDbVertex
100
AcDb2dVertex
 10
316.5660070464054
 20
690.7797546862486
 30
0.0
  0
VERTEX
  5
4A1
330
476
100
AcDbEntity
  8
Make2D$可见线$普通线
100
AcDbVertex
100
AcDb2dVertex
 10
316.8146995948564
 20
690.7433052552102
 30
0.0
  0
VERTEX
  5
4A2
330
476
100
AcDbEntity
  8
Make2D$可见线$普通线
100
AcDbVertex
100
AcDb2dVertex
 10
317.064327307905
 20
690.7139360612114
 30
0.0
  0
VERTEX
  5
4A3
330
476
100
AcDbEntity
  8
Make2D$可见线$普通线
100
AcDbVertex
100
AcDb2dVertex
 10
317.3145875048524
 20
690.691678364187
 30
0.0
  0
VERTEX
  5
4A4
330
476
100
AcDbEntity
  8
Make2D$可见线$普通线
100
AcDbVertex
100
AcDb2dVertex
 10
317.5651764635383
 20
690.6765461774808
 30
0.0
  0
VERTEX
  5
4A5
330
476
100
AcDbEntity
  8
Make2D$可见线$普通线
100
AcDbVertex
100
AcDb2dVertex
 10
317.8157906458039
 20
690.6685362635053
 30
0.0
  0
VERTEX
  5
4A6
330
476
100
AcDbEntity
  8
Make2D$可见线$普通线
100
AcDbVertex
100
AcDb2dVertex
 10
318.3846947502711
 20
690.6640608255727
 30
0.0
  0
VERTEX
  5
4A7
330
476
100
AcDbEntity
  8
Make2D$可见线$普通线
100
AcDbVertex
100
AcDb2dVertex
 10
318.6693080899162
 20
690.6706680121173
 30
0.0
  0
VERTEX
  5
4A8
330
476
100
AcDbEntity
  8
Make2D$可见线$普通线
100
AcDbVertex
100
AcDb2dVertex
 10
318.9537844387219
 20
690.683176261096
 30
0.0
  0
VERTEX
  5
4A9
330
476
100
AcDbEntity
  8
Make2D$可见线$普通线
100
AcDbVertex
100
AcDb2dVertex
 10
319.2379403350677
 20
690.7015794101262
 30
0.0
  0
VERTEX
  5
4AA
330
476
100
AcDbEntity
  8
Make2D$可见线$普通线
100
AcDbVertex
100
AcDb2dVertex
 10
319.5215927304264
 20
690.7258636977451
 30
0.0
  0
VERTEX
  5
4AB
330
476
100
AcDbEntity
  8
Make2D$可见线$普通线
100
AcDbVertex
100
AcDb2dVertex
 10
319.8045593822093
 20
690.7560077970418
 30
0.0
  0
VERTEX
  5
4AC
330
476
100
AcDbEntity
  8
Make2D$可见线$普通线
100
AcDbVertex
100
AcDb2dVertex
 10
320.0866592435111
 20
690.7919828735919
 30
0.0
  0
VERTEX
  5
4AD
330
476
100
AcDbEntity
  8
Make2D$可见线$普通线
100
AcDbVertex
100
AcDb2dVertex
 10
320.3940123026769
 20
690.8360987148678
 30
0.0
  0
VERTEX
  5
4AE
330
476
100
AcDbEntity
  8
Make2D$可见线$普通线
100
AcDbVertex
100
AcDb2dVertex
 10
320.7004050888097
 20
690.8884707781839
 30
0.0
  0
VERTEX
  5
4AF
330
476
100
AcDbEntity
  8
Make2D$可见线$普通线
100
AcDbVertex
100
AcDb2dVertex
 10
321.0055055089773
 20
690.9490649377869
 30
0.0
  0
VERTEX
  5
4B0
330
476
100
AcDbEntity
  8
Make2D$可见线$普通线
100
AcDbVertex
100
AcDb2dVertex
 10
321.3089832979326
 20
691.0178292819078
 30
0.0
  0
VERTEX
  5
4B1
330
476
100
AcDbEntity
  8
Make2D$可见线$普通线
100
AcDbVertex
100
AcDb2dVertex
 10
321.6105112069765
 20
691.0946942510362
 30
0.0
  0
VERTEX
  5
4B2
330
476
100
AcDbEntity
  8
Make2D$可见线$普通线
100
AcDbVertex
100
AcDb2dVertex
 10
321.9097661791655
 20
691.1795728713402
 30
0.0
  0
VERTEX
  5
4B3
330
476
100
AcDbEntity
  8
Make2D$可见线$普通线
100
AcDbVertex
100
AcDb2dVertex
 10
322.2064305020099
 20
691.2723610815899
 30
0.0
  0
VERTEX
  5
4B4
330
476
100
AcDbEntity
  8
Make2D$可见线$普通线
100
AcDbVertex
100
AcDb2dVertex
 10
322.5001929290402
 20
691.3729381510217
 30
0.0
  0
VERTEX
  5
4B5
330
476
100
AcDbEntity
  8
Make2D$可见线$普通线
100
AcDbVertex
100
AcDb2dVertex
 10
322.64905983644
 20
691.4264666698093
 30
0.0
  0
VERTEX
  5
4B6
330
476
100
AcDbEntity
  8
Make2D$可见线$普通线
100
AcDbVertex
100
AcDb2dVertex
 10
322.7969520994806
 20
691.4834141536652
 30
0.0
  0
VERTEX
  5
4B7
330
476
100
AcDbEntity
  8
Make2D$可见线$普通线
100
AcDbVertex
100
AcDb2dVertex
 10
322.9437527343057
 20
691.5437542607131
 30
0.0
  0
VERTEX
  5
4B8
330
476
100
AcDbEntity
  8
Make2D$可见线$普通线
100
AcDbVertex
100
AcDb2dVertex
 10
323.0893457044073
 20
691.6074553358603
 30
0.0
  0
VERTEX
  5
4B9
330
476
100
AcDbEntity
  8
Make2D$可见线$普通线
100
AcDbVertex
100
AcDb2dVertex
 10
323.2336162212396
 20
691.6744804539852
 30
0.0
  0
VERTEX
  5
4BA
330
476
100
AcDbEntity
  8
Make2D$可见线$普通线
100
AcDbVertex
100
AcDb2dVertex
 10
323.3764510423742
 20
691.7447874834917
 30
0.0
  0
VERTEX
  5
4BB
330
476
100
AcDbEntity
  8
Make2D$可见线$普通线
100
AcDbVertex
100
AcDb2dVertex
 10
323.5177387655877
 20
691.8183291700615
 30
0.0
  0
VERTEX
  5
4BC
330
476
100
AcDbEntity
  8
Make2D$可见线$普通线
100
AcDbVertex
100
AcDb2dVertex
 10
323.6573701172899
 20
691.8950532402814
 30
0.0
  0
VERTEX
  5
4BD
330
476
100
AcDbEntity
  8
Make2D$可见线$普通线
100
AcDbVertex
100
AcDb2dVertex
 10
323.7952382337313
 20
691.974902524679
 30
0.0
  0
VERTEX
  5
4BE
330
476
100
AcDbEntity
  8
Make2D$可见线$普通线
100
AcDbVertex
100
AcDb2dVertex
 10
323.9312389334744
 20
692.0578150995678
 30
0.0
  0
VERTEX
  5
4BF
330
476
100
AcDbEntity
  8
Make2D$可见线$普通线
100
AcDbVertex
100
AcDb2dVertex
 10
324.0652709796686
 20
692.1437244469608
 30
0.0
  0
VERTEX
  5
4C0
330
476
100
AcDbEntity
  8
Make2D$可见线$普通线
100
AcDbVertex
100
AcDb2dVertex
 10
324.1972363307473
 20
692.2325596316884
 30
0.0
  0
VERTEX
  5
4C1
330
476
100
AcDbEntity
  8
Make2D$可见线$普通线
100
AcDbVertex
100
AcDb2dVertex
 10
324.3270403782423
 20
692.3242454947315
 30
0.0
  0
VERTEX
  5
4C2
330
476
100
AcDbEntity
  8
Make2D$可见线$普通线
100
AcDbVertex
100
AcDb2dVertex
 10
324.4545921705153
 20
692.4187028616758
 30
0.0
  0
VERTEX
  5
4C3
330
476
100
AcDbEntity
  8
Make2D$可见线$普通线
100
AcDbVertex
100
AcDb2dVertex
 10
324.5798046213067
 20
692.5158487650892
 30
0.0
  0
VERTEX
  5
4C4
330
476
100
AcDbEntity
  8
Make2D$可见线$普通线
100
AcDbVertex
100
AcDb2dVertex
 10
324.7025947021202
 20
692.6155966795372
 30
0.0
  0
VERTEX
  5
4C5
330
476
100
AcDbEntity
  8
Make2D$可见线$普通线
100
AcDbVertex
100
AcDb2dVertex
 10
324.8253847053273
 20
692.515848902996
 30
0.0
  0
VERTEX
  5
4C6
330
476
100
AcDbEntity
  8
Make2D$可见线$普通线
100
AcDbVertex
100
AcDb2dVertex
 10
324.9505970790193
 20
692.4187031394454
 30
0.0
  0
VERTEX
  5
4C7
330
476
100
AcDbEntity
  8
Make2D$可见线$普通线
100
AcDbVertex
100
AcDb2dVertex
 10
325.0781487945229
 20
692.3242459144717
 30
0.0
  0
VERTEX
  5
4C8
330
476
100
AcDbEntity
  8
Make2D$可见线$普通线
100
AcDbVertex
100
AcDb2dVertex
 10
325.2079527653882
 20
692.2325601956456
 30
0.0
  0
VERTEX
  5
4C9
330
476
100
AcDbEntity
  8
Make2D$可见线$普通线
100
AcDbVertex
100
AcDb2dVertex
 10
325.3399180397747
 20
692.1437251575072
 30
0.0
  0
VERTEX
  5
4CA
330
476
100
AcDbEntity
  8
Make2D$可见线$普通线
100
AcDbVertex
100
AcDb2dVertex
 10
325.4739500090008
 20
692.0578159591859
 30
0.0
  0
VERTEX
  5
4CB
330
476
100
AcDbEntity
  8
Make2D$可见线$普通线
100
AcDbVertex
100
AcDb2dVertex
 10
325.6099506312758
 20
691.9749035359465
 30
0.0
  0
VERTEX
  5
4CC
330
476
100
AcDbEntity
  8
Make2D$可见线$普通线
100
AcDbVertex
100
AcDb2dVertex
 10
325.7478186695169
 20
691.8950544058549
 30
0.0
  0
VERTEX
  5
4CD
330
476
100
AcDbEntity
  8
Make2D$可见线$普通线
100
AcDbVertex
100
AcDb2dVertex
 10
325.8874499420461
 20
691.818330492659
 30
0.0
  0
VERTEX
  5
4CE
330
476
100
AcDbEntity
  8
Make2D$可见线$普通线
100
AcDbVertex
100
AcDb2dVertex
 10
326.0287375848677
 20
691.7447889658746
 30
0.0
  0
VERTEX
  5
4CF
330
476
100
AcDbEntity
  8
Make2D$可见线$普通线
100
AcDbVertex
100
AcDb2dVertex
 10
326.1715723241402
 20
691.674482098941
 30
0.0
  0
VERTEX
  5
4D0
330
476
100
AcDbEntity
  8
Make2D$可见线$普通线
100
AcDbVertex
100
AcDb2dVertex
 10
326.3158427573856
 20
691.6074571461827
 30
0.0
  0
VERTEX
  5
4D1
330
476
100
AcDbEntity
  8
Make2D$可见线$普通线
100
AcDbVertex
100
AcDb2dVertex
 10
326.4614356419192
 20
691.5437562391842
 30
0.0
  0
VERTEX
  5
4D2
330
476
100
AcDbEntity
  8
Make2D$可见线$普通线
100
AcDbVertex
100
AcDb2dVertex
 10
326.6082361889383
 20
691.4834163030353
 30
0.0
  0
VERTEX
  5
4D3
330
476
100
AcDbEntity
  8
Make2D$可见线$普通线
100
AcDbVertex
100
AcDb2dVertex
 10
326.7561283616792
 20
691.426468992779
 30
0.0
  0
VERTEX
  5
4D4
330
476
100
AcDbEntity
  8
Make2D$可见线$普通线
100
AcDbVertex
100
AcDb2dVertex
 10
326.9049951760325
 20
691.3729406502218
 30
0.0
  0
VERTEX
  5
4D5
330
476
100
AcDbEntity
  8
Make2D$可见线$普通线
100
AcDbVertex
100
AcDb2dVertex
 10
327.1987574280254
 20
691.2723639297236
 30
0.0
  0
VERTEX
  5
4D6
330
476
100
AcDbEntity
  8
Make2D$可见线$普通线
100
AcDbVertex
100
AcDb2dVertex
 10
327.4954215714894
 20
691.1795760766652
 30
0.0
  0
VERTEX
  5
4D7
330
476
100
AcDbEntity
  8
Make2D$可见线$普通线
100
AcDbVertex
100
AcDb2dVertex
 10
327.794676359111
 20
691.0946978218473
 30
0.0
  0
VERTEX
  5
4D8
330
476
100
AcDbEntity
  8
Make2D$可见线$普通线
100
AcDbVertex
100
AcDb2dVertex
 10
328.0962040775441
 20
691.0178332264612
 30
0.0
  0
VERTEX
  5
4D9
330
476
100
AcDbEntity
  8
Make2D$可见线$普通线
100
AcDbVertex
100
AcDb2dVertex
 10
328.399681668983
 20
690.9490692642291
 30
0.0
  0
VERTEX
  5
4DA
330
476
100
AcDbEntity
  8
Make2D$可见线$普通线
100
AcDbVertex
100
AcDb2dVertex
 10
328.704781883867
 20
690.8884754944748
 30
0.0
  0
VERTEX
  5
4DB
330
476
100
AcDbEntity
  8
Make2D$可见线$普通线
100
AcDbVertex
100
AcDb2dVertex
 10
329.0111744560961
 20
690.836103828707
 30
0.0
  0
VERTEX
  5
4DC
330
476
100
AcDbEntity
  8
Make2D$可见线$普通线
100
AcDbVertex
100
AcDb2dVertex
 10
329.3185272918997
 20
690.7919883923435
 30
0.0
 42
0.0414672954909184
  0
VERTEX
  5
4DD
330
476
100
AcDbEntity
  8
Make2D$可见线$普通线
100
AcDbVertex
100
AcDb2dVertex
 10
331.5893942459774
 20
690.6685449441477
 30
0.0
  0
VERTEX
  5
4DE
330
476
100
AcDbEntity
  8
Make2D$可见线$普通线
100
AcDbVertex
100
AcDb2dVertex
 10
331.8400082677888
 20
690.6765552318382
 30
0.0
  0
VERTEX
  5
4DF
330
476
100
AcDbEntity
  8
Make2D$可见线$普通线
100
AcDbVertex
100
AcDb2dVertex
 10
332.0905970555052
 20
690.6916877970684
 30
0.0
  0
VERTEX
  5
4E0
330
476
100
AcDbEntity
  8
Make2D$可见线$普通线
100
AcDbVertex
100
AcDb2dVertex
 10
332.3408570703702
 20
690.7139458769905
 30
0.0
  0
VERTEX
  5
4E1
330
476
100
AcDbEntity
  8
Make2D$可见线$普通线
100
AcDbVertex
100
AcDb2dVertex
 10
332.5904845896505
 20
690.7433154577686
 30
0.0
  0
VERTEX
  5
4E2
330
476
100
AcDbEntity
  8
Make2D$可见线$普通线
100
AcDbVertex
100
AcDb2dVertex
 10
332.839176932104
 20
690.7797652789227
 30
0.0
  0
VERTEX
  5
4E3
330
476
100
AcDbEntity
  8
Make2D$可见线$普通线
100
AcDbVertex
100
AcDb2dVertex
 10
333.086633680111
 20
690.8232469420442
 30
0.0
  0
VERTEX
  5
4E4
330
476
100
AcDbEntity
  8
Make2D$可见线$普通线
100
AcDbVertex
100
AcDb2dVertex
 10
333.3325578881226
 20
690.8736951231175
 30
0.0
  0
VERTEX
  5
4E5
330
476
100
AcDbEntity
  8
Make2D$可见线$普通线
100
AcDbVertex
100
AcDb2dVertex
 10
333.5766572672291
 20
690.9310278865004
 30
0.0
  0
VERTEX
  5
4E6
330
476
100
AcDbEntity
  8
Make2D$可见线$普通线
100
AcDbVertex
100
AcDb2dVertex
 10
333.7659175683307
 20
690.984567853337
 30
0.0
  0
VERTEX
  5
4E7
330
476
100
AcDbEntity
  8
Make2D$可见线$普通线
100
AcDbVertex
100
AcDb2dVertex
 10
333.8588338951938
 20
691.0134273711492
 30
0.0
  0
VERTEX
  5
4E8
330
476
100
AcDbEntity
  8
Make2D$可见线$普通线
100
AcDbVertex
100
AcDb2dVertex
 10
333.9505803024562
 20
691.043725828297
 30
0.0
  0
VERTEX
  5
4E9
330
476
100
AcDbEntity
  8
Make2D$可见线$普通线
100
AcDbVertex
100
AcDb2dVertex
 10
334.0411362622607
 20
691.0754976620855
 30
0.0
  0
VERTEX
  5
4EA
330
476
100
AcDbEntity
  8
Make2D$可见线$普通线
100
AcDbVertex
100
AcDb2dVertex
 10
334.1304812467507
 20
691.1087773098191
 30
0.0
  0
VERTEX
  5
4EB
330
476
100
AcDbEntity
  8
Make2D$可见线$普通线
100
AcDbVertex
100
AcDb2dVertex
 10
334.2185947280693
 20
691.1435992088029
 30
0.0
  0
VERTEX
  5
4EC
330
476
100
AcDbEntity
  8
Make2D$可见线$普通线
100
AcDbVertex
100
AcDb2dVertex
 10
334.3054561783595
 20
691.1799977963419
 30
0.0
  0
VERTEX
  5
4ED
330
476
100
AcDbEntity
  8
Make2D$可见线$普通线
100
AcDbVertex
100
AcDb2dVertex
 10
334.3910450697645
 20
691.2180075097408
 30
0.0
  0
VERTEX
  5
4EE
330
476
100
AcDbEntity
  8
Make2D$可见线$普通线
100
AcDbVertex
100
AcDb2dVertex
 10
334.4753408744275
 20
691.2576627863041
 30
0.0
  0
VERTEX
  5
4EF
330
476
100
AcDbEntity
  8
Make2D$可见线$普通线
100
AcDbVertex
100
AcDb2dVertex
 10
334.5583230644914
 20
691.2989980633365
 30
0.0
  0
VERTEX
  5
4F0
330
476
100
AcDbEntity
  8
Make2D$可见线$普通线
100
AcDbVertex
100
AcDb2dVertex
 10
334.6399711120997
 20
691.3420477781436
 30
0.0
  0
VERTEX
  5
4F1
330
476
100
AcDbEntity
  8
Make2D$可见线$普通线
100
AcDbVertex
100
AcDb2dVertex
 10
334.7202644893954
 20
691.38684636803
 30
0.0
  0
VERTEX
  5
4F2
330
476
100
AcDbEntity
  8
Make2D$可见线$普通线
100
AcDbVertex
100
AcDb2dVertex
 10
334.7991826685216
 20
691.4334282703003
 30
0.0
  0
VERTEX
  5
4F3
330
476
100
AcDbEntity
  8
Make2D$可见线$普通线
100
AcDbVertex
100
AcDb2dVertex
 10
334.8767051216215
 20
691.4818279222594
 30
0.0
  0
VERTEX
  5
4F4
330
476
100
AcDbEntity
  8
Make2D$可见线$普通线
100
AcDbVertex
100
AcDb2dVertex
 10
334.9528113208382
 20
691.5320797612121
 30
0.0
  0
VERTEX
  5
4F5
330
476
100
AcDbEntity
  8
Make2D$可见线$普通线
100
AcDbVertex
100
AcDb2dVertex
 10
335.0274807383148
 20
691.5842182244634
 30
0.0
  0
VERTEX
  5
4F6
330
476
100
AcDbEntity
  8
Make2D$可见线$普通线
100
AcDbVertex
100
AcDb2dVertex
 10
335.1006928461945
 20
691.6382777493178
 30
0.0
  0
VERTEX
  5
4F7
330
476
100
AcDbEntity
  8
Make2D$可见线$普通线
100
AcDbVertex
100
AcDb2dVertex
 10
335.1724271166203
 20
691.6942927730804
 30
0.0
  0
VERTEX
  5
4F8
330
476
100
AcDbEntity
  8
Make2D$可见线$普通线
100
AcDbVertex
100
AcDb2dVertex
 10
335.2426630217356
 20
691.752297733056
 30
0.0
  0
VERTEX
  5
4F9
330
476
100
AcDbEntity
  8
Make2D$可见线$普通线
100
AcDbVertex
100
AcDb2dVertex
 10
335.3113800336833
 20
691.8123270665493
 30
0.0
  0
VERTEX
  5
4FA
330
476
100
AcDbEntity
  8
Make2D$可见线$普通线
100
AcDbVertex
100
AcDb2dVertex
 10
335.3785576246067
 20
691.8744152108653
 30
0.0
  0
VERTEX
  5
4FB
330
476
100
AcDbEntity
  8
Make2D$可见线$普通线
100
AcDbVertex
100
AcDb2dVertex
 10
335.4441752666488
 20
691.9385966033086
 30
0.0
  0
VERTEX
  5
4FC
330
476
100
AcDbEntity
  8
Make2D$可见线$普通线
100
AcDbVertex
100
AcDb2dVertex
 10
335.5082124319528
 20
692.0049056811844
 30
0.0
  0
VERTEX
  5
4FD
330
476
100
AcDbEntity
  8
Make2D$可见线$普通线
100
AcDbVertex
100
AcDb2dVertex
 10
335.5706485926619
 20
692.0733768817971
 30
0.0
  0
VERTEX
  5
4FE
330
476
100
AcDbEntity
  8
Make2D$可见线$普通线
100
AcDbVertex
100
AcDb2dVertex
 10
335.6314632209192
 20
692.1440446424518
 30
0.0
  0
VERTEX
  5
4FF
330
476
100
AcDbEntity
  8
Make2D$可见线$普通线
100
AcDbVertex
100
AcDb2dVertex
 10
335.6906357888678
 20
692.2169434004533
 30
0.0
  0
VERTEX
  5
500
330
476
100
AcDbEntity
  8
Make2D$可见线$普通线
100
AcDbVertex
100
AcDb2dVertex
 10
335.7481457686509
 20
692.2921075931064
 30
0.0
  0
VERTEX
  5
501
330
476
100
AcDbEntity
  8
Make2D$可见线$普通线
100
AcDbVertex
100
AcDb2dVertex
 10
335.8039726324116
 20
692.3695716577159
 30
0.0
  0
VERTEX
  5
502
330
476
100
AcDbEntity
  8
Make2D$可见线$普通线
100
AcDbVertex
100
AcDb2dVertex
 10
335.858095852293
 20
692.4493700315867
 30
0.0
  0
VERTEX
  5
503
330
476
100
AcDbEntity
  8
Make2D$可见线$普通线
100
AcDbVertex
100
AcDb2dVertex
 10
335.9104949004383
 20
692.5315371520236
 30
0.0
  0
VERTEX
  5
504
330
476
100
AcDbEntity
  8
Make2D$可见线$普通线
100
AcDbVertex
100
AcDb2dVertex
 10
335.9611492489908
 20
692.6161074563316
 30
0.0
 42
0.1010226201305312
  0
VERTEX
  5
505
330
476
100
AcDbEntity
  8
Make2D$可见线$普通线
100
AcDbVertex
100
AcDb2dVertex
 10
337.7025947021228
 20
690.6622010211071
 30
0.0
 42
0.230971952217818
  0
VERTEX
  5
506
330
476
100
AcDbEntity
  8
Make2D$可见线$普通线
100
AcDbVertex
100
AcDb2dVertex
 10
337.5102701645143
 20
691.056327666537
 30
0.0
 42
-0.0982224012536721
  0
VERTEX
  5
507
330
476
100
AcDbEntity
  8
Make2D$可见线$普通线
100
AcDbVertex
100
AcDb2dVertex
 10
335.9918178120417
 20
692.8110841793365
 30
0.0
  0
SEQEND
  5
508
330
476
100
AcDbEntity
  8
Make2D$可见线$普通线
  0
POLYLINE
  5
509
330
1F
100
AcDbEntity
  8
Make2D$可见线$普通线
100
AcDb2dPolyline
 66
     1
 10
0.0
 20
0.0
 30
0.0
  0
VERTEX
  5
50A
330
509
100
AcDbEntity
  8
Make2D$可见线$普通线
100
AcDbVertex
100
AcDb2dVertex
 10
335.9901894467462
 20
698.7577641635376
 30
0.0
 42
-0.0981996704586635
  0
VERTEX
  5
50B
330
509
100
AcDbEntity
  8
Make2D$可见线$普通线
100
AcDbVertex
100
AcDb2dVertex
 10
337.5077862902735
 20
700.5134539561723
 30
0.0
 42
0.2309875367092782
  0
VERTEX
  5
50C
330
509
100
AcDbEntity
  8
Make2D$可见线$普通线
100
AcDbVertex
100
AcDb2dVertex
 10
337.7025947021227
 20
700.9094937797798
 30
0.0
 42
0.1010377105635645
  0
VERTEX
  5
50D
330
509
100
AcDbEntity
  8
Make2D$可见线$普通线
100
AcDbVertex
100
AcDb2dVertex
 10
335.9610963309362
 20
698.95556462936
 30
0.0
  0
VERTEX
  5
50E
330
509
100
AcDbEntity
  8
Make2D$可见线$普通线
100
AcDbVertex
100
AcDb2dVertex
 10
335.9104449702106
 20
699.0401393458187
 30
0.0
  0
VERTEX
  5
50F
330
509
100
AcDbEntity
  8
Make2D$可见线$普通线
100
AcDbVertex
100
AcDb2dVertex
 10
335.8580592257918
 20
699.1223091479634
 30
0.0
  0
VERTEX
  5
510
330
509
100
AcDbEntity
  8
Make2D$可见线$普通线
100
AcDbVertex
100
AcDb2dVertex
 10
335.8039586778806
 20
699.2021086160298
 30
0.0
  0
VERTEX
  5
511
330
509
100
AcDbEntity
  8
Make2D$可见线$普通线
100
AcDbVertex
100
AcDb2dVertex
 10
335.7481629066771
 20
699.279572330253
 30
0.0
  0
VERTEX
  5
512
330
509
100
AcDbEntity
  8
Make2D$可见线$普通线
100
AcDbVertex
100
AcDb2dVertex
 10
335.6906914923816
 20
699.3547348708679
 30
0.0
  0
VERTEX
  5
513
330
509
100
AcDbEntity
  8
Make2D$可见线$普通线
100
AcDbVertex
100
AcDb2dVertex
 10
335.6315640151943
 20
699.4276308181096
 30
0.0
  0
VERTEX
  5
514
330
509
100
AcDbEntity
  8
Make2D$可见线$普通线
100
AcDbVertex
100
AcDb2dVertex
 10
335.5708000553157
 20
699.4982947522138
 30
0.0
  0
VERTEX
  5
515
330
509
100
AcDbEntity
  8
Make2D$可见线$普通线
100
AcDbVertex
100
AcDb2dVertex
 10
335.508419192946
 20
699.5667612534152
 30
0.0
  0
VERTEX
  5
516
330
509
100
AcDbEntity
  8
Make2D$可见线$普通线
100
AcDbVertex
100
AcDb2dVertex
 10
335.4444410082853
 20
699.6330649019491
 30
0.0
  0
VERTEX
  5
517
330
509
100
AcDbEntity
  8
Make2D$可见线$普通线
100
AcDbVertex
100
AcDb2dVertex
 10
335.3788850815342
 20
699.6972402780507
 30
0.0
  0
VERTEX
  5
518
330
509
100
AcDbEntity
  8
Make2D$可见线$普通线
100
AcDbVertex
100
AcDb2dVertex
 10
335.3117709928927
 20
699.7593219619546
 30
0.0
  0
VERTEX
  5
519
330
509
100
AcDbEntity
  8
Make2D$可见线$普通线
100
AcDbVertex
100
AcDb2dVertex
 10
335.2431183225614
 20
699.819344533897
 30
0.0
  0
VERTEX
  5
51A
330
509
100
AcDbEntity
  8
Make2D$可见线$普通线
100
AcDbVertex
100
AcDb2dVertex
 10
335.1729466507404
 20
699.8773425741125
 30
0.0
  0
VERTEX
  5
51B
330
509
100
AcDbEntity
  8
Make2D$可见线$普通线
100
AcDbVertex
100
AcDb2dVertex
 10
335.1012755576301
 20
699.9333506628363
 30
0.0
  0
VERTEX
  5
51C
330
509
100
AcDbEntity
  8
Make2D$可见线$普通线
100
AcDbVertex
100
AcDb2dVertex
 10
335.0281246234307
 20
699.9874033803036
 30
0.0
  0
VERTEX
  5
51D
330
509
100
AcDbEntity
  8
Make2D$可见线$普通线
100
AcDbVertex
100
AcDb2dVertex
 10
334.9535134283425
 20
700.0395353067495
 30
0.0
  0
VERTEX
  5
51E
330
509
100
AcDbEntity
  8
Make2D$可见线$普通线
100
AcDbVertex
100
AcDb2dVertex
 10
334.8774615525658
 20
700.0897810224092
 30
0.0
  0
VERTEX
  5
51F
330
509
100
AcDbEntity
  8
Make2D$可见线$普通线
100
AcDbVertex
100
AcDb2dVertex
 10
334.7999885763011
 20
700.1381751075178
 30
0.0
  0
VERTEX
  5
520
330
509
100
AcDbEntity
  8
Make2D$可见线$普通线
100
AcDbVertex
100
AcDb2dVertex
 10
334.7211140797484
 20
700.1847521423105
 30
0.0
  0
VERTEX
  5
521
330
509
100
AcDbEntity
  8
Make2D$可见线$普通线
100
AcDbVertex
100
AcDb2dVertex
 10
334.6408576431081
 20
700.2295467070226
 30
0.0
  0
VERTEX
  5
522
330
509
100
AcDbEntity
  8
Make2D$可见线$普通线
100
AcDbVertex
100
AcDb2dVertex
 10
334.5592388465806
 20
700.272593381889
 30
0.0
  0
VERTEX
  5
523
330
509
100
AcDbEntity
  8
Make2D$可见线$普通线
100
AcDbVertex
100
AcDb2dVertex
 10
334.476277270366
 20
700.313926747145
 30
0.0
  0
VERTEX
  5
524
330
509
100
AcDbEntity
  8
Make2D$可见线$普通线
100
AcDbVertex
100
AcDb2dVertex
 10
334.3919924946648
 20
700.3535813830258
 30
0.0
  0
VERTEX
  5
525
330
509
100
AcDbEntity
  8
Make2D$可见线$普通线
100
AcDbVertex
100
AcDb2dVertex
 10
334.3064040996771
 20
700.3915918697667
 30
0.0
  0
VERTEX
  5
526
330
509
100
AcDbEntity
  8
Make2D$可见线$普通线
100
AcDbVertex
100
AcDb2dVertex
 10
334.2195316656034
 20
700.4279927876026
 30
0.0
  0
VERTEX
  5
527
330
509
100
AcDbEntity
  8
Make2D$可见线$普通线
100
AcDbVertex
100
AcDb2dVertex
 10
334.1313947726438
 20
700.4628187167689
 30
0.0
  0
VERTEX
  5
528
330
509
100
AcDbEntity
  8
Make2D$可见线$普通线
100
AcDbVertex
100
AcDb2dVertex
 10
334.0420130009986
 20
700.4961042375005
 30
0.0
  0
VERTEX
  5
529
330
509
100
AcDbEntity
  8
Make2D$可见线$普通线
100
AcDbVertex
100
AcDb2dVertex
 10
333.9514059308683
 20
700.5278839300325
 30
0.0
  0
VERTEX
  5
52A
330
509
100
AcDbEntity
  8
Make2D$可见线$普通线
100
AcDbVertex
100
AcDb2dVertex
 10
333.859593142453
 20
700.5581923746004
 30
0.0
  0
VERTEX
  5
52B
330
509
100
AcDbEntity
  8
Make2D$可见线$普通线
100
AcDbVertex
100
AcDb2dVertex
 10
333.7665942159531
 20
700.5870641514393
 30
0.0
  0
VERTEX
  5
52C
330
509
100
AcDbEntity
  8
Make2D$可见线$普通线
100
AcDbVertex
100
AcDb2dVertex
 10
333.5771162695007
 20
700.6406360228705
 30
0.0
  0
VERTEX
  5
52D
330
509
100
AcDbEntity
  8
Make2D$可见线$普通线
100
AcDbVertex
100
AcDb2dVertex
 10
333.3328149226854
 20
700.6980006864582
 30
0.0
  0
VERTEX
  5
52E
330
509
100
AcDbEntity
  8
Make2D$可见线$普通线
100
AcDbVertex
100
AcDb2dVertex
 10
333.0866890497191
 20
700.7484796982383
 30
0.0
  0
VERTEX
  5
52F
330
509
100
AcDbEntity
  8
Make2D$可见线$普通线
100
AcDbVertex
100
AcDb2dVertex
 10
332.8390307876161
 20
700.7919911932541
 30
0.0
  0
VERTEX
  5
530
330
509
100
AcDbEntity
  8
Make2D$可见线$普通线
100
AcDbVertex
100
AcDb2dVertex
 10
332.5901369228542
 20
700.8284698982676
 30
0.0
  0
VERTEX
  5
531
330
509
100
AcDbEntity
  8
Make2D$可见线$普通线
100
AcDbVertex
100
AcDb2dVertex
 10
332.3403077090329
 20
700.8578674450532
 30
0.0
  0
VERTEX
  5
532
330
509
100
AcDbEntity
  8
Make2D$可见线$普通线
100
AcDbVertex
100
AcDb2dVertex
 10
332.0898456607202
 20
700.880152582286
 30
0.0
  0
VERTEX
  5
533
330
509
100
AcDbEntity
  8
Make2D$可见线$普通线
100
AcDbVertex
100
AcDb2dVertex
 10
331.8390543336509
 20
700.8953112840961
 30
0.0
  0
VERTEX
  5
534
330
509
100
AcDbEntity
  8
Make2D$可见线$普通线
100
AcDbVertex
100
AcDb2dVertex
 10
331.5882371015887
 20
700.9033467545174
 30
0.0
  0
VERTEX
  5
535
330
509
100
AcDbEntity
  8
Make2D$可见线$普通线
100
AcDbVertex
100
AcDb2dVertex
 10
331.0202469727017
 20
700.9075315811484
 30
0.0
  0
VERTEX
  5
536
330
509
100
AcDbEntity
  8
Make2D$可见线$普通线
100
AcDbVertex
100
AcDb2dVertex
 10
330.7360959643165
 20
700.9008173833334
 30
0.0
  0
VERTEX
  5
537
330
509
100
AcDbEntity
  8
Make2D$可见线$普通线
100
AcDbVertex
100
AcDb2dVertex
 10
330.4520837849964
 20
700.8882278121732
 30
0.0
  0
VERTEX
  5
538
330
509
100
AcDbEntity
  8
Make2D$可见线$普通线
100
AcDbVertex
100
AcDb2dVertex
 10
330.1683925978687
 20
700.8697690567966
 30
0.0
  0
VERTEX
  5
539
330
509
100
AcDbEntity
  8
Make2D$可见线$普通线
100
AcDbVertex
100
AcDb2dVertex
 10
329.8852041545286
 20
700.8454548309743
 30
0.0
  0
VERTEX
  5
53A
330
509
100
AcDbEntity
  8
Make2D$可见线$普通线
100
AcDbVertex
100
AcDb2dVertex
 10
329.6026994071079
 20
700.8153063398161
 30
0.0
  0
VERTEX
  5
53B
330
509
100
AcDbEntity
  8
Make2D$可见线$普通线
100
AcDbVertex
100
AcDb2dVertex
 10
329.3210581233955
 20
700.7793522225262
 30
0.0
  0
VERTEX
  5
53C
330
509
100
AcDbEntity
  8
Make2D$可见线$普通线
100
AcDbVertex
100
AcDb2dVertex
 10
329.0203069246077
 20
700.735139123171
 30
0.0
  0
VERTEX
  5
53D
330
509
100
AcDbEntity
  8
Make2D$可见线$普通线
100
AcDbVertex
100
AcDb2dVertex
 10
328.7176725659371
 20
700.683812085403
 30
0.0
  0
VERTEX
  5
53E
330
509
100
AcDbEntity
  8
Make2D$可见线$普通线
100
AcDbVertex
100
AcDb2dVertex
 10
328.413904216929
 20
700.6249029457425
 30
0.0
  0
VERTEX
  5
53F
330
509
100
AcDbEntity
  8
Make2D$可见线$普通线
100
AcDbVertex
100
AcDb2dVertex
 10
328.1097510471287
 20
700.5579435407101
 30
0.0
  0
VERTEX
  5
540
330
509
100
AcDbEntity
  8
Make2D$可见线$普通线
100
AcDbVertex
100
AcDb2dVertex
 10
327.8059622260811
 20
700.4824657068261
 30
0.0
  0
VERTEX
  5
541
330
509
100
AcDbEntity
  8
Make2D$可见线$普通线
100
AcDbVertex
100
AcDb2dVertex
 10
327.5032869233315
 20
700.398001280611
 30
0.0
  0
VERTEX
  5
542
330
509
100
AcDbEntity
  8
Make2D$可见线$普通线
100
AcDbVertex
100
AcDb2dVertex
 10
327.2024743084251
 20
700.3040820985851
 30
0.0
  0
VERTEX
  5
543
330
509
100
AcDbEntity
  8
Make2D$可见线$普通线
100
AcDbVertex
100
AcDb2dVertex
 10
326.9042735509072
 20
700.2002399972693
 30
0.0
  0
VERTEX
  5
544
330
509
100
AcDbEntity
  8
Make2D$可见线$普通线
100
AcDbVertex
100
AcDb2dVertex
 10
326.7563867341518
 20
700.14445155079
 30
0.0
  0
VERTEX
  5
545
330
509
100
AcDbEntity
  8
Make2D$可见线$普通线
100
AcDbVertex
100
AcDb2dVertex
 10
326.6094338203228
 20
700.0860068131833
 30
0.0
  0
VERTEX
  5
546
330
509
100
AcDbEntity
  8
Make2D$可见线$普通线
100
AcDbVertex
100
AcDb2dVertex
 10
326.4635084556136
 20
700.0248472640143
 30
0.0
  0
VERTEX
  5
547
330
509
100
AcDbEntity
  8
Make2D$可见线$普通线
100
AcDbVertex
100
AcDb2dVertex
 10
326.3187042862172
 20
699.960914382848
 30
0.0
  0
VERTEX
  5
548
330
509
100
AcDbEntity
  8
Make2D$可见线$普通线
100
AcDbVertex
100
AcDb2dVertex
 10
326.1751149583267
 20
699.8941496492495
 30
0.0
  0
VERTEX
  5
549
330
509
100
AcDbEntity
  8
Make2D$可见线$普通线
100
AcDbVertex
100
AcDb2dVertex
 10
326.0328341181355
 20
699.8244945427837
 30
0.0
  0
VERTEX
  5
54A
330
509
100
AcDbEntity
  8
Make2D$可见线$普通线
100
AcDbVertex
100
AcDb2dVertex
 10
325.8919554118365
 20
699.7518905430157
 30
0.0
  0
VERTEX
  5
54B
330
509
100
AcDbEntity
  8
Make2D$可见线$普通线
100
AcDbVertex
100
AcDb2dVertex
 10
325.752572485623
 20
699.6762791295107
 30
0.0
  0
VERTEX
  5
54C
330
509
100
AcDbEntity
  8
Make2D$可见线$普通线
100
AcDbVertex
100
AcDb2dVertex
 10
325.614778985688
 20
699.5976017818336
 30
0.0
  0
VERTEX
  5
54D
330
509
100
AcDbEntity
  8
Make2D$可见线$普通线
100
AcDbVertex
100
AcDb2dVertex
 10
325.4786685582247
 20
699.5157999795496
 30
0.0
  0
VERTEX
  5
54E
330
509
100
AcDbEntity
  8
Make2D$可见线$普通线
100
AcDbVertex
100
AcDb2dVertex
 10
325.3443348494264
 20
699.4308152022236
 30
0.0
  0
VERTEX
  5
54F
330
509
100
AcDbEntity
  8
Make2D$可见线$普通线
100
AcDbVertex
100
AcDb2dVertex
 10
325.2118715054861
 20
699.3425889294206
 30
0.0
  0
VERTEX
  5
550
330
509
100
AcDbEntity
  8
Make2D$可见线$普通线
100
AcDbVertex
100
AcDb2dVertex
 10
325.081372172597
 20
699.2510626407059
 30
0.0
  0
VERTEX
  5
551
330
509
100
AcDbEntity
  8
Make2D$可见线$普通线
100
AcDbVertex
100
AcDb2dVertex
 10
324.9529304969521
 20
699.1561778156445
 30
0.0
  0
VERTEX
  5
552
330
509
100
AcDbEntity
  8
Make2D$可见线$普通线
100
AcDbVertex
100
AcDb2dVertex
 10
324.8266401247448
 20
699.0578759338013
 30
0.0
  0
VERTEX
  5
553
330
509
100
AcDbEntity
  8
Make2D$可见线$普通线
100
AcDbVertex
100
AcDb2dVertex
 10
324.702594702168
 20
698.9560984747413
 30
0.0
  0
VERTEX
  5
554
330
509
100
AcDbEntity
  8
Make2D$可见线$普通线
100
AcDbVertex
100
AcDb2dVertex
 10
324.5798045620364
 20
699.0558462466423
 30
0.0
  0
VERTEX
  5
555
330
509
100
AcDbEntity
  8
Make2D$可见线$普通线
100
AcDbVertex
100
AcDb2dVertex
 10
324.4545920689728
 20
699.1529920055765
 30
0.0
  0
VERTEX
  5
556
330
509
100
AcDbEntity
  8
Make2D$可见线$普通线
100
AcDbVertex
100
AcDb2dVertex
 10
324.3270402506175
 20
699.2474492259516
 30
0.0
  0
VERTEX
  5
557
330
509
100
AcDbEntity
  8
Make2D$可见线$普通线
100
AcDbVertex
100
AcDb2dVertex
 10
324.1972361923566
 20
699.3391349401909
 30
0.0
  0
VERTEX
  5
558
330
509
100
AcDbEntity
  8
Make2D$可见线$普通线
100
AcDbVertex
100
AcDb2dVertex
 10
324.0652708449379
 20
699.4279699737491
 30
0.0
  0
VERTEX
  5
559
330
509
100
AcDbEntity
  8
Make2D$可见线$普通线
100
AcDbVertex
100
AcDb2dVertex
 10
323.9312388159249
 20
699.5138791674912
 30
0.0
  0
VERTEX
  5
55A
330
509
100
AcDbEntity
  8
Make2D$可见线$普通线
100
AcDbVertex
100
AcDb2dVertex
 10
323.7952381459667
 20
699.5967915861474
 30
0.0
  0
VERTEX
  5
55B
330
509
100
AcDbEntity
  8
Make2D$可见线$普通线
100
AcDbVertex
100
AcDb2dVertex
 10
323.6573700709845
 20
699.6766407116479
 30
0.0
  0
VERTEX
  5
55C
330
509
100
AcDbEntity
  8
Make2D$可见线$普通线
100
AcDbVertex
100
AcDb2dVertex
 10
323.517738771477
 20
699.7533646202412
 30
0.0
  0
VERTEX
  5
55D
330
509
100
AcDbEntity
  8
Make2D$可见线$普通线
100
AcDbVertex
100
AcDb2dVertex
 10
323.3764511102461
 20
699.8269061424083
 30
0.0
  0
VERTEX
  5
55E
330
509
100
AcDbEntity
  8
Make2D$可见线$普通线
100
AcDbVertex
100
AcDb2dVertex
 10
323.2336163599277
 20
699.8972130047076
 30
0.0
  0
VERTEX
  5
55F
330
509
100
AcDbEntity
  8
Make2D$可见线$普通线
100
AcDbVertex
100
AcDb2dVertex
 10
323.089345921786
 20
699.9642379528124
 30
0.0
  0
VERTEX
  5
560
330
509
100
AcDbEntity
  8
Make2D$可见线$普通线
100
AcDbVertex
100
AcDb2dVertex
 10
322.9437530372866
 20
700.0279388551374
 30
0.0
  0
VERTEX
  5
561
330
509
100
AcDbEntity
  8
Make2D$可见线$普通线
100
AcDbVertex
100
AcDb2dVertex
 10
322.7969524940103
 20
700.0882787865913
 30
0.0
  0
VERTEX
  5
562
330
509
100
AcDbEntity
  8
Make2D$可见线$普通线
100
AcDbVertex
100
AcDb2dVertex
 10
322.6490603275
 20
700.1452260921321
 30
0.0
  0
VERTEX
  5
563
330
509
100
AcDbEntity
  8
Make2D$可见线$普通线
100
AcDbVertex
100
AcDb2dVertex
 10
322.5001935206477
 20
700.1987544299529
 30
0.0
  0
VERTEX
  5
564
330
509
100
AcDbEntity
  8
Make2D$可见线$普通线
100
AcDbVertex
100
AcDb2dVertex
 10
322.2064312865414
 20
700.299331139831
 30
0.0
  0
VERTEX
  5
565
330
509
100
AcDbEntity
  8
Make2D$可见线$普通线
100
AcDbVertex
100
AcDb2dVertex
 10
321.9097671610089
 20
700.392118982115
 30
0.0
  0
VERTEX
  5
566
330
509
100
AcDbEntity
  8
Make2D$可见线$普通线
100
AcDbVertex
100
AcDb2dVertex
 10
321.610512391395
 20
700.4769972259965
 30
0.0
  0
VERTEX
  5
567
330
509
100
AcDbEntity
  8
Make2D$可见线$普通线
100
AcDbVertex
100
AcDb2dVertex
 10
321.3089846910781
 20
700.553861810278
 30
0.0
  0
VERTEX
  5
568
330
509
100
AcDbEntity
  8
Make2D$可见线$普通线
100
AcDbVertex
100
AcDb2dVertex
 10
321.0055071178971
 20
700.6226257612356
 30
0.0
  0
VERTEX
  5
569
330
509
100
AcDbEntity
  8
Make2D$可见线$普通线
100
AcDbVertex
100
AcDb2dVertex
 10
320.7004069214456
 20
700.6832195195466
 30
0.0
  0
VERTEX
  5
56A
330
509
100
AcDbEntity
  8
Make2D$可见线$普通线
100
AcDbVertex
100
AcDb2dVertex
 10
320.3940143678573
 20
700.7355911737059
 30
0.0
  0
VERTEX
  5
56B
330
509
100
AcDbEntity
  8
Make2D$可见线$普通线
100
AcDbVertex
100
AcDb2dVertex
 10
320.0866615509359
 20
700.7797065983036
 30
0.0
 42
0.0414672994649339
  0
VERTEX
  5
56C
330
509
100
AcDbEntity
  8
Make2D$可见线$普通线
100
AcDbVertex
100
AcDb2dVertex
 10
317.8157947499004
 20
700.9031499527507
 30
0.0
  0
VERTEX
  5
56D
330
509
100
AcDbEntity
  8
Make2D$可见线$普通线
100
AcDbVertex
100
AcDb2dVertex
 10
317.5651807454986
 20
700.8951396540381
 30
0.0
  0
VERTEX
  5
56E
330
509
100
AcDbEntity
  8
Make2D$可见线$普通线
100
AcDbVertex
100
AcDb2dVertex
 10
317.3145919755025
 20
700.8800070776226
 30
0.0
  0
VERTEX
  5
56F
330
509
100
AcDbEntity
  8
Make2D$可见线$普通线
100
AcDbVertex
100
AcDb2dVertex
 10
317.0643319787034
 20
700.857748986365
 30
0.0
  0
VERTEX
  5
570
330
509
100
AcDbEntity
  8
Make2D$可见线$普通线
100
AcDbVertex
100
AcDb2dVertex
 10
316.8147044778688
 20
700.8283793941164
 30
0.0
  0
VERTEX
  5
571
330
509
100
AcDbEntity
  8
Make2D$可见线$普通线
100
AcDbVertex
100
AcDb2dVertex
 10
316.5660121542739
 20
700.7919295613768
 30
0.0
  0
VERTEX
  5
572
330
509
100
AcDbEntity
  8
Make2D$可见线$普通线
100
AcDbVertex
100
AcDb2dVertex
 10
316.3185554255697
 20
700.7484478865774
 30
0.0
  0
VERTEX
  5
573
330
509
100
AcDbEntity
  8
Make2D$可见线$普通线
100
AcDbVertex
100
AcDb2dVertex
 10
316.0726312373356
 20
700.6979996937605
 30
0.0
  0
VERTEX
  5
574
330
509
100
AcDbEntity
  8
Make2D$可见线$普通线
100
AcDbVertex
100
AcDb2dVertex
 10
315.8285318785084
 20
700.6406669185968
 30
0.0
  0
VERTEX
  5
575
330
509
100
AcDbEntity
  8
Make2D$可见线$普通线
100
AcDbVertex
100
AcDb2dVertex
 10
315.6392715487075
 20
700.5871269291841
 30
0.0
  0
VERTEX
  5
576
330
509
100
AcDbEntity
  8
Make2D$可见线$普通线
100
AcDbVertex
100
AcDb2dVertex
 10
315.5463552084411
 20
700.558267399406
 30
0.0
  0
VERTEX
  5
577
330
509
100
AcDbEntity
  8
Make2D$可见线$普通线
100
AcDbVertex
100
AcDb2dVertex
 10
315.4546087885144
 20
700.52796892997
 30
0.0
  0
VERTEX
  5
578
330
509
100
AcDbEntity
  8
Make2D$可见线$普通线
100
AcDbVertex
100
AcDb2dVertex
 10
315.3640528168651
 20
700.4961970836687
 30
0.0
  0
VERTEX
  5
579
330
509
100
AcDbEntity
  8
Make2D$可见线$普通线
100
AcDbVertex
100
AcDb2dVertex
 10
315.2747078214309
 20
700.4629174232949
 30
0.0
  0
VERTEX
  5
57A
330
509
100
AcDbEntity
  8
Make2D$可见线$普通线
100
AcDbVertex
100
AcDb2dVertex
 10
315.1865943301496
 20
700.4280955116409
 30
0.0
  0
VERTEX
  5
57B
330
509
100
AcDbEntity
  8
Make2D$可见线$普通线
100
AcDbVertex
100
AcDb2dVertex
 10
315.0997328709588
 20
700.3916969114994
 30
0.0
  0
VERTEX
  5
57C
330
509
100
AcDbEntity
  8
Make2D$可见线$普通线
100
AcDbVertex
100
AcDb2dVertex
 10
315.0141439717964
 20
700.3536871856628
 30
0.0
  0
VERTEX
  5
57D
330
509
100
AcDbEntity
  8
Make2D$可见线$普通线
100
AcDbVertex
100
AcDb2dVertex
 10
314.9298481605999
 20
700.3140318969241
 30
0.0
  0
VERTEX
  5
57E
330
509
100
AcDbEntity
  8
Make2D$可见线$普通线
100
AcDbVertex
100
AcDb2dVertex
 10
314.8468659653073
 20
700.2726966080753
 30
0.0
  0
VERTEX
  5
57F
330
509
100
AcDbEntity
  8
Make2D$可见线$普通线
100
AcDbVertex
100
AcDb2dVertex
 10
314.7652179138562
 20
700.2296468819095
 30
0.0
  0
VERTEX
  5
580
330
509
100
AcDbEntity
  8
Make2D$可见线$普通线
100
AcDbVertex
100
AcDb2dVertex
 10
314.6849245341842
 20
700.1848482812188
 30
0.0
  0
VERTEX
  5
581
330
509
100
AcDbEntity
  8
Make2D$可见线$普通线
100
AcDbVertex
100
AcDb2dVertex
 10
314.6060063542291
 20
700.138266368796
 30
0.0
  0
VERTEX
  5
582
330
509
100
AcDbEntity
  8
Make2D$可见线$普通线
100
AcDbVertex
100
AcDb2dVertex
 10
314.5284839019287
 20
700.0898667074337
 30
0.0
  0
VERTEX
  5
583
330
509
100
AcDbEntity
  8
Make2D$可见线$普通线
100
AcDbVertex
100
AcDb2dVertex
 10
314.4523777052207
 20
700.0396148599245
 30
0.0
  0
VERTEX
  5
584
330
509
100
AcDbEntity
  8
Make2D$可见线$普通线
100
AcDbVertex
100
AcDb2dVertex
 10
314.3777082920428
 20
699.9874763890607
 30
0.0
  0
VERTEX
  5
585
330
509
100
AcDbEntity
  8
Make2D$可见线$普通线
100
AcDbVertex
100
AcDb2dVertex
 10
314.3044961903327
 20
699.9334168576352
 30
0.0
  0
VERTEX
  5
586
330
509
100
AcDbEntity
  8
Make2D$可见线$普通线
100
AcDbVertex
100
AcDb2dVertex
 10
314.2327619280283
 20
699.8774018284403
 30
0.0
  0
VERTEX
  5
587
330
509
100
AcDbEntity
  8
Make2D$可见线$普通线
100
AcDbVertex
100
AcDb2dVertex
 10
314.1625260330671
 20
699.8193968642688
 30
0.0
  0
VERTEX
  5
588
330
509
100
AcDbEntity
  8
Make2D$可见线$普通线
100
AcDbVertex
100
AcDb2dVertex
 10
314.0938090333869
 20
699.759367527913
 30
0.0
  0
VERTEX
  5
589
330
509
100
AcDbEntity
  8
Make2D$可见线$普通线
100
AcDbVertex
100
AcDb2dVertex
 10
314.0266314569255
 20
699.6972793821657
 30
0.0
  0
VERTEX
  5
58A
330
509
100
AcDbEntity
  8
Make2D$可见线$普通线
100
AcDbVertex
100
AcDb2dVertex
 10
313.9610138316205
 20
699.6330979898192
 30
0.0
  0
VERTEX
  5
58B
330
509
100
AcDbEntity
  8
Make2D$可见线$普通线
100
AcDbVertex
100
AcDb2dVertex
 10
313.8969766854098
 20
699.5667889136664
 30
0.0
  0
VERTEX
  5
58C
330
509
100
AcDbEntity
  8
Make2D$可见线$普通线
100
AcDbVertex
100
AcDb2dVertex
 10
313.8345405462309
 20
699.4983177164996
 30
0.0
  0
VERTEX
  5
58D
330
509
100
AcDbEntity
  8
Make2D$可见线$普通线
100
AcDbVertex
100
AcDb2dVertex
 10
313.7737259420218
 20
699.4276499611118
 30
0.0
  0
VERTEX
  5
58E
330
509
100
AcDbEntity
  8
Make2D$可见线$普通线
100
AcDbVertex
100
AcDb2dVertex
 10
313.7145534007199
 20
699.3547512102949
 30
0.0
  0
VERTEX
  5
58F
330
509
100
AcDbEntity
  8
Make2D$可见线$普通线
100
AcDbVertex
100
AcDb2dVertex
 10
313.6570434502633
 20
699.279587026842
 30
0.0
  0
VERTEX
  5
590
330
509
100
AcDbEntity
  8
Make2D$可见线$普通线
100
AcDbVertex
100
AcDb2dVertex
 10
313.6012166185894
 20
699.2021229735454
 30
0.0
  0
VERTEX
  5
591
330
509
100
AcDbEntity
  8
Make2D$可见线$普通线
100
AcDbVertex
100
AcDb2dVertex
 10
313.5470934336362
 20
699.122324613198
 30
0.0
  0
VERTEX
  5
592
330
509
100
AcDbEntity
  8
Make2D$可见线$普通线
100
AcDbVertex
100
AcDb2dVertex
 10
313.4946944233412
 20
699.0401575085918
 30
0.0
  0
VERTEX
  5
593
330
509
100
AcDbEntity
  8
Make2D$可见线$普通线
100
AcDbVertex
100
AcDb2dVertex
 10
313.4440401156423
 20
698.9555872225203
 30
0.0
 42
0.1008380169094802
  0
VERTEX
  5
594
330
509
100
AcDbEntity
  8
Make2D$可见线$普通线
100
AcDbVertex
100
AcDb2dVertex
 10
311.7050532370862
 20
700.9075808459804
 30
0.0
  0
VERTEX
  5
595
330
509
100
AcDbEntity
  8
Make2D$可见线$普通线
100
AcDbVertex
100
AcDb2dVertex
 10
311.702453434393
 20
701.3270188854933
 30
0.0
 42
-0.3930012100911743
  0
VERTEX
  5
596
330
509
100
AcDbEntity
  8
Make2D$可见线$普通线
100
AcDbVertex
100
AcDb2dVertex
 10
312.1656653453986
 20
701.8256733473202
 30
0.0
  0
SEQEND
  5
597
330
509
100
AcDbEntity
  8
Make2D$可见线$普通线
  0
POLYLINE
  5
598
330
1F
100
AcDbEntity
  8
Make2D$可见线$普通线
100
AcDb2dPolyline
 66
     1
 10
0.0
 20
0.0
 30
0.0
  0
VERTEX
  5
599
330
598
100
AcDbEntity
  8
Make2D$可见线$普通线
100
AcDbVertex
100
AcDb2dVertex
 10
313.7025947021518
 20
689.6400153388385
 30
0.0
  0
VERTEX
  5
59A
330
598
100
AcDbEntity
  8
Make2D$可见线$普通线
100
AcDbVertex
100
AcDb2dVertex
 10
313.7025947021518
 20
687.7858474004488
 30
0.0
  0
VERTEX
  5
59B
330
598
100
AcDbEntity
  8
Make2D$可见线$普通线
100
AcDbVertex
100
AcDb2dVertex
 10
335.7025947021518
 20
687.7858474004489
 30
0.0
  0
VERTEX
  5
59C
330
598
100
AcDbEntity
  8
Make2D$可见线$普通线
100
AcDbVertex
100
AcDb2dVertex
 10
335.7025947021519
 20
689.6400153388385
 30
0.0
  0
VERTEX
  5
59D
330
598
100
AcDbEntity
  8
Make2D$可见线$普通线
100
AcDbVertex
100
AcDb2dVertex
 10
324.7025948563408
 20
689.6400153388358
 30
0.0
  0
SEQEND
  5
59E
330
598
100
AcDbEntity
  8
Make2D$可见线$普通线
  0
ENDSEC
  0
SECTION
  2
OBJECTS
  0
DICTIONARY
  5
C
330
0
100
AcDbDictionary
281
     1
  3
ACAD_GROUP
350
D
  3
ACAD_LAYOUT
350
1A
  3
ACAD_MATERIAL
350
3B
  3
ACAD_MLEADERSTYLE
350
5C9
  3
ACAD_MLINESTYLE
350
17
  3
ACAD_PLOTSETTINGS
350
19
  3
ACAD_PLOTSTYLENAME
350
E
  3
ACAD_SCALELIST
350
3F
  3
ACAD_TABLESTYLE
350
5C8
  3
ACAD_VISUALSTYLE
350
2A
  3
AcDbVariableDictionary
350
59F
  0
DICTIONARY
  5
D
102
{ACAD_REACTORS
330
C
102
}
330
C
100
AcDbDictionary
281
     1
  0
DICTIONARY
  5
1A
102
{ACAD_REACTORS
330
C
102
}
330
C
100
AcDbDictionary
281
     1
  3
Layout1
350
1E
  3
Layout2
350
26
  3
Model
350
22
  0
DICTIONARY
  5
3B
102
{ACAD_REACTORS
330
C
102
}
330
C
100
AcDbDictionary
281
     1
  3
ByBlock
350
3D
  3
ByLayer
350
3C
  3
Global
350
3E
  0
DICTIONARY
  5
5C9
102
{ACAD_REACTORS
330
C
102
}
330
C
100
AcDbDictionary
281
     1
  0
DICTIONARY
  5
17
102
{ACAD_REACTORS
330
C
102
}
330
C
100
AcDbDictionary
281
     1
  3
Standard
350
18
  0
DICTIONARY
  5
19
102
{ACAD_REACTORS
330
C
102
}
330
C
100
AcDbDictionary
281
     1
  0
ACDBDICTIONARYWDFLT
  5
E
102
{ACAD_REACTORS
330
C
102
}
330
C
100
AcDbDictionary
281
     1
  3
Normal
350
F
100
AcDbDictionaryWithDefault
340
F
  0
DICTIONARY
  5
3F
102
{ACAD_REACTORS
330
C
102
}
330
C
100
AcDbDictionary
281
     1
  3
A0
350
40
  3
A1
350
41
  3
A2
350
42
  3
A3
350
43
  3
A4
350
44
  3
A5
350
45
  3
A6
350
46
  3
A7
350
47
  3
A8
350
48
  3
A9
350
49
  3
B0
350
4A
  3
B1
350
4B
  3
B2
350
4C
  3
B3
350
4D
  3
B4
350
4E
  3
B5
350
4F
  3
B6
350
50
  3
B7
350
51
  3
B8
350
52
  3
B9
350
53
  3
C0
350
54
  3
C1
350
55
  3
C2
350
56
  3
C3
350
57
  3
C4
350
58
  3
C5
350
59
  3
C6
350
5A
  3
C7
350
5B
  3
C8
350
5C
  3
C9
350
5D
  3
D0
350
5E
  3
D1
350
5F
  3
D2
350
60
  0
DICTIONARY
  5
5C8
102
{ACAD_REACTORS
330
C
102
}
330
C
100
AcDbDictionary
281
     1
  0
DICTIONARY
  5
2A
102
{ACAD_REACTORS
330
C
102
}
330
C
100
AcDbDictionary
281
     1
  3
2dWireframe
350
2F
  3
3D Hidden
350
31
  3
3dWireframe
350
30
  3
Basic
350
32
  3
Brighten
350
36
  3
ColorChange
350
3A
  3
Conceptual
350
34
  3
Dim
350
35
  3
Facepattern
350
39
  3
Flat
350
2B
  3
FlatWithEdges
350
2C
  3
Gouraud
350
2D
  3
GouraudWithEdges
350
2E
  3
Linepattern
350
38
  3
Realistic
350
33
  3
Thicken
350
37
  0
DICTIONARY
  5
59F
102
{ACAD_REACTORS
330
C
102
}
330
C
100
AcDbDictionary
281
     1
  3
CANNOSCALE
350
5A0
  3
MSLTSCALE
350
5A1
  0
LAYOUT
  5
1E
102
{ACAD_REACTORS
330
1A
102
}
330
1A
100
AcDbPlotSettings
  1

  2
none_device
  4

  6

 40
0.0
 41
0.0
 42
0.0
 43
0.0
 44
0.0
 45
0.0
 46
0.0
 47
0.0
 48
0.0
 49
0.0
140
0.0
141
0.0
142
1.0
143
1.0
 70
   688
 72
     0
 73
     0
 74
     5
  7

 75
    16
 76
     0
 77
     2
 78
   300
147
1.0
148
0.0
149
0.0
100
AcDbLayout
  1
Layout1
 70
     1
 71
     1
 10
0.0
 20
0.0
 11
12.0
 21
9.0
 12
0.0
 22
0.0
 32
0.0
 14
1.000000000000000E+20
 24
1.000000000000000E+20
 34
1.000000000000000E+20
 15
-1.000000000000000E+20
 25
-1.000000000000000E+20
 35
-1.000000000000000E+20
146
0.0
 13
0.0
 23
0.0
 33
0.0
 16
1.0
 26
0.0
 36
0.0
 17
0.0
 27
1.0
 37
0.0
 76
     0
330
1B
  0
LAYOUT
  5
26
102
{ACAD_REACTORS
330
1A
102
}
330
1A
100
AcDbPlotSettings
  1

  2
none_device
  4

  6

 40
0.0
 41
0.0
 42
0.0
 43
0.0
 44
0.0
 45
0.0
 46
0.0
 47
0.0
 48
0.0
 49
0.0
140
0.0
141
0.0
142
1.0
143
1.0
 70
   688
 72
     0
 73
     0
 74
     5
  7

 75
    16
 76
     0
 77
     2
 78
   300
147
1.0
148
0.0
149
0.0
100
AcDbLayout
  1
Layout2
 70
     1
 71
     2
 10
0.0
 20
0.0
 11
0.0
 21
0.0
 12
0.0
 22
0.0
 32
0.0
 14
0.0
 24
0.0
 34
0.0
 15
0.0
 25
0.0
 35
0.0
146
0.0
 13
0.0
 23
0.0
 33
0.0
 16
1.0
 26
0.0
 36
0.0
 17
0.0
 27
1.0
 37
0.0
 76
     0
330
23
  0
LAYOUT
  5
22
102
{ACAD_REACTORS
330
1A
102
}
330
1A
100
AcDbPlotSettings
  1

  2
none_device
  4
Letter_(8.50_x_11.00_Inches)
  6

 40
6.35
 41
6.35
 42
6.35000508
 43
6.35000508
 44
215.9
 45
279.4
 46
0.0
 47
0.0
 48
0.0
 49
0.0
140
0.0
141
0.0
142
1.0
143
1.0
 70
  1712
 72
     0
 73
     0
 74
     0
  7

 75
     0
 76
     0
 77
     2
 78
   300
147
1.0
148
0.0
149
0.0
100
AcDbLayout
  1
Model
 70
     1
 71
     0
 10
0.0
 20
0.0
 11
12.0
 21
9.0
 12
0.0
 22
0.0
 32
0.0
 14
268.2936652581319
 24
657.285847397821
 34
0.0
 15
381.1111434460446
 25
737.2858509083226
 35
0.0
146
0.0
 13
0.0
 23
0.0
 33
0.0
 16
1.0
 26
0.0
 36
0.0
 17
0.0
 27
1.0
 37
0.0
 76
     0
330
1F
331
29
  0
MATERIAL
  5
3D
102
{ACAD_REACTORS
330
3B
102
}
102
{ACAD_XDICTIONARY
360
5C4
102
}
330
3B
100
AcDbMaterial
  1
ByBlock
  0
MATERIAL
  5
3C
102
{ACAD_REACTORS
330
3B
102
}
102
{ACAD_XDICTIONARY
360
5C2
102
}
330
3B
100
AcDbMaterial
  1
ByLayer
  0
MATERIAL
  5
3E
102
{ACAD_REACTORS
330
3B
102
}
102
{ACAD_XDICTIONARY
360
5C6
102
}
330
3B
100
AcDbMaterial
  1
Global
  0
MLINESTYLE
  5
18
102
{ACAD_REACTORS
330
17
102
}
330
17
100
AcDbMlineStyle
  2
Standard
 70
     0
  3

 62
   256
 51
90.0
 52
90.0
 71
     2
 49
0.5
 62
   256
  6
BYLAYER
 49
-0.5
 62
   256
  6
BYLAYER
  0
ACDBPLACEHOLDER
  5
F
102
{ACAD_REACTORS
330
E
102
}
330
E
  0
SCALE
  5
40
102
{ACAD_REACTORS
330
3F
102
}
330
3F
100
AcDbScale
 70
     0
300
1:1
140
1.0
141
1.0
290
     1
  0
SCALE
  5
41
102
{ACAD_REACTORS
330
3F
102
}
330
3F
100
AcDbScale
 70
     0
300
1:2
140
1.0
141
2.0
290
     0
  0
SCALE
  5
42
102
{ACAD_REACTORS
330
3F
102
}
330
3F
100
AcDbScale
 70
     0
300
1:4
140
1.0
141
4.0
290
     0
  0
SCALE
  5
43
102
{ACAD_REACTORS
330
3F
102
}
330
3F
100
AcDbScale
 70
     0
300
1:5
140
1.0
141
5.0
290
     0
  0
SCALE
  5
44
102
{ACAD_REACTORS
330
3F
102
}
330
3F
100
AcDbScale
 70
     0
300
1:8
140
1.0
141
8.0
290
     0
  0
SCALE
  5
45
102
{ACAD_REACTORS
330
3F
102
}
330
3F
100
AcDbScale
 70
     0
300
1:10
140
1.0
141
10.0
290
     0
  0
SCALE
  5
46
102
{ACAD_REACTORS
330
3F
102
}
330
3F
100
AcDbScale
 70
     0
300
1:16
140
1.0
141
16.0
290
     0
  0
SCALE
  5
47
102
{ACAD_REACTORS
330
3F
102
}
330
3F
100
AcDbScale
 70
     0
300
1:20
140
1.0
141
20.0
290
     0
  0
SCALE
  5
48
102
{ACAD_REACTORS
330
3F
102
}
330
3F
100
AcDbScale
 70
     0
300
1:30
140
1.0
141
30.0
290
     0
  0
SCALE
  5
49
102
{ACAD_REACTORS
330
3F
102
}
330
3F
100
AcDbScale
 70
     0
300
1:40
140
1.0
141
40.0
290
     0
  0
SCALE
  5
4A
102
{ACAD_REACTORS
330
3F
102
}
330
3F
100
AcDbScale
 70
     0
300
1:50
140
1.0
141
50.0
290
     0
  0
SCALE
  5
4B
102
{ACAD_REACTORS
330
3F
102
}
330
3F
100
AcDbScale
 70
     0
300
1:100
140
1.0
141
100.0
290
     0
  0
SCALE
  5
4C
102
{ACAD_REACTORS
330
3F
102
}
330
3F
100
AcDbScale
 70
     0
300
2:1
140
2.0
141
1.0
290
     0
  0
SCALE
  5
4D
102
{ACAD_REACTORS
330
3F
102
}
330
3F
100
AcDbScale
 70
     0
300
4:1
140
4.0
141
1.0
290
     0
  0
SCALE
  5
4E
102
{ACAD_REACTORS
330
3F
102
}
330
3F
100
AcDbScale
 70
     0
300
8:1
140
8.0
141
1.0
290
     0
  0
SCALE
  5
4F
102
{ACAD_REACTORS
330
3F
102
}
330
3F
100
AcDbScale
 70
     0
300
10:1
140
10.0
141
1.0
290
     0
  0
SCALE
  5
50
102
{ACAD_REACTORS
330
3F
102
}
330
3F
100
AcDbScale
 70
     0
300
100:1
140
100.0
141
1.0
290
     0
  0
SCALE
  5
51
102
{ACAD_REACTORS
330
3F
102
}
330
3F
100
AcDbScale
 70
     0
300
1/128" = 1'-0"
140
0.0078125
141
12.0
290
     0
  0
SCALE
  5
52
102
{ACAD_REACTORS
330
3F
102
}
330
3F
100
AcDbScale
 70
     0
300
1/64" = 1'-0"
140
0.015625
141
12.0
290
     0
  0
SCALE
  5
53
102
{ACAD_REACTORS
330
3F
102
}
330
3F
100
AcDbScale
 70
     0
300
1/32" = 1'-0"
140
0.03125
141
12.0
290
     0
  0
SCALE
  5
54
102
{ACAD_REACTORS
330
3F
102
}
330
3F
100
AcDbScale
 70
     0
300
1/16" = 1'-0"
140
0.0625
141
12.0
290
     0
  0
SCALE
  5
55
102
{ACAD_REACTORS
330
3F
102
}
330
3F
100
AcDbScale
 70
     0
300
3/32" = 1'-0"
140
0.09375
141
12.0
290
     0
  0
SCALE
  5
56
102
{ACAD_REACTORS
330
3F
102
}
330
3F
100
AcDbScale
 70
     0
300
1/8" = 1'-0"
140
0.125
141
12.0
290
     0
  0
SCALE
  5
57
102
{ACAD_REACTORS
330
3F
102
}
330
3F
100
AcDbScale
 70
     0
300
3/16" = 1'-0"
140
0.1875
141
12.0
290
     0
  0
SCALE
  5
58
102
{ACAD_REACTORS
330
3F
102
}
330
3F
100
AcDbScale
 70
     0
300
1/4" = 1'-0"
140
0.25
141
12.0
290
     0
  0
SCALE
  5
59
102
{ACAD_REACTORS
330
3F
102
}
330
3F
100
AcDbScale
 70
     0
300
3/8" = 1'-0"
140
0.375
141
12.0
290
     0
  0
SCALE
  5
5A
102
{ACAD_REACTORS
330
3F
102
}
330
3F
100
AcDbScale
 70
     0
300
1/2" = 1'-0"
140
0.5
141
12.0
290
     0
  0
SCALE
  5
5B
102
{ACAD_REACTORS
330
3F
102
}
330
3F
100
AcDbScale
 70
     0
300
3/4" = 1'-0"
140
0.75
141
12.0
290
     0
  0
SCALE
  5
5C
102
{ACAD_REACTORS
330
3F
102
}
330
3F
100
AcDbScale
 70
     0
300
1" = 1'-0"
140
1.0
141
12.0
290
     0
  0
SCALE
  5
5D
102
{ACAD_REACTORS
330
3F
102
}
330
3F
100
AcDbScale
 70
     0
300
1-1/2" = 1'-0"
140
1.5
141
12.0
290
     0
  0
SCALE
  5
5E
102
{ACAD_REACTORS
330
3F
102
}
330
3F
100
AcDbScale
 70
     0
300
3" = 1'-0"
140
3.0
141
12.0
290
     0
  0
SCALE
  5
5F
102
{ACAD_REACTORS
330
3F
102
}
330
3F
100
AcDbScale
 70
     0
300
6" = 1'-0"
140
6.0
141
12.0
290
     0
  0
SCALE
  5
60
102
{ACAD_REACTORS
330
3F
102
}
330
3F
100
AcDbScale
 70
     0
300
1'-0" = 1'-0"
140
12.0
141
12.0
290
     0
  0
VISUALSTYLE
  5
2F
102
{ACAD_REACTORS
330
2A
102
}
102
{ACAD_XDICTIONARY
360
5AA
102
}
330
2A
100
AcDbVisualStyle
  2
2dWireframe
 70
     4
 71
     0
 72
     2
 73
     0
 90
        0
 40
0.6
 41
30.0
 62
     5
 63
     7
421
 16777215
 74
     1
 91
        4
 64
     7
 65
   257
 75
     1
175
     1
 42
1.0
 92
        0
 66
   257
 43
1.0
 76
     1
 77
     6
 78
     2
 67
     7
 79
     5
170
     0
171
     0
290
     0
174
     0
 93
        1
 44
0.0
173
     0
291
     0
 45
0.0
1001
ACAD
1000
AcDbSavedByObjectVersion
1070
     0
  0
VISUALSTYLE
  5
31
102
{ACAD_REACTORS
330
2A
102
}
102
{ACAD_XDICTIONARY
360
5AE
102
}
330
2A
100
AcDbVisualStyle
  2
3D Hidden
 70
     6
 71
     1
 72
     2
 73
     2
 90
        0
 40
0.6
 41
30.0
 62
     5
 63
     7
421
 16777215
 74
     2
 91
        2
 64
     7
 65
   257
 75
     2
175
     1
 42
40.0
 92
        0
 66
   257
 43
1.0
 76
     1
 77
     6
 78
     2
 67
     7
 79
     3
170
     0
171
     0
290
     0
174
     0
 93
        1
 44
0.0
173
     0
291
     0
 45
0.0
1001
ACAD
1000
AcDbSavedByObjectVersion
1070
     0
  0
VISUALSTYLE
  5
30
102
{ACAD_REACTORS
330
2A
102
}
102
{ACAD_XDICTIONARY
360
5AC
102
}
330
2A
100
AcDbVisualStyle
  2
3dWireframe
 70
     5
 71
     0
 72
     2
 73
     0
 90
        0
 40
0.6
 41
30.0
 62
     5
 63
     7
421
 16777215
 74
     1
 91
        4
 64
     7
 65
   257
 75
     1
175
     1
 42
1.0
 92
        0
 66
   257
 43
1.0
 76
     1
 77
     6
 78
     2
 67
     7
 79
     5
170
     0
171
     0
290
     0
174
     0
 93
        1
 44
0.0
173
     0
291
     0
 45
0.0
1001
ACAD
1000
AcDbSavedByObjectVersion
1070
     0
  0
VISUALSTYLE
  5
32
102
{ACAD_REACTORS
330
2A
102
}
102
{ACAD_XDICTIONARY
360
5B0
102
}
330
2A
100
AcDbVisualStyle
  2
Basic
 70
     7
 71
     1
 72
     0
 73
     1
 90
        0
 40
0.6
 41
30.0
 62
     5
 63
     7
421
 16777215
 74
     0
 91
        4
 64
     7
 65
   257
 75
     1
175
     1
 42
1.0
 92
        8
 66
     7
 43
1.0
 76
     1
 77
     6
 78
     2
 67
     7
 79
     5
170
     0
171
     0
290
     0
174
     0
 93
        1
 44
0.0
173
     0
291
     1
 45
0.0
1001
ACAD
1000
AcDbSavedByObjectVersion
1070
     0
  0
VISUALSTYLE
  5
36
102
{ACAD_REACTORS
330
2A
102
}
102
{ACAD_XDICTIONARY
360
5B8
102
}
330
2A
100
AcDbVisualStyle
  2
Brighten
 70
    12
 71
     2
 72
     2
 73
     0
 90
        0
 40
0.6
 41
30.0
 62
     5
 63
     7
421
 16777215
 74
     1
 91
        4
 64
     7
 65
   257
 75
     1
175
     1
 42
1.0
 92
        8
 66
     7
 43
1.0
 76
     1
 77
     6
 78
     2
 67
     7
 79
     5
170
     0
171
     0
290
     0
174
     0
 93
        1
 44
50.0
173
     0
291
     1
 45
0.0
1001
ACAD
1000
AcDbSavedByObjectVersion
1070
     0
  0
VISUALSTYLE
  5
3A
102
{ACAD_REACTORS
330
2A
102
}
102
{ACAD_XDICTIONARY
360
5C0
102
}
330
2A
100
AcDbVisualStyle
  2
ColorChange
 70
    16
 71
     2
 72
     2
 73
     3
 90
        0
 40
0.6
 41
30.0
 62
     5
 63
     8
421
  8421504
 74
     1
 91
        4
 64
     7
 65
   257
 75
     1
175
     1
 42
1.0
 92
        8
 66
     8
424
  8421504
 43
1.0
 76
     1
 77
     6
 78
     2
 67
     7
 79
     5
170
     0
171
     0
290
     0
174
     0
 93
        1
 44
0.0
173
     0
291
     1
 45
0.0
1001
ACAD
1000
AcDbSavedByObjectVersion
1070
     0
  0
VISUALSTYLE
  5
34
102
{ACAD_REACTORS
330
2A
102
}
102
{ACAD_XDICTIONARY
360
5B4
102
}
330
2A
100
AcDbVisualStyle
  2
Conceptual
 70
     9
 71
     3
 72
     2
 73
     0
 90
        0
 40
0.6
 41
30.0
 62
     5
 63
     7
421
 16777215
 74
     2
 91
        2
 64
     7
 65
   257
 75
     1
175
     1
 42
40.0
 92
        8
 66
     7
 43
1.0
 76
     1
 77
     6
 78
     2
 67
     7
 79
     3
170
     0
171
     0
290
     0
174
     0
 93
        1
 44
0.0
173
     0
291
     0
 45
0.0
1001
ACAD
1000
AcDbSavedByObjectVersion
1070
     0
  0
VISUALSTYLE
  5
35
102
{ACAD_REACTORS
330
2A
102
}
102
{ACAD_XDICTIONARY
360
5B6
102
}
330
2A
100
AcDbVisualStyle
  2
Dim
 70
    11
 71
     2
 72
     2
 73
     0
 90
        0
 40
0.6
 41
30.0
 62
     5
 63
     7
421
 16777215
 74
     1
 91
        4
 64
     7
 65
   257
 75
     1
175
     1
 42
1.0
 92
        8
 66
     7
 43
1.0
 76
     1
 77
     6
 78
     2
 67
     7
 79
     5
170
     0
171
     0
290
     0
174
     0
 93
        1
 44
-50.0
173
     0
291
     1
 45
0.0
1001
ACAD
1000
AcDbSavedByObjectVersion
1070
     0
  0
VISUALSTYLE
  5
39
102
{ACAD_REACTORS
330
2A
102
}
102
{ACAD_XDICTIONARY
360
5BE
102
}
330
2A
100
AcDbVisualStyle
  2
Facepattern
 70
    15
 71
     2
 72
     2
 73
     0
 90
        0
 40
0.6
 41
30.0
 62
     5
 63
     7
421
 16777215
 74
     1
 91
        4
 64
     7
 65
   257
 75
     1
175
     1
 42
1.0
 92
        8
 66
     7
 43
1.0
 76
     1
 77
     6
 78
     2
 67
     7
 79
     5
170
     0
171
     0
290
     0
174
     0
 93
        1
 44
0.0
173
     0
291
     1
 45
0.0
1001
ACAD
1000
AcDbSavedByObjectVersion
1070
     0
  0
VISUALSTYLE
  5
2B
102
{ACAD_REACTORS
330
2A
102
}
102
{ACAD_XDICTIONARY
360
5A2
102
}
330
2A
100
AcDbVisualStyle
  2
Flat
 70
     0
 71
     2
 72
     1
 73
     1
 90
        2
 40
0.6
 41
30.0
 62
     5
 63
     7
421
 16777215
 74
     0
 91
        4
 64
     7
 65
   257
 75
     1
175
     1
 42
1.0
 92
        8
 66
     7
 43
1.0
 76
     1
 77
     6
 78
     2
 67
     7
 79
     5
170
     0
171
     0
290
     0
174
     0
 93
       13
 44
0.0
173
     0
291
     1
 45
0.0
1001
ACAD
1000
AcDbSavedByObjectVersion
1070
     0
  0
VISUALSTYLE
  5
2C
102
{ACAD_REACTORS
330
2A
102
}
102
{ACAD_XDICTIONARY
360
5A4
102
}
330
2A
100
AcDbVisualStyle
  2
FlatWithEdges
 70
     1
 71
     2
 72
     1
 73
     1
 90
        2
 40
0.6
 41
30.0
 62
     5
 63
     7
421
 16777215
 74
     1
 91
        4
 64
     7
 65
   257
 75
     1
175
     1
 42
1.0
 92
        0
 66
   257
 43
1.0
 76
     1
 77
     6
 78
     2
 67
     7
 79
     5
170
     0
171
     0
290
     0
174
     0
 93
       13
 44
0.0
173
     0
291
     1
 45
0.0
1001
ACAD
1000
AcDbSavedByObjectVersion
1070
     0
  0
VISUALSTYLE
  5
2D
102
{ACAD_REACTORS
330
2A
102
}
102
{ACAD_XDICTIONARY
360
5A6
102
}
330
2A
100
AcDbVisualStyle
  2
Gouraud
 70
     2
 71
     2
 72
     2
 73
     1
 90
        2
 40
0.6
 41
30.0
 62
     5
 63
     7
421
 16777215
 74
     0
 91
        4
 64
     7
 65
   257
 75
     1
175
     1
 42
1.0
 92
        0
 66
     7
 43
1.0
 76
     1
 77
     6
 78
     2
 67
     7
 79
     5
170
     0
171
     0
290
     0
174
     0
 93
       13
 44
0.0
173
     0
291
     1
 45
0.0
1001
ACAD
1000
AcDbSavedByObjectVersion
1070
     0
  0
VISUALSTYLE
  5
2E
102
{ACAD_REACTORS
330
2A
102
}
102
{ACAD_XDICTIONARY
360
5A8
102
}
330
2A
100
AcDbVisualStyle
  2
GouraudWithEdges
 70
     3
 71
     2
 72
     2
 73
     1
 90
        2
 40
0.6
 41
30.0
 62
     5
 63
     7
421
 16777215
 74
     1
 91
        4
 64
     7
 65
   257
 75
     1
175
     1
 42
1.0
 92
        0
 66
   257
 43
1.0
 76
     1
 77
     6
 78
     2
 67
     7
 79
     5
170
     0
171
     0
290
     0
174
     0
 93
       13
 44
0.0
173
     0
291
     1
 45
0.0
1001
ACAD
1000
AcDbSavedByObjectVersion
1070
     0
  0
VISUALSTYLE
  5
38
102
{ACAD_REACTORS
330
2A
102
}
102
{ACAD_XDICTIONARY
360
5BC
102
}
330
2A
100
AcDbVisualStyle
  2
Linepattern
 70
    14
 71
     2
 72
     2
 73
     0
 90
        0
 40
0.6
 41
30.0
 62
     5
 63
     7
421
 16777215
 74
     1
 91
        4
 64
     7
 65
   257
 75
     7
175
     7
 42
1.0
 92
        8
 66
     7
 43
1.0
 76
     1
 77
     6
 78
     2
 67
     7
 79
     5
170
     0
171
     0
290
     0
174
     0
 93
        1
 44
0.0
173
     0
291
     1
 45
0.0
1001
ACAD
1000
AcDbSavedByObjectVersion
1070
     0
  0
VISUALSTYLE
  5
33
102
{ACAD_REACTORS
330
2A
102
}
102
{ACAD_XDICTIONARY
360
5B2
102
}
330
2A
100
AcDbVisualStyle
  2
Realistic
 70
     8
 71
     2
 72
     3
 73
     0
 90
        2
 40
0.6
 41
30.0
 62
     5
 63
     7
421
 16777215
 74
     0
 91
        0
 64
     7
 65
   257
 75
     1
175
     1
 42
1.0
 92
        8
 66
   257
 43
1.0
 76
     1
 77
     6
 78
     2
 67
     7
 79
     3
170
     0
171
     0
290
     0
174
     0
 93
       13
 44
0.0
173
     0
291
     0
 45
0.0
1001
ACAD
1000
AcDbSavedByObjectVersion
1070
     0
  0
VISUALSTYLE
  5
37
102
{ACAD_REACTORS
330
2A
102
}
102
{ACAD_XDICTIONARY
360
5BA
102
}
330
2A
100
AcDbVisualStyle
  2
Thicken
 70
    13
 71
     2
 72
     2
 73
     0
 90
        0
 40
0.6
 41
30.0
 62
     5
 63
     7
421
 16777215
 74
     1
 91
        4
 64
     7
 65
   257
 75
     1
175
     1
 42
1.0
 92
       12
 66
     7
 43
1.0
 76
     1
 77
     6
 78
     2
 67
     7
 79
     5
170
     0
171
     0
290
     0
174
     0
 93
        1
 44
0.0
173
     0
291
     1
 45
0.0
1001
ACAD
1000
AcDbSavedByObjectVersion
1070
     0
  0
DICTIONARYVAR
  5
5A0
102
{ACAD_REACTORS
330
59F
102
}
330
59F
100
DictionaryVariables
280
     0
  1
1:1
  0
DICTIONARYVAR
  5
5A1
102
{ACAD_REACTORS
330
59F
102
}
330
59F
100
DictionaryVariables
280
     0
  1
1
  0
DICTIONARY
  5
5C4
330
3D
100
AcDbDictionary
280
     1
281
     1
  3
ACAD_XREC_ROUNDTRIP
360
5C5
  0
DICTIONARY
  5
5C2
330
3C
100
AcDbDictionary
280
     1
281
     1
  3
ACAD_XREC_ROUNDTRIP
360
5C3
  0
DICTIONARY
  5
5C6
330
3E
100
AcDbDictionary
280
     1
281
     1
  3
ACAD_XREC_ROUNDTRIP
360
5C7
  0
DICTIONARY
  5
5AA
330
2F
100
AcDbDictionary
280
     1
281
     1
  3
ACAD_XREC_ROUNDTRIP
360
5AB
  0
DICTIONARY
  5
5AE
330
31
100
AcDbDictionary
280
     1
281
     1
  3
ACAD_XREC_ROUNDTRIP
360
5AF
  0
DICTIONARY
  5
5AC
330
30
100
AcDbDictionary
280
     1
281
     1
  3
ACAD_XREC_ROUNDTRIP
360
5AD
  0
DICTIONARY
  5
5B0
330
32
100
AcDbDictionary
280
     1
281
     1
  3
ACAD_XREC_ROUNDTRIP
360
5B1
  0
DICTIONARY
  5
5B8
330
36
100
AcDbDictionary
280
     1
281
     1
  3
ACAD_XREC_ROUNDTRIP
360
5B9
  0
DICTIONARY
  5
5C0
330
3A
100
AcDbDictionary
280
     1
281
     1
  3
ACAD_XREC_ROUNDTRIP
360
5C1
  0
DICTIONARY
  5
5B4
330
34
100
AcDbDictionary
280
     1
281
     1
  3
ACAD_XREC_ROUNDTRIP
360
5B5
  0
DICTIONARY
  5
5B6
330
35
100
AcDbDictionary
280
     1
281
     1
  3
ACAD_XREC_ROUNDTRIP
360
5B7
  0
DICTIONARY
  5
5BE
330
39
100
AcDbDictionary
280
     1
281
     1
  3
ACAD_XREC_ROUNDTRIP
360
5BF
  0
DICTIONARY
  5
5A2
330
2B
100
AcDbDictionary
280
     1
281
     1
  3
ACAD_XREC_ROUNDTRIP
360
5A3
  0
DICTIONARY
  5
5A4
330
2C
100
AcDbDictionary
280
     1
281
     1
  3
ACAD_XREC_ROUNDTRIP
360
5A5
  0
DICTIONARY
  5
5A6
330
2D
100
AcDbDictionary
280
     1
281
     1
  3
ACAD_XREC_ROUNDTRIP
360
5A7
  0
DICTIONARY
  5
5A8
330
2E
100
AcDbDictionary
280
     1
281
     1
  3
ACAD_XREC_ROUNDTRIP
360
5A9
  0
DICTIONARY
  5
5BC
330
38
100
AcDbDictionary
280
     1
281
     1
  3
ACAD_XREC_ROUNDTRIP
360
5BD
  0
DICTIONARY
  5
5B2
330
33
100
AcDbDictionary
280
     1
281
     1
  3
ACAD_XREC_ROUNDTRIP
360
5B3
  0
DICTIONARY
  5
5BA
330
37
100
AcDbDictionary
280
     1
281
     1
  3
ACAD_XREC_ROUNDTRIP
360
5BB
  0
XRECORD
  5
5C5
102
{ACAD_REACTORS
330
5C4
102
}
330
5C4
100
AcDbXrecord
280
     1
102
MATERIAL
148
0.0
149
0.0
149
0.0
 93
        0
 94
      127
282
     0
 72
     1
 77
     1
171
     1
175
     1
179
     1
273
     0
  0
XRECORD
  5
5C3
102
{ACAD_REACTORS
330
5C2
102
}
330
5C2
100
AcDbXrecord
280
     1
102
MATERIAL
148
0.0
149
0.0
149
0.0
 93
        0
 94
      127
282
     0
 72
     1
 77
     1
171
     1
175
     1
179
     1
273
     0
  0
XRECORD
  5
5C7
102
{ACAD_REACTORS
330
5C6
102
}
330
5C6
100
AcDbXrecord
280
     1
102
MATERIAL
148
0.0
149
0.0
149
0.0
 93
        0
 94
      127
282
     0
 72
     1
 77
     1
171
     1
175
     1
179
     1
273
     0
  0
XRECORD
  5
5AB
102
{ACAD_REACTORS
330
5AA
102
}
330
5AA
100
AcDbXrecord
280
     1
102
RTVSPropertyOp0
 70
     1
102
RTVSPropertyOp1
 70
     1
102
RTVSPropertyOp2
 70
     1
102
RTVSPropertyOp3
 70
     1
102
RTVSPropertyOp4
 70
     1
102
RTVSPropertyOp5
 70
     1
102
RTVSPropertyOp6
 70
     1
102
RTVSPropertyOp7
 70
     1
102
RTVSPropertyOp8
 70
     1
102
RTVSPropertyOp9
 70
     1
102
RTVSPropertyOp10
 70
     1
102
RTVSPropertyOp11
 70
     1
102
RTVSPropertyOp12
 70
     1
102
RTVSPropertyOp13
 70
     1
102
RTVSPropertyOp14
 70
     1
102
RTVSPropertyOp15
 70
     1
102
RTVSPropertyOp16
 70
     1
102
RTVSPropertyOp17
 70
     1
102
RTVSPropertyOp18
 70
     1
102
RTVSPropertyOp19
 70
     1
102
RTVSPropertyOp20
 70
     1
102
RTVSPropertyOp21
 70
     1
102
RTVSPropertyOp22
 70
     1
102
RTVSPropertyOp23
 70
     1
102
RTVSPropertyOp24
 70
     1
102
RTVSPropertyOp25
 70
     1
102
RTVSPropertyOp26
 70
     1
102
RTVSPropertyOp27
 70
     1
102
RTVSPropertyOp28
 70
     1
102
RTVSPropertyOp29
 70
     1
102
RTVSPropertyOp30
 70
     1
102
RTVSPropertyOp31
 70
     1
102
RTVSPropertyOp32
 70
     1
102
RTVSPropertyOp33
 70
     1
102
RTVSPropertyOp34
 70
     1
102
RTVSPropertyOp35
 70
     1
102
RTVSPropertyOp36
 70
     1
102
RTVSPropertyOp37
 70
     1
102
RTVSPropertyOp38
 70
     1
102
RTVSPropertyOp39
 70
     1
102
RTVSPropertyOp40
 70
     1
102
RTVSPropertyOp41
 70
     1
102
RTVSPropertyOp42
 70
     1
102
RTVSPropertyOp43
 70
     1
102
RTVSPropertyOp44
 70
     1
102
RTVSPropertyOp45
 70
     1
102
RTVSPropertyOp46
 70
     1
102
RTVSPropertyOp47
 70
     1
102
RTVSPropertyOp48
 70
     1
102
RTVSPropertyOp49
 70
     1
102
RTVSPropertyOp50
 70
     1
102
RTVSPropertyOp51
 70
     0
102
RTVSPropertyOp52
 70
     0
102
RTVSPropertyOp53
 70
     1
102
RTVSPropertyOp54
 70
     1
102
RTVSPropertyOp55
 70
     1
102
RTVSPropertyOp56
 70
     1
102
RTVSPropertyOp57
 70
     1
102
RTVSPost2010Prop28
280
     1
102
RTVSPost2010PropOp28
 70
     1
102
RTVSPost2010Prop29
280
     1
102
RTVSPost2010PropOp29
 70
     1
102
RTVSPost2010Prop30
280
     0
102
RTVSPost2010PropOp30
 70
     1
102
RTVSPost2010Prop31
280
     0
102
RTVSPost2010PropOp31
 70
     1
102
RTVSPost2010Prop32
280
     0
102
RTVSPost2010PropOp32
 70
     1
102
RTVSPost2010Prop33
280
     0
102
RTVSPost2010PropOp33
 70
     1
102
RTVSPost2010Prop34
280
     0
102
RTVSPost2010PropOp34
 70
     1
102
RTVSPost2010Prop35
280
     0
102
RTVSPost2010PropOp35
 70
     1
102
RTVSPost2010Prop36
280
     0
102
RTVSPost2010PropOp36
 70
     1
102
RTVSPost2010Prop37
 90
       50
102
RTVSPost2010PropOp37
 70
     1
102
RTVSPost2010Prop38
140
0.0
102
RTVSPost2010PropOp38
 70
     1
102
RTVSPost2010Prop39
140
1.0
102
RTVSPost2010PropOp39
 70
     1
102
RTVSPost2010Prop40
 90
        0
102
RTVSPost2010PropOp40
 70
     1
102
RTVSPost2010Prop41ColorIndex
 90
       18
102
RTVSPost2010Prop41ColorRGB
 90
        0
102
RTVSPost2010PropOp41
 70
     1
102
RTVSPost2010Prop42
 90
       50
102
RTVSPost2010PropOp42
 70
     1
102
RTVSPost2010Prop43
 90
        3
102
RTVSPost2010PropOp43
 70
     1
102
RTVSPost2010Prop44ColorIndex
 90
        5
102
RTVSPost2010Prop44ColorRGB
 90
      255
102
RTVSPost2010PropOp44
 70
     1
102
RTVSPost2010Prop45
280
     0
102
RTVSPost2010PropOp45
 70
     1
102
RTVSPost2010Prop46
 90
       50
102
RTVSPost2010PropOp46
 70
     1
102
RTVSPost2010Prop47
 90
       50
102
RTVSPost2010PropOp47
 70
     1
102
RTVSPost2010Prop48
 90
       50
102
RTVSPost2010PropOp48
 70
     1
102
RTVSPost2010Prop49
280
     0
102
RTVSPost2010PropOp49
 70
     1
102
RTVSPost2010Prop50
 90
       50
102
RTVSPost2010PropOp50
 70
     1
102
RTVSPost2010Prop51ColorIndex
 90
      256
102
RTVSPost2010Prop51ColorRGB
 90
-16777216
102
RTVSPost2010PropOp51
 70
     0
102
RTVSPost2010Prop52
140
1.0
102
RTVSPost2010PropOp52
 70
     0
102
RTVSPost2010Prop53
 90
        2
102
RTVSPost2010PropOp53
 70
     1
102
RTVSPost2010Prop54
  1
strokes_ogs.tif
102
RTVSPost2010PropOp54
 70
     1
102
RTVSPost2010Prop55
280
     0
102
RTVSPost2010PropOp55
 70
     1
102
RTVSPost2010Prop56
140
1.0
102
RTVSPost2010PropOp56
 70
     1
102
RTVSPost2010Prop57
140
1.0
102
RTVSPost2010PropOp57
 70
     1
  0
XRECORD
  5
5AF
102
{ACAD_REACTORS
330
5AE
102
}
330
5AE
100
AcDbXrecord
280
     1
102
RTVSPropertyOp0
 70
     1
102
RTVSPropertyOp1
 70
     1
102
RTVSPropertyOp2
 70
     1
102
RTVSPropertyOp3
 70
     1
102
RTVSPropertyOp4
 70
     1
102
RTVSPropertyOp5
 70
     1
102
RTVSPropertyOp6
 70
     1
102
RTVSPropertyOp7
 70
     1
102
RTVSPropertyOp8
 70
     1
102
RTVSPropertyOp9
 70
     1
102
RTVSPropertyOp10
 70
     1
102
RTVSPropertyOp11
 70
     1
102
RTVSPropertyOp12
 70
     1
102
RTVSPropertyOp13
 70
     1
102
RTVSPropertyOp14
 70
     1
102
RTVSPropertyOp15
 70
     1
102
RTVSPropertyOp16
 70
     1
102
RTVSPropertyOp17
 70
     1
102
RTVSPropertyOp18
 70
     1
102
RTVSPropertyOp19
 70
     1
102
RTVSPropertyOp20
 70
     1
102
RTVSPropertyOp21
 70
     1
102
RTVSPropertyOp22
 70
     1
102
RTVSPropertyOp23
 70
     1
102
RTVSPropertyOp24
 70
     1
102
RTVSPropertyOp25
 70
     1
102
RTVSPropertyOp26
 70
     1
102
RTVSPropertyOp27
 70
     1
102
RTVSPropertyOp28
 70
     1
102
RTVSPropertyOp29
 70
     1
102
RTVSPropertyOp30
 70
     1
102
RTVSPropertyOp31
 70
     1
102
RTVSPropertyOp32
 70
     1
102
RTVSPropertyOp33
 70
     1
102
RTVSPropertyOp34
 70
     1
102
RTVSPropertyOp35
 70
     1
102
RTVSPropertyOp36
 70
     1
102
RTVSPropertyOp37
 70
     1
102
RTVSPropertyOp38
 70
     1
102
RTVSPropertyOp39
 70
     1
102
RTVSPropertyOp40
 70
     1
102
RTVSPropertyOp41
 70
     1
102
RTVSPropertyOp42
 70
     1
102
RTVSPropertyOp43
 70
     1
102
RTVSPropertyOp44
 70
     1
102
RTVSPropertyOp45
 70
     1
102
RTVSPropertyOp46
 70
     1
102
RTVSPropertyOp47
 70
     1
102
RTVSPropertyOp48
 70
     1
102
RTVSPropertyOp49
 70
     1
102
RTVSPropertyOp50
 70
     1
102
RTVSPropertyOp51
 70
     0
102
RTVSPropertyOp52
 70
     0
102
RTVSPropertyOp53
 70
     1
102
RTVSPropertyOp54
 70
     1
102
RTVSPropertyOp55
 70
     1
102
RTVSPropertyOp56
 70
     1
102
RTVSPropertyOp57
 70
     1
102
RTVSPost2010Prop28
280
     0
102
RTVSPost2010PropOp28
 70
     1
102
RTVSPost2010Prop29
280
     1
102
RTVSPost2010PropOp29
 70
     1
102
RTVSPost2010Prop30
280
     1
102
RTVSPost2010PropOp30
 70
     1
102
RTVSPost2010Prop31
280
     0
102
RTVSPost2010PropOp31
 70
     1
102
RTVSPost2010Prop32
280
     0
102
RTVSPost2010PropOp32
 70
     1
102
RTVSPost2010Prop33
280
     0
102
RTVSPost2010PropOp33
 70
     1
102
RTVSPost2010Prop34
280
     0
102
RTVSPost2010PropOp34
 70
     1
102
RTVSPost2010Prop35
280
     0
102
RTVSPost2010PropOp35
 70
     1
102
RTVSPost2010Prop36
280
     0
102
RTVSPost2010PropOp36
 70
     1
102
RTVSPost2010Prop37
 90
       50
102
RTVSPost2010PropOp37
 70
     1
102
RTVSPost2010Prop38
140
0.0
102
RTVSPost2010PropOp38
 70
     1
102
RTVSPost2010Prop39
140
1.0
102
RTVSPost2010PropOp39
 70
     1
102
RTVSPost2010Prop40
 90
        0
102
RTVSPost2010PropOp40
 70
     1
102
RTVSPost2010Prop41ColorIndex
 90
       18
102
RTVSPost2010Prop41ColorRGB
 90
        0
102
RTVSPost2010PropOp41
 70
     1
102
RTVSPost2010Prop42
 90
       50
102
RTVSPost2010PropOp42
 70
     1
102
RTVSPost2010Prop43
 90
        3
102
RTVSPost2010PropOp43
 70
     1
102
RTVSPost2010Prop44ColorIndex
 90
        5
102
RTVSPost2010Prop44ColorRGB
 90
      255
102
RTVSPost2010PropOp44
 70
     1
102
RTVSPost2010Prop45
280
     0
102
RTVSPost2010PropOp45
 70
     1
102
RTVSPost2010Prop46
 90
       50
102
RTVSPost2010PropOp46
 70
     1
102
RTVSPost2010Prop47
 90
       50
102
RTVSPost2010PropOp47
 70
     1
102
RTVSPost2010Prop48
 90
       50
102
RTVSPost2010PropOp48
 70
     1
102
RTVSPost2010Prop49
280
     0
102
RTVSPost2010PropOp49
 70
     1
102
RTVSPost2010Prop50
 90
       50
102
RTVSPost2010PropOp50
 70
     1
102
RTVSPost2010Prop51ColorIndex
 90
      256
102
RTVSPost2010Prop51ColorRGB
 90
-16777216
102
RTVSPost2010PropOp51
 70
     0
102
RTVSPost2010Prop52
140
1.0
102
RTVSPost2010PropOp52
 70
     0
102
RTVSPost2010Prop53
 90
        2
102
RTVSPost2010PropOp53
 70
     1
102
RTVSPost2010Prop54
  1
strokes_ogs.tif
102
RTVSPost2010PropOp54
 70
     1
102
RTVSPost2010Prop55
280
     0
102
RTVSPost2010PropOp55
 70
     1
102
RTVSPost2010Prop56
140
1.0
102
RTVSPost2010PropOp56
 70
     1
102
RTVSPost2010Prop57
140
1.0
102
RTVSPost2010PropOp57
 70
     1
  0
XRECORD
  5
5AD
102
{ACAD_REACTORS
330
5AC
102
}
330
5AC
100
AcDbXrecord
280
     1
102
RTVSPropertyOp0
 70
     1
102
RTVSPropertyOp1
 70
     1
102
RTVSPropertyOp2
 70
     1
102
RTVSPropertyOp3
 70
     1
102
RTVSPropertyOp4
 70
     1
102
RTVSPropertyOp5
 70
     1
102
RTVSPropertyOp6
 70
     1
102
RTVSPropertyOp7
 70
     1
102
RTVSPropertyOp8
 70
     1
102
RTVSPropertyOp9
 70
     1
102
RTVSPropertyOp10
 70
     1
102
RTVSPropertyOp11
 70
     1
102
RTVSPropertyOp12
 70
     1
102
RTVSPropertyOp13
 70
     1
102
RTVSPropertyOp14
 70
     1
102
RTVSPropertyOp15
 70
     1
102
RTVSPropertyOp16
 70
     1
102
RTVSPropertyOp17
 70
     1
102
RTVSPropertyOp18
 70
     1
102
RTVSPropertyOp19
 70
     1
102
RTVSPropertyOp20
 70
     1
102
RTVSPropertyOp21
 70
     1
102
RTVSPropertyOp22
 70
     1
102
RTVSPropertyOp23
 70
     1
102
RTVSPropertyOp24
 70
     1
102
RTVSPropertyOp25
 70
     1
102
RTVSPropertyOp26
 70
     1
102
RTVSPropertyOp27
 70
     1
102
RTVSPropertyOp28
 70
     1
102
RTVSPropertyOp29
 70
     1
102
RTVSPropertyOp30
 70
     1
102
RTVSPropertyOp31
 70
     1
102
RTVSPropertyOp32
 70
     1
102
RTVSPropertyOp33
 70
     1
102
RTVSPropertyOp34
 70
     1
102
RTVSPropertyOp35
 70
     1
102
RTVSPropertyOp36
 70
     1
102
RTVSPropertyOp37
 70
     1
102
RTVSPropertyOp38
 70
     1
102
RTVSPropertyOp39
 70
     1
102
RTVSPropertyOp40
 70
     1
102
RTVSPropertyOp41
 70
     1
102
RTVSPropertyOp42
 70
     1
102
RTVSPropertyOp43
 70
     1
102
RTVSPropertyOp44
 70
     1
102
RTVSPropertyOp45
 70
     1
102
RTVSPropertyOp46
 70
     1
102
RTVSPropertyOp47
 70
     1
102
RTVSPropertyOp48
 70
     1
102
RTVSPropertyOp49
 70
     1
102
RTVSPropertyOp50
 70
     1
102
RTVSPropertyOp51
 70
     0
102
RTVSPropertyOp52
 70
     0
102
RTVSPropertyOp53
 70
     1
102
RTVSPropertyOp54
 70
     1
102
RTVSPropertyOp55
 70
     1
102
RTVSPropertyOp56
 70
     1
102
RTVSPropertyOp57
 70
     1
102
RTVSPost2010Prop28
280
     0
102
RTVSPost2010PropOp28
 70
     1
102
RTVSPost2010Prop29
280
     1
102
RTVSPost2010PropOp29
 70
     1
102
RTVSPost2010Prop30
280
     1
102
RTVSPost2010PropOp30
 70
     1
102
RTVSPost2010Prop31
280
     0
102
RTVSPost2010PropOp31
 70
     1
102
RTVSPost2010Prop32
280
     0
102
RTVSPost2010PropOp32
 70
     1
102
RTVSPost2010Prop33
280
     0
102
RTVSPost2010PropOp33
 70
     1
102
RTVSPost2010Prop34
280
     0
102
RTVSPost2010PropOp34
 70
     1
102
RTVSPost2010Prop35
280
     0
102
RTVSPost2010PropOp35
 70
     1
102
RTVSPost2010Prop36
280
     0
102
RTVSPost2010PropOp36
 70
     1
102
RTVSPost2010Prop37
 90
       50
102
RTVSPost2010PropOp37
 70
     1
102
RTVSPost2010Prop38
140
0.0
102
RTVSPost2010PropOp38
 70
     1
102
RTVSPost2010Prop39
140
1.0
102
RTVSPost2010PropOp39
 70
     1
102
RTVSPost2010Prop40
 90
        0
102
RTVSPost2010PropOp40
 70
     1
102
RTVSPost2010Prop41ColorIndex
 90
       18
102
RTVSPost2010Prop41ColorRGB
 90
        0
102
RTVSPost2010PropOp41
 70
     1
102
RTVSPost2010Prop42
 90
       50
102
RTVSPost2010PropOp42
 70
     1
102
RTVSPost2010Prop43
 90
        3
102
RTVSPost2010PropOp43
 70
     1
102
RTVSPost2010Prop44ColorIndex
 90
        5
102
RTVSPost2010Prop44ColorRGB
 90
      255
102
RTVSPost2010PropOp44
 70
     1
102
RTVSPost2010Prop45
280
     0
102
RTVSPost2010PropOp45
 70
     1
102
RTVSPost2010Prop46
 90
       50
102
RTVSPost2010PropOp46
 70
     1
102
RTVSPost2010Prop47
 90
       50
102
RTVSPost2010PropOp47
 70
     1
102
RTVSPost2010Prop48
 90
       50
102
RTVSPost2010PropOp48
 70
     1
102
RTVSPost2010Prop49
280
     0
102
RTVSPost2010PropOp49
 70
     1
102
RTVSPost2010Prop50
 90
       50
102
RTVSPost2010PropOp50
 70
     1
102
RTVSPost2010Prop51ColorIndex
 90
      256
102
RTVSPost2010Prop51ColorRGB
 90
-16777216
102
RTVSPost2010PropOp51
 70
     0
102
RTVSPost2010Prop52
140
1.0
102
RTVSPost2010PropOp52
 70
     0
102
RTVSPost2010Prop53
 90
        2
102
RTVSPost2010PropOp53
 70
     1
102
RTVSPost2010Prop54
  1
strokes_ogs.tif
102
RTVSPost2010PropOp54
 70
     1
102
RTVSPost2010Prop55
280
     0
102
RTVSPost2010PropOp55
 70
     1
102
RTVSPost2010Prop56
140
1.0
102
RTVSPost2010PropOp56
 70
     1
102
RTVSPost2010Prop57
140
1.0
102
RTVSPost2010PropOp57
 70
     1
  0
XRECORD
  5
5B1
102
{ACAD_REACTORS
330
5B0
102
}
330
5B0
100
AcDbXrecord
280
     1
102
RTVSPropertyOp0
 70
     1
102
RTVSPropertyOp1
 70
     1
102
RTVSPropertyOp2
 70
     1
102
RTVSPropertyOp3
 70
     1
102
RTVSPropertyOp4
 70
     1
102
RTVSPropertyOp5
 70
     1
102
RTVSPropertyOp6
 70
     1
102
RTVSPropertyOp7
 70
     1
102
RTVSPropertyOp8
 70
     1
102
RTVSPropertyOp9
 70
     1
102
RTVSPropertyOp10
 70
     1
102
RTVSPropertyOp11
 70
     1
102
RTVSPropertyOp12
 70
     1
102
RTVSPropertyOp13
 70
     1
102
RTVSPropertyOp14
 70
     1
102
RTVSPropertyOp15
 70
     1
102
RTVSPropertyOp16
 70
     1
102
RTVSPropertyOp17
 70
     1
102
RTVSPropertyOp18
 70
     1
102
RTVSPropertyOp19
 70
     1
102
RTVSPropertyOp20
 70
     1
102
RTVSPropertyOp21
 70
     1
102
RTVSPropertyOp22
 70
     1
102
RTVSPropertyOp23
 70
     1
102
RTVSPropertyOp24
 70
     1
102
RTVSPropertyOp25
 70
     1
102
RTVSPropertyOp26
 70
     1
102
RTVSPropertyOp27
 70
     1
102
RTVSPropertyOp28
 70
     1
102
RTVSPropertyOp29
 70
     1
102
RTVSPropertyOp30
 70
     1
102
RTVSPropertyOp31
 70
     1
102
RTVSPropertyOp32
 70
     1
102
RTVSPropertyOp33
 70
     1
102
RTVSPropertyOp34
 70
     1
102
RTVSPropertyOp35
 70
     1
102
RTVSPropertyOp36
 70
     1
102
RTVSPropertyOp37
 70
     1
102
RTVSPropertyOp38
 70
     1
102
RTVSPropertyOp39
 70
     1
102
RTVSPropertyOp40
 70
     1
102
RTVSPropertyOp41
 70
     1
102
RTVSPropertyOp42
 70
     1
102
RTVSPropertyOp43
 70
     1
102
RTVSPropertyOp44
 70
     1
102
RTVSPropertyOp45
 70
     1
102
RTVSPropertyOp46
 70
     1
102
RTVSPropertyOp47
 70
     1
102
RTVSPropertyOp48
 70
     1
102
RTVSPropertyOp49
 70
     1
102
RTVSPropertyOp50
 70
     1
102
RTVSPropertyOp51
 70
     0
102
RTVSPropertyOp52
 70
     0
102
RTVSPropertyOp53
 70
     1
102
RTVSPropertyOp54
 70
     1
102
RTVSPropertyOp55
 70
     1
102
RTVSPropertyOp56
 70
     1
102
RTVSPropertyOp57
 70
     1
102
RTVSPost2010Prop28
280
     0
102
RTVSPost2010PropOp28
 70
     1
102
RTVSPost2010Prop29
280
     1
102
RTVSPost2010PropOp29
 70
     1
102
RTVSPost2010Prop30
280
     1
102
RTVSPost2010PropOp30
 70
     1
102
RTVSPost2010Prop31
280
     0
102
RTVSPost2010PropOp31
 70
     1
102
RTVSPost2010Prop32
280
     0
102
RTVSPost2010PropOp32
 70
     1
102
RTVSPost2010Prop33
280
     0
102
RTVSPost2010PropOp33
 70
     1
102
RTVSPost2010Prop34
280
     0
102
RTVSPost2010PropOp34
 70
     1
102
RTVSPost2010Prop35
280
     0
102
RTVSPost2010PropOp35
 70
     1
102
RTVSPost2010Prop36
280
     0
102
RTVSPost2010PropOp36
 70
     1
102
RTVSPost2010Prop37
 90
       50
102
RTVSPost2010PropOp37
 70
     1
102
RTVSPost2010Prop38
140
0.0
102
RTVSPost2010PropOp38
 70
     1
102
RTVSPost2010Prop39
140
1.0
102
RTVSPost2010PropOp39
 70
     1
102
RTVSPost2010Prop40
 90
        0
102
RTVSPost2010PropOp40
 70
     1
102
RTVSPost2010Prop41ColorIndex
 90
       18
102
RTVSPost2010Prop41ColorRGB
 90
        0
102
RTVSPost2010PropOp41
 70
     1
102
RTVSPost2010Prop42
 90
       50
102
RTVSPost2010PropOp42
 70
     1
102
RTVSPost2010Prop43
 90
        3
102
RTVSPost2010PropOp43
 70
     1
102
RTVSPost2010Prop44ColorIndex
 90
        5
102
RTVSPost2010Prop44ColorRGB
 90
      255
102
RTVSPost2010PropOp44
 70
     1
102
RTVSPost2010Prop45
280
     0
102
RTVSPost2010PropOp45
 70
     1
102
RTVSPost2010Prop46
 90
       50
102
RTVSPost2010PropOp46
 70
     1
102
RTVSPost2010Prop47
 90
       50
102
RTVSPost2010PropOp47
 70
     1
102
RTVSPost2010Prop48
 90
       50
102
RTVSPost2010PropOp48
 70
     1
102
RTVSPost2010Prop49
280
     0
102
RTVSPost2010PropOp49
 70
     1
102
RTVSPost2010Prop50
 90
       50
102
RTVSPost2010PropOp50
 70
     1
102
RTVSPost2010Prop51ColorIndex
 90
      256
102
RTVSPost2010Prop51ColorRGB
 90
-16777216
102
RTVSPost2010PropOp51
 70
     0
102
RTVSPost2010Prop52
140
1.0
102
RTVSPost2010PropOp52
 70
     0
102
RTVSPost2010Prop53
 90
        2
102
RTVSPost2010PropOp53
 70
     1
102
RTVSPost2010Prop54
  1
strokes_ogs.tif
102
RTVSPost2010PropOp54
 70
     1
102
RTVSPost2010Prop55
280
     0
102
RTVSPost2010PropOp55
 70
     1
102
RTVSPost2010Prop56
140
1.0
102
RTVSPost2010PropOp56
 70
     1
102
RTVSPost2010Prop57
140
1.0
102
RTVSPost2010PropOp57
 70
     1
  0
XRECORD
  5
5B9
102
{ACAD_REACTORS
330
5B8
102
}
330
5B8
100
AcDbXrecord
280
     1
102
RTVSPropertyOp0
 70
     1
102
RTVSPropertyOp1
 70
     1
102
RTVSPropertyOp2
 70
     1
102
RTVSPropertyOp3
 70
     1
102
RTVSPropertyOp4
 70
     1
102
RTVSPropertyOp5
 70
     1
102
RTVSPropertyOp6
 70
     1
102
RTVSPropertyOp7
 70
     1
102
RTVSPropertyOp8
 70
     1
102
RTVSPropertyOp9
 70
     1
102
RTVSPropertyOp10
 70
     1
102
RTVSPropertyOp11
 70
     1
102
RTVSPropertyOp12
 70
     1
102
RTVSPropertyOp13
 70
     1
102
RTVSPropertyOp14
 70
     1
102
RTVSPropertyOp15
 70
     1
102
RTVSPropertyOp16
 70
     1
102
RTVSPropertyOp17
 70
     1
102
RTVSPropertyOp18
 70
     1
102
RTVSPropertyOp19
 70
     1
102
RTVSPropertyOp20
 70
     1
102
RTVSPropertyOp21
 70
     1
102
RTVSPropertyOp22
 70
     1
102
RTVSPropertyOp23
 70
     1
102
RTVSPropertyOp24
 70
     1
102
RTVSPropertyOp25
 70
     1
102
RTVSPropertyOp26
 70
     1
102
RTVSPropertyOp27
 70
     1
102
RTVSPropertyOp28
 70
     1
102
RTVSPropertyOp29
 70
     1
102
RTVSPropertyOp30
 70
     1
102
RTVSPropertyOp31
 70
     1
102
RTVSPropertyOp32
 70
     1
102
RTVSPropertyOp33
 70
     1
102
RTVSPropertyOp34
 70
     1
102
RTVSPropertyOp35
 70
     1
102
RTVSPropertyOp36
 70
     1
102
RTVSPropertyOp37
 70
     1
102
RTVSPropertyOp38
 70
     1
102
RTVSPropertyOp39
 70
     1
102
RTVSPropertyOp40
 70
     1
102
RTVSPropertyOp41
 70
     1
102
RTVSPropertyOp42
 70
     1
102
RTVSPropertyOp43
 70
     1
102
RTVSPropertyOp44
 70
     1
102
RTVSPropertyOp45
 70
     1
102
RTVSPropertyOp46
 70
     1
102
RTVSPropertyOp47
 70
     1
102
RTVSPropertyOp48
 70
     1
102
RTVSPropertyOp49
 70
     1
102
RTVSPropertyOp50
 70
     1
102
RTVSPropertyOp51
 70
     0
102
RTVSPropertyOp52
 70
     0
102
RTVSPropertyOp53
 70
     1
102
RTVSPropertyOp54
 70
     1
102
RTVSPropertyOp55
 70
     1
102
RTVSPropertyOp56
 70
     1
102
RTVSPropertyOp57
 70
     1
102
RTVSPost2010Prop28
280
     0
102
RTVSPost2010PropOp28
 70
     1
102
RTVSPost2010Prop29
280
     1
102
RTVSPost2010PropOp29
 70
     1
102
RTVSPost2010Prop30
280
     1
102
RTVSPost2010PropOp30
 70
     1
102
RTVSPost2010Prop31
280
     0
102
RTVSPost2010PropOp31
 70
     1
102
RTVSPost2010Prop32
280
     0
102
RTVSPost2010PropOp32
 70
     1
102
RTVSPost2010Prop33
280
     0
102
RTVSPost2010PropOp33
 70
     1
102
RTVSPost2010Prop34
280
     0
102
RTVSPost2010PropOp34
 70
     1
102
RTVSPost2010Prop35
280
     0
102
RTVSPost2010PropOp35
 70
     1
102
RTVSPost2010Prop36
280
     0
102
RTVSPost2010PropOp36
 70
     1
102
RTVSPost2010Prop37
 90
       50
102
RTVSPost2010PropOp37
 70
     1
102
RTVSPost2010Prop38
140
0.0
102
RTVSPost2010PropOp38
 70
     1
102
RTVSPost2010Prop39
140
1.0
102
RTVSPost2010PropOp39
 70
     1
102
RTVSPost2010Prop40
 90
        0
102
RTVSPost2010PropOp40
 70
     1
102
RTVSPost2010Prop41ColorIndex
 90
       18
102
RTVSPost2010Prop41ColorRGB
 90
        0
102
RTVSPost2010PropOp41
 70
     1
102
RTVSPost2010Prop42
 90
       50
102
RTVSPost2010PropOp42
 70
     1
102
RTVSPost2010Prop43
 90
        3
102
RTVSPost2010PropOp43
 70
     1
102
RTVSPost2010Prop44ColorIndex
 90
        5
102
RTVSPost2010Prop44ColorRGB
 90
      255
102
RTVSPost2010PropOp44
 70
     1
102
RTVSPost2010Prop45
280
     0
102
RTVSPost2010PropOp45
 70
     1
102
RTVSPost2010Prop46
 90
       50
102
RTVSPost2010PropOp46
 70
     1
102
RTVSPost2010Prop47
 90
       50
102
RTVSPost2010PropOp47
 70
     1
102
RTVSPost2010Prop48
 90
       50
102
RTVSPost2010PropOp48
 70
     1
102
RTVSPost2010Prop49
280
     0
102
RTVSPost2010PropOp49
 70
     1
102
RTVSPost2010Prop50
 90
       50
102
RTVSPost2010PropOp50
 70
     1
102
RTVSPost2010Prop51ColorIndex
 90
      256
102
RTVSPost2010Prop51ColorRGB
 90
-16777216
102
RTVSPost2010PropOp51
 70
     0
102
RTVSPost2010Prop52
140
1.0
102
RTVSPost2010PropOp52
 70
     0
102
RTVSPost2010Prop53
 90
        2
102
RTVSPost2010PropOp53
 70
     1
102
RTVSPost2010Prop54
  1
strokes_ogs.tif
102
RTVSPost2010PropOp54
 70
     1
102
RTVSPost2010Prop55
280
     0
102
RTVSPost2010PropOp55
 70
     1
102
RTVSPost2010Prop56
140
1.0
102
RTVSPost2010PropOp56
 70
     1
102
RTVSPost2010Prop57
140
1.0
102
RTVSPost2010PropOp57
 70
     1
  0
XRECORD
  5
5C1
102
{ACAD_REACTORS
330
5C0
102
}
330
5C0
100
AcDbXrecord
280
     1
102
RTVSPropertyOp0
 70
     1
102
RTVSPropertyOp1
 70
     1
102
RTVSPropertyOp2
 70
     1
102
RTVSPropertyOp3
 70
     1
102
RTVSPropertyOp4
 70
     1
102
RTVSPropertyOp5
 70
     1
102
RTVSPropertyOp6
 70
     1
102
RTVSPropertyOp7
 70
     1
102
RTVSPropertyOp8
 70
     1
102
RTVSPropertyOp9
 70
     1
102
RTVSPropertyOp10
 70
     1
102
RTVSPropertyOp11
 70
     1
102
RTVSPropertyOp12
 70
     1
102
RTVSPropertyOp13
 70
     1
102
RTVSPropertyOp14
 70
     1
102
RTVSPropertyOp15
 70
     1
102
RTVSPropertyOp16
 70
     1
102
RTVSPropertyOp17
 70
     1
102
RTVSPropertyOp18
 70
     1
102
RTVSPropertyOp19
 70
     1
102
RTVSPropertyOp20
 70
     1
102
RTVSPropertyOp21
 70
     1
102
RTVSPropertyOp22
 70
     1
102
RTVSPropertyOp23
 70
     1
102
RTVSPropertyOp24
 70
     1
102
RTVSPropertyOp25
 70
     1
102
RTVSPropertyOp26
 70
     1
102
RTVSPropertyOp27
 70
     1
102
RTVSPropertyOp28
 70
     1
102
RTVSPropertyOp29
 70
     1
102
RTVSPropertyOp30
 70
     1
102
RTVSPropertyOp31
 70
     1
102
RTVSPropertyOp32
 70
     1
102
RTVSPropertyOp33
 70
     1
102
RTVSPropertyOp34
 70
     1
102
RTVSPropertyOp35
 70
     1
102
RTVSPropertyOp36
 70
     1
102
RTVSPropertyOp37
 70
     1
102
RTVSPropertyOp38
 70
     1
102
RTVSPropertyOp39
 70
     1
102
RTVSPropertyOp40
 70
     1
102
RTVSPropertyOp41
 70
     1
102
RTVSPropertyOp42
 70
     1
102
RTVSPropertyOp43
 70
     1
102
RTVSPropertyOp44
 70
     1
102
RTVSPropertyOp45
 70
     1
102
RTVSPropertyOp46
 70
     1
102
RTVSPropertyOp47
 70
     1
102
RTVSPropertyOp48
 70
     1
102
RTVSPropertyOp49
 70
     1
102
RTVSPropertyOp50
 70
     1
102
RTVSPropertyOp51
 70
     0
102
RTVSPropertyOp52
 70
     0
102
RTVSPropertyOp53
 70
     1
102
RTVSPropertyOp54
 70
     1
102
RTVSPropertyOp55
 70
     1
102
RTVSPropertyOp56
 70
     1
102
RTVSPropertyOp57
 70
     1
102
RTVSPost2010Prop28
280
     0
102
RTVSPost2010PropOp28
 70
     1
102
RTVSPost2010Prop29
280
     1
102
RTVSPost2010PropOp29
 70
     1
102
RTVSPost2010Prop30
280
     1
102
RTVSPost2010PropOp30
 70
     1
102
RTVSPost2010Prop31
280
     0
102
RTVSPost2010PropOp31
 70
     1
102
RTVSPost2010Prop32
280
     0
102
RTVSPost2010PropOp32
 70
     1
102
RTVSPost2010Prop33
280
     0
102
RTVSPost2010PropOp33
 70
     1
102
RTVSPost2010Prop34
280
     0
102
RTVSPost2010PropOp34
 70
     1
102
RTVSPost2010Prop35
280
     0
102
RTVSPost2010PropOp35
 70
     1
102
RTVSPost2010Prop36
280
     0
102
RTVSPost2010PropOp36
 70
     1
102
RTVSPost2010Prop37
 90
       50
102
RTVSPost2010PropOp37
 70
     1
102
RTVSPost2010Prop38
140
0.0
102
RTVSPost2010PropOp38
 70
     1
102
RTVSPost2010Prop39
140
1.0
102
RTVSPost2010PropOp39
 70
     1
102
RTVSPost2010Prop40
 90
        0
102
RTVSPost2010PropOp40
 70
     1
102
RTVSPost2010Prop41ColorIndex
 90
       18
102
RTVSPost2010Prop41ColorRGB
 90
        0
102
RTVSPost2010PropOp41
 70
     1
102
RTVSPost2010Prop42
 90
       50
102
RTVSPost2010PropOp42
 70
     1
102
RTVSPost2010Prop43
 90
        3
102
RTVSPost2010PropOp43
 70
     1
102
RTVSPost2010Prop44ColorIndex
 90
        5
102
RTVSPost2010Prop44ColorRGB
 90
      255
102
RTVSPost2010PropOp44
 70
     1
102
RTVSPost2010Prop45
280
     0
102
RTVSPost2010PropOp45
 70
     1
102
RTVSPost2010Prop46
 90
       50
102
RTVSPost2010PropOp46
 70
     1
102
RTVSPost2010Prop47
 90
       50
102
RTVSPost2010PropOp47
 70
     1
102
RTVSPost2010Prop48
 90
       50
102
RTVSPost2010PropOp48
 70
     1
102
RTVSPost2010Prop49
280
     0
102
RTVSPost2010PropOp49
 70
     1
102
RTVSPost2010Prop50
 90
       50
102
RTVSPost2010PropOp50
 70
     1
102
RTVSPost2010Prop51ColorIndex
 90
      256
102
RTVSPost2010Prop51ColorRGB
 90
-16777216
102
RTVSPost2010PropOp51
 70
     0
102
RTVSPost2010Prop52
140
1.0
102
RTVSPost2010PropOp52
 70
     0
102
RTVSPost2010Prop53
 90
        2
102
RTVSPost2010PropOp53
 70
     1
102
RTVSPost2010Prop54
  1
strokes_ogs.tif
102
RTVSPost2010PropOp54
 70
     1
102
RTVSPost2010Prop55
280
     0
102
RTVSPost2010PropOp55
 70
     1
102
RTVSPost2010Prop56
140
1.0
102
RTVSPost2010PropOp56
 70
     1
102
RTVSPost2010Prop57
140
1.0
102
RTVSPost2010PropOp57
 70
     1
  0
XRECORD
  5
5B5
102
{ACAD_REACTORS
330
5B4
102
}
330
5B4
100
AcDbXrecord
280
     1
102
RTVSPropertyOp0
 70
     1
102
RTVSPropertyOp1
 70
     1
102
RTVSPropertyOp2
 70
     1
102
RTVSPropertyOp3
 70
     1
102
RTVSPropertyOp4
 70
     1
102
RTVSPropertyOp5
 70
     1
102
RTVSPropertyOp6
 70
     1
102
RTVSPropertyOp7
 70
     1
102
RTVSPropertyOp8
 70
     1
102
RTVSPropertyOp9
 70
     1
102
RTVSPropertyOp10
 70
     1
102
RTVSPropertyOp11
 70
     1
102
RTVSPropertyOp12
 70
     1
102
RTVSPropertyOp13
 70
     1
102
RTVSPropertyOp14
 70
     1
102
RTVSPropertyOp15
 70
     1
102
RTVSPropertyOp16
 70
     1
102
RTVSPropertyOp17
 70
     1
102
RTVSPropertyOp18
 70
     1
102
RTVSPropertyOp19
 70
     1
102
RTVSPropertyOp20
 70
     1
102
RTVSPropertyOp21
 70
     1
102
RTVSPropertyOp22
 70
     1
102
RTVSPropertyOp23
 70
     1
102
RTVSPropertyOp24
 70
     1
102
RTVSPropertyOp25
 70
     1
102
RTVSPropertyOp26
 70
     1
102
RTVSPropertyOp27
 70
     1
102
RTVSPropertyOp28
 70
     1
102
RTVSPropertyOp29
 70
     1
102
RTVSPropertyOp30
 70
     1
102
RTVSPropertyOp31
 70
     1
102
RTVSPropertyOp32
 70
     1
102
RTVSPropertyOp33
 70
     1
102
RTVSPropertyOp34
 70
     1
102
RTVSPropertyOp35
 70
     1
102
RTVSPropertyOp36
 70
     1
102
RTVSPropertyOp37
 70
     1
102
RTVSPropertyOp38
 70
     1
102
RTVSPropertyOp39
 70
     1
102
RTVSPropertyOp40
 70
     1
102
RTVSPropertyOp41
 70
     1
102
RTVSPropertyOp42
 70
     1
102
RTVSPropertyOp43
 70
     1
102
RTVSPropertyOp44
 70
     1
102
RTVSPropertyOp45
 70
     1
102
RTVSPropertyOp46
 70
     1
102
RTVSPropertyOp47
 70
     1
102
RTVSPropertyOp48
 70
     1
102
RTVSPropertyOp49
 70
     1
102
RTVSPropertyOp50
 70
     1
102
RTVSPropertyOp51
 70
     0
102
RTVSPropertyOp52
 70
     0
102
RTVSPropertyOp53
 70
     1
102
RTVSPropertyOp54
 70
     1
102
RTVSPropertyOp55
 70
     1
102
RTVSPropertyOp56
 70
     1
102
RTVSPropertyOp57
 70
     1
102
RTVSPost2010Prop28
280
     0
102
RTVSPost2010PropOp28
 70
     1
102
RTVSPost2010Prop29
280
     1
102
RTVSPost2010PropOp29
 70
     1
102
RTVSPost2010Prop30
280
     1
102
RTVSPost2010PropOp30
 70
     1
102
RTVSPost2010Prop31
280
     0
102
RTVSPost2010PropOp31
 70
     1
102
RTVSPost2010Prop32
280
     0
102
RTVSPost2010PropOp32
 70
     1
102
RTVSPost2010Prop33
280
     0
102
RTVSPost2010PropOp33
 70
     1
102
RTVSPost2010Prop34
280
     0
102
RTVSPost2010PropOp34
 70
     1
102
RTVSPost2010Prop35
280
     0
102
RTVSPost2010PropOp35
 70
     1
102
RTVSPost2010Prop36
280
     0
102
RTVSPost2010PropOp36
 70
     1
102
RTVSPost2010Prop37
 90
       50
102
RTVSPost2010PropOp37
 70
     1
102
RTVSPost2010Prop38
140
0.0
102
RTVSPost2010PropOp38
 70
     1
102
RTVSPost2010Prop39
140
1.0
102
RTVSPost2010PropOp39
 70
     1
102
RTVSPost2010Prop40
 90
        0
102
RTVSPost2010PropOp40
 70
     1
102
RTVSPost2010Prop41ColorIndex
 90
       18
102
RTVSPost2010Prop41ColorRGB
 90
        0
102
RTVSPost2010PropOp41
 70
     1
102
RTVSPost2010Prop42
 90
       50
102
RTVSPost2010PropOp42
 70
     1
102
RTVSPost2010Prop43
 90
        3
102
RTVSPost2010PropOp43
 70
     1
102
RTVSPost2010Prop44ColorIndex
 90
        5
102
RTVSPost2010Prop44ColorRGB
 90
      255
102
RTVSPost2010PropOp44
 70
     1
102
RTVSPost2010Prop45
280
     0
102
RTVSPost2010PropOp45
 70
     1
102
RTVSPost2010Prop46
 90
       50
102
RTVSPost2010PropOp46
 70
     1
102
RTVSPost2010Prop47
 90
       50
102
RTVSPost2010PropOp47
 70
     1
102
RTVSPost2010Prop48
 90
       50
102
RTVSPost2010PropOp48
 70
     1
102
RTVSPost2010Prop49
280
     0
102
RTVSPost2010PropOp49
 70
     1
102
RTVSPost2010Prop50
 90
       50
102
RTVSPost2010PropOp50
 70
     1
102
RTVSPost2010Prop51ColorIndex
 90
      256
102
RTVSPost2010Prop51ColorRGB
 90
-16777216
102
RTVSPost2010PropOp51
 70
     0
102
RTVSPost2010Prop52
140
1.0
102
RTVSPost2010PropOp52
 70
     0
102
RTVSPost2010Prop53
 90
        2
102
RTVSPost2010PropOp53
 70
     1
102
RTVSPost2010Prop54
  1
strokes_ogs.tif
102
RTVSPost2010PropOp54
 70
     1
102
RTVSPost2010Prop55
280
     0
102
RTVSPost2010PropOp55
 70
     1
102
RTVSPost2010Prop56
140
1.0
102
RTVSPost2010PropOp56
 70
     1
102
RTVSPost2010Prop57
140
1.0
102
RTVSPost2010PropOp57
 70
     1
  0
XRECORD
  5
5B7
102
{ACAD_REACTORS
330
5B6
102
}
330
5B6
100
AcDbXrecord
280
     1
102
RTVSPropertyOp0
 70
     1
102
RTVSPropertyOp1
 70
     1
102
RTVSPropertyOp2
 70
     1
102
RTVSPropertyOp3
 70
     1
102
RTVSPropertyOp4
 70
     1
102
RTVSPropertyOp5
 70
     1
102
RTVSPropertyOp6
 70
     1
102
RTVSPropertyOp7
 70
     1
102
RTVSPropertyOp8
 70
     1
102
RTVSPropertyOp9
 70
     1
102
RTVSPropertyOp10
 70
     1
102
RTVSPropertyOp11
 70
     1
102
RTVSPropertyOp12
 70
     1
102
RTVSPropertyOp13
 70
     1
102
RTVSPropertyOp14
 70
     1
102
RTVSPropertyOp15
 70
     1
102
RTVSPropertyOp16
 70
     1
102
RTVSPropertyOp17
 70
     1
102
RTVSPropertyOp18
 70
     1
102
RTVSPropertyOp19
 70
     1
102
RTVSPropertyOp20
 70
     1
102
RTVSPropertyOp21
 70
     1
102
RTVSPropertyOp22
 70
     1
102
RTVSPropertyOp23
 70
     1
102
RTVSPropertyOp24
 70
     1
102
RTVSPropertyOp25
 70
     1
102
RTVSPropertyOp26
 70
     1
102
RTVSPropertyOp27
 70
     1
102
RTVSPropertyOp28
 70
     1
102
RTVSPropertyOp29
 70
     1
102
RTVSPropertyOp30
 70
     1
102
RTVSPropertyOp31
 70
     1
102
RTVSPropertyOp32
 70
     1
102
RTVSPropertyOp33
 70
     1
102
RTVSPropertyOp34
 70
     1
102
RTVSPropertyOp35
 70
     1
102
RTVSPropertyOp36
 70
     1
102
RTVSPropertyOp37
 70
     1
102
RTVSPropertyOp38
 70
     1
102
RTVSPropertyOp39
 70
     1
102
RTVSPropertyOp40
 70
     1
102
RTVSPropertyOp41
 70
     1
102
RTVSPropertyOp42
 70
     1
102
RTVSPropertyOp43
 70
     1
102
RTVSPropertyOp44
 70
     1
102
RTVSPropertyOp45
 70
     1
102
RTVSPropertyOp46
 70
     1
102
RTVSPropertyOp47
 70
     1
102
RTVSPropertyOp48
 70
     1
102
RTVSPropertyOp49
 70
     1
102
RTVSPropertyOp50
 70
     1
102
RTVSPropertyOp51
 70
     0
102
RTVSPropertyOp52
 70
     0
102
RTVSPropertyOp53
 70
     1
102
RTVSPropertyOp54
 70
     1
102
RTVSPropertyOp55
 70
     1
102
RTVSPropertyOp56
 70
     1
102
RTVSPropertyOp57
 70
     1
102
RTVSPost2010Prop28
280
     0
102
RTVSPost2010PropOp28
 70
     1
102
RTVSPost2010Prop29
280
     1
102
RTVSPost2010PropOp29
 70
     1
102
RTVSPost2010Prop30
280
     1
102
RTVSPost2010PropOp30
 70
     1
102
RTVSPost2010Prop31
280
     0
102
RTVSPost2010PropOp31
 70
     1
102
RTVSPost2010Prop32
280
     0
102
RTVSPost2010PropOp32
 70
     1
102
RTVSPost2010Prop33
280
     0
102
RTVSPost2010PropOp33
 70
     1
102
RTVSPost2010Prop34
280
     0
102
RTVSPost2010PropOp34
 70
     1
102
RTVSPost2010Prop35
280
     0
102
RTVSPost2010PropOp35
 70
     1
102
RTVSPost2010Prop36
280
     0
102
RTVSPost2010PropOp36
 70
     1
102
RTVSPost2010Prop37
 90
       50
102
RTVSPost2010PropOp37
 70
     1
102
RTVSPost2010Prop38
140
0.0
102
RTVSPost2010PropOp38
 70
     1
102
RTVSPost2010Prop39
140
1.0
102
RTVSPost2010PropOp39
 70
     1
102
RTVSPost2010Prop40
 90
        0
102
RTVSPost2010PropOp40
 70
     1
102
RTVSPost2010Prop41ColorIndex
 90
       18
102
RTVSPost2010Prop41ColorRGB
 90
        0
102
RTVSPost2010PropOp41
 70
     1
102
RTVSPost2010Prop42
 90
       50
102
RTVSPost2010PropOp42
 70
     1
102
RTVSPost2010Prop43
 90
        3
102
RTVSPost2010PropOp43
 70
     1
102
RTVSPost2010Prop44ColorIndex
 90
        5
102
RTVSPost2010Prop44ColorRGB
 90
      255
102
RTVSPost2010PropOp44
 70
     1
102
RTVSPost2010Prop45
280
     0
102
RTVSPost2010PropOp45
 70
     1
102
RTVSPost2010Prop46
 90
       50
102
RTVSPost2010PropOp46
 70
     1
102
RTVSPost2010Prop47
 90
       50
102
RTVSPost2010PropOp47
 70
     1
102
RTVSPost2010Prop48
 90
       50
102
RTVSPost2010PropOp48
 70
     1
102
RTVSPost2010Prop49
280
     0
102
RTVSPost2010PropOp49
 70
     1
102
RTVSPost2010Prop50
 90
       50
102
RTVSPost2010PropOp50
 70
     1
102
RTVSPost2010Prop51ColorIndex
 90
      256
102
RTVSPost2010Prop51ColorRGB
 90
-16777216
102
RTVSPost2010PropOp51
 70
     0
102
RTVSPost2010Prop52
140
1.0
102
RTVSPost2010PropOp52
 70
     0
102
RTVSPost2010Prop53
 90
        2
102
RTVSPost2010PropOp53
 70
     1
102
RTVSPost2010Prop54
  1
strokes_ogs.tif
102
RTVSPost2010PropOp54
 70
     1
102
RTVSPost2010Prop55
280
     0
102
RTVSPost2010PropOp55
 70
     1
102
RTVSPost2010Prop56
140
1.0
102
RTVSPost2010PropOp56
 70
     1
102
RTVSPost2010Prop57
140
1.0
102
RTVSPost2010PropOp57
 70
     1
  0
XRECORD
  5
5BF
102
{ACAD_REACTORS
330
5BE
102
}
330
5BE
100
AcDbXrecord
280
     1
102
RTVSPropertyOp0
 70
     1
102
RTVSPropertyOp1
 70
     1
102
RTVSPropertyOp2
 70
     1
102
RTVSPropertyOp3
 70
     1
102
RTVSPropertyOp4
 70
     1
102
RTVSPropertyOp5
 70
     1
102
RTVSPropertyOp6
 70
     1
102
RTVSPropertyOp7
 70
     1
102
RTVSPropertyOp8
 70
     1
102
RTVSPropertyOp9
 70
     1
102
RTVSPropertyOp10
 70
     1
102
RTVSPropertyOp11
 70
     1
102
RTVSPropertyOp12
 70
     1
102
RTVSPropertyOp13
 70
     1
102
RTVSPropertyOp14
 70
     1
102
RTVSPropertyOp15
 70
     1
102
RTVSPropertyOp16
 70
     1
102
RTVSPropertyOp17
 70
     1
102
RTVSPropertyOp18
 70
     1
102
RTVSPropertyOp19
 70
     1
102
RTVSPropertyOp20
 70
     1
102
RTVSPropertyOp21
 70
     1
102
RTVSPropertyOp22
 70
     1
102
RTVSPropertyOp23
 70
     1
102
RTVSPropertyOp24
 70
     1
102
RTVSPropertyOp25
 70
     1
102
RTVSPropertyOp26
 70
     1
102
RTVSPropertyOp27
 70
     1
102
RTVSPropertyOp28
 70
     1
102
RTVSPropertyOp29
 70
     1
102
RTVSPropertyOp30
 70
     1
102
RTVSPropertyOp31
 70
     1
102
RTVSPropertyOp32
 70
     1
102
RTVSPropertyOp33
 70
     1
102
RTVSPropertyOp34
 70
     1
102
RTVSPropertyOp35
 70
     1
102
RTVSPropertyOp36
 70
     1
102
RTVSPropertyOp37
 70
     1
102
RTVSPropertyOp38
 70
     1
102
RTVSPropertyOp39
 70
     1
102
RTVSPropertyOp40
 70
     1
102
RTVSPropertyOp41
 70
     1
102
RTVSPropertyOp42
 70
     1
102
RTVSPropertyOp43
 70
     1
102
RTVSPropertyOp44
 70
     1
102
RTVSPropertyOp45
 70
     1
102
RTVSPropertyOp46
 70
     1
102
RTVSPropertyOp47
 70
     1
102
RTVSPropertyOp48
 70
     1
102
RTVSPropertyOp49
 70
     1
102
RTVSPropertyOp50
 70
     1
102
RTVSPropertyOp51
 70
     0
102
RTVSPropertyOp52
 70
     0
102
RTVSPropertyOp53
 70
     1
102
RTVSPropertyOp54
 70
     1
102
RTVSPropertyOp55
 70
     1
102
RTVSPropertyOp56
 70
     1
102
RTVSPropertyOp57
 70
     1
102
RTVSPost2010Prop28
280
     0
102
RTVSPost2010PropOp28
 70
     1
102
RTVSPost2010Prop29
280
     1
102
RTVSPost2010PropOp29
 70
     1
102
RTVSPost2010Prop30
280
     1
102
RTVSPost2010PropOp30
 70
     1
102
RTVSPost2010Prop31
280
     0
102
RTVSPost2010PropOp31
 70
     1
102
RTVSPost2010Prop32
280
     0
102
RTVSPost2010PropOp32
 70
     1
102
RTVSPost2010Prop33
280
     0
102
RTVSPost2010PropOp33
 70
     1
102
RTVSPost2010Prop34
280
     0
102
RTVSPost2010PropOp34
 70
     1
102
RTVSPost2010Prop35
280
     0
102
RTVSPost2010PropOp35
 70
     1
102
RTVSPost2010Prop36
280
     0
102
RTVSPost2010PropOp36
 70
     1
102
RTVSPost2010Prop37
 90
       50
102
RTVSPost2010PropOp37
 70
     1
102
RTVSPost2010Prop38
140
0.0
102
RTVSPost2010PropOp38
 70
     1
102
RTVSPost2010Prop39
140
1.0
102
RTVSPost2010PropOp39
 70
     1
102
RTVSPost2010Prop40
 90
        0
102
RTVSPost2010PropOp40
 70
     1
102
RTVSPost2010Prop41ColorIndex
 90
       18
102
RTVSPost2010Prop41ColorRGB
 90
        0
102
RTVSPost2010PropOp41
 70
     1
102
RTVSPost2010Prop42
 90
       50
102
RTVSPost2010PropOp42
 70
     1
102
RTVSPost2010Prop43
 90
        3
102
RTVSPost2010PropOp43
 70
     1
102
RTVSPost2010Prop44ColorIndex
 90
        5
102
RTVSPost2010Prop44ColorRGB
 90
      255
102
RTVSPost2010PropOp44
 70
     1
102
RTVSPost2010Prop45
280
     0
102
RTVSPost2010PropOp45
 70
     1
102
RTVSPost2010Prop46
 90
       50
102
RTVSPost2010PropOp46
 70
     1
102
RTVSPost2010Prop47
 90
       50
102
RTVSPost2010PropOp47
 70
     1
102
RTVSPost2010Prop48
 90
       50
102
RTVSPost2010PropOp48
 70
     1
102
RTVSPost2010Prop49
280
     0
102
RTVSPost2010PropOp49
 70
     1
102
RTVSPost2010Prop50
 90
       50
102
RTVSPost2010PropOp50
 70
     1
102
RTVSPost2010Prop51ColorIndex
 90
      256
102
RTVSPost2010Prop51ColorRGB
 90
-16777216
102
RTVSPost2010PropOp51
 70
     0
102
RTVSPost2010Prop52
140
1.0
102
RTVSPost2010PropOp52
 70
     0
102
RTVSPost2010Prop53
 90
        2
102
RTVSPost2010PropOp53
 70
     1
102
RTVSPost2010Prop54
  1
strokes_ogs.tif
102
RTVSPost2010PropOp54
 70
     1
102
RTVSPost2010Prop55
280
     0
102
RTVSPost2010PropOp55
 70
     1
102
RTVSPost2010Prop56
140
1.0
102
RTVSPost2010PropOp56
 70
     1
102
RTVSPost2010Prop57
140
1.0
102
RTVSPost2010PropOp57
 70
     1
  0
XRECORD
  5
5A3
102
{ACAD_REACTORS
330
5A2
102
}
330
5A2
100
AcDbXrecord
280
     1
102
RTVSPropertyOp0
 70
     1
102
RTVSPropertyOp1
 70
     1
102
RTVSPropertyOp2
 70
     1
102
RTVSPropertyOp3
 70
     1
102
RTVSPropertyOp4
 70
     1
102
RTVSPropertyOp5
 70
     1
102
RTVSPropertyOp6
 70
     1
102
RTVSPropertyOp7
 70
     1
102
RTVSPropertyOp8
 70
     1
102
RTVSPropertyOp9
 70
     1
102
RTVSPropertyOp10
 70
     1
102
RTVSPropertyOp11
 70
     1
102
RTVSPropertyOp12
 70
     1
102
RTVSPropertyOp13
 70
     1
102
RTVSPropertyOp14
 70
     1
102
RTVSPropertyOp15
 70
     1
102
RTVSPropertyOp16
 70
     1
102
RTVSPropertyOp17
 70
     1
102
RTVSPropertyOp18
 70
     1
102
RTVSPropertyOp19
 70
     1
102
RTVSPropertyOp20
 70
     1
102
RTVSPropertyOp21
 70
     1
102
RTVSPropertyOp22
 70
     1
102
RTVSPropertyOp23
 70
     1
102
RTVSPropertyOp24
 70
     1
102
RTVSPropertyOp25
 70
     1
102
RTVSPropertyOp26
 70
     1
102
RTVSPropertyOp27
 70
     1
102
RTVSPropertyOp28
 70
     1
102
RTVSPropertyOp29
 70
     1
102
RTVSPropertyOp30
 70
     1
102
RTVSPropertyOp31
 70
     1
102
RTVSPropertyOp32
 70
     1
102
RTVSPropertyOp33
 70
     1
102
RTVSPropertyOp34
 70
     1
102
RTVSPropertyOp35
 70
     1
102
RTVSPropertyOp36
 70
     1
102
RTVSPropertyOp37
 70
     1
102
RTVSPropertyOp38
 70
     1
102
RTVSPropertyOp39
 70
     1
102
RTVSPropertyOp40
 70
     1
102
RTVSPropertyOp41
 70
     1
102
RTVSPropertyOp42
 70
     1
102
RTVSPropertyOp43
 70
     1
102
RTVSPropertyOp44
 70
     1
102
RTVSPropertyOp45
 70
     1
102
RTVSPropertyOp46
 70
     1
102
RTVSPropertyOp47
 70
     1
102
RTVSPropertyOp48
 70
     1
102
RTVSPropertyOp49
 70
     1
102
RTVSPropertyOp50
 70
     1
102
RTVSPropertyOp51
 70
     0
102
RTVSPropertyOp52
 70
     0
102
RTVSPropertyOp53
 70
     1
102
RTVSPropertyOp54
 70
     1
102
RTVSPropertyOp55
 70
     1
102
RTVSPropertyOp56
 70
     1
102
RTVSPropertyOp57
 70
     1
102
RTVSPost2010Prop28
280
     0
102
RTVSPost2010PropOp28
 70
     1
102
RTVSPost2010Prop29
280
     1
102
RTVSPost2010PropOp29
 70
     1
102
RTVSPost2010Prop30
280
     1
102
RTVSPost2010PropOp30
 70
     1
102
RTVSPost2010Prop31
280
     0
102
RTVSPost2010PropOp31
 70
     1
102
RTVSPost2010Prop32
280
     0
102
RTVSPost2010PropOp32
 70
     1
102
RTVSPost2010Prop33
280
     0
102
RTVSPost2010PropOp33
 70
     1
102
RTVSPost2010Prop34
280
     0
102
RTVSPost2010PropOp34
 70
     1
102
RTVSPost2010Prop35
280
     0
102
RTVSPost2010PropOp35
 70
     1
102
RTVSPost2010Prop36
280
     0
102
RTVSPost2010PropOp36
 70
     1
102
RTVSPost2010Prop37
 90
       50
102
RTVSPost2010PropOp37
 70
     1
102
RTVSPost2010Prop38
140
0.0
102
RTVSPost2010PropOp38
 70
     1
102
RTVSPost2010Prop39
140
1.0
102
RTVSPost2010PropOp39
 70
     1
102
RTVSPost2010Prop40
 90
        0
102
RTVSPost2010PropOp40
 70
     1
102
RTVSPost2010Prop41ColorIndex
 90
       18
102
RTVSPost2010Prop41ColorRGB
 90
        0
102
RTVSPost2010PropOp41
 70
     1
102
RTVSPost2010Prop42
 90
       50
102
RTVSPost2010PropOp42
 70
     1
102
RTVSPost2010Prop43
 90
        3
102
RTVSPost2010PropOp43
 70
     1
102
RTVSPost2010Prop44ColorIndex
 90
        5
102
RTVSPost2010Prop44ColorRGB
 90
      255
102
RTVSPost2010PropOp44
 70
     1
102
RTVSPost2010Prop45
280
     0
102
RTVSPost2010PropOp45
 70
     1
102
RTVSPost2010Prop46
 90
       50
102
RTVSPost2010PropOp46
 70
     1
102
RTVSPost2010Prop47
 90
       50
102
RTVSPost2010PropOp47
 70
     1
102
RTVSPost2010Prop48
 90
       50
102
RTVSPost2010PropOp48
 70
     1
102
RTVSPost2010Prop49
280
     0
102
RTVSPost2010PropOp49
 70
     1
102
RTVSPost2010Prop50
 90
       50
102
RTVSPost2010PropOp50
 70
     1
102
RTVSPost2010Prop51ColorIndex
 90
      256
102
RTVSPost2010Prop51ColorRGB
 90
-16777216
102
RTVSPost2010PropOp51
 70
     0
102
RTVSPost2010Prop52
140
1.0
102
RTVSPost2010PropOp52
 70
     0
102
RTVSPost2010Prop53
 90
        2
102
RTVSPost2010PropOp53
 70
     1
102
RTVSPost2010Prop54
  1
strokes_ogs.tif
102
RTVSPost2010PropOp54
 70
     1
102
RTVSPost2010Prop55
280
     0
102
RTVSPost2010PropOp55
 70
     1
102
RTVSPost2010Prop56
140
1.0
102
RTVSPost2010PropOp56
 70
     1
102
RTVSPost2010Prop57
140
1.0
102
RTVSPost2010PropOp57
 70
     1
  0
XRECORD
  5
5A5
102
{ACAD_REACTORS
330
5A4
102
}
330
5A4
100
AcDbXrecord
280
     1
102
RTVSPropertyOp0
 70
     1
102
RTVSPropertyOp1
 70
     1
102
RTVSPropertyOp2
 70
     1
102
RTVSPropertyOp3
 70
     1
102
RTVSPropertyOp4
 70
     1
102
RTVSPropertyOp5
 70
     1
102
RTVSPropertyOp6
 70
     1
102
RTVSPropertyOp7
 70
     1
102
RTVSPropertyOp8
 70
     1
102
RTVSPropertyOp9
 70
     1
102
RTVSPropertyOp10
 70
     1
102
RTVSPropertyOp11
 70
     1
102
RTVSPropertyOp12
 70
     1
102
RTVSPropertyOp13
 70
     1
102
RTVSPropertyOp14
 70
     1
102
RTVSPropertyOp15
 70
     1
102
RTVSPropertyOp16
 70
     1
102
RTVSPropertyOp17
 70
     1
102
RTVSPropertyOp18
 70
     1
102
RTVSPropertyOp19
 70
     1
102
RTVSPropertyOp20
 70
     1
102
RTVSPropertyOp21
 70
     1
102
RTVSPropertyOp22
 70
     1
102
RTVSPropertyOp23
 70
     1
102
RTVSPropertyOp24
 70
     1
102
RTVSPropertyOp25
 70
     1
102
RTVSPropertyOp26
 70
     1
102
RTVSPropertyOp27
 70
     1
102
RTVSPropertyOp28
 70
     1
102
RTVSPropertyOp29
 70
     1
102
RTVSPropertyOp30
 70
     1
102
RTVSPropertyOp31
 70
     1
102
RTVSPropertyOp32
 70
     1
102
RTVSPropertyOp33
 70
     1
102
RTVSPropertyOp34
 70
     1
102
RTVSPropertyOp35
 70
     1
102
RTVSPropertyOp36
 70
     1
102
RTVSPropertyOp37
 70
     1
102
RTVSPropertyOp38
 70
     1
102
RTVSPropertyOp39
 70
     1
102
RTVSPropertyOp40
 70
     1
102
RTVSPropertyOp41
 70
     1
102
RTVSPropertyOp42
 70
     1
102
RTVSPropertyOp43
 70
     1
102
RTVSPropertyOp44
 70
     1
102
RTVSPropertyOp45
 70
     1
102
RTVSPropertyOp46
 70
     1
102
RTVSPropertyOp47
 70
     1
102
RTVSPropertyOp48
 70
     1
102
RTVSPropertyOp49
 70
     1
102
RTVSPropertyOp50
 70
     1
102
RTVSPropertyOp51
 70
     0
102
RTVSPropertyOp52
 70
     0
102
RTVSPropertyOp53
 70
     1
102
RTVSPropertyOp54
 70
     1
102
RTVSPropertyOp55
 70
     1
102
RTVSPropertyOp56
 70
     1
102
RTVSPropertyOp57
 70
     1
102
RTVSPost2010Prop28
280
     0
102
RTVSPost2010PropOp28
 70
     1
102
RTVSPost2010Prop29
280
     1
102
RTVSPost2010PropOp29
 70
     1
102
RTVSPost2010Prop30
280
     1
102
RTVSPost2010PropOp30
 70
     1
102
RTVSPost2010Prop31
280
     0
102
RTVSPost2010PropOp31
 70
     1
102
RTVSPost2010Prop32
280
     0
102
RTVSPost2010PropOp32
 70
     1
102
RTVSPost2010Prop33
280
     0
102
RTVSPost2010PropOp33
 70
     1
102
RTVSPost2010Prop34
280
     0
102
RTVSPost2010PropOp34
 70
     1
102
RTVSPost2010Prop35
280
     0
102
RTVSPost2010PropOp35
 70
     1
102
RTVSPost2010Prop36
280
     0
102
RTVSPost2010PropOp36
 70
     1
102
RTVSPost2010Prop37
 90
       50
102
RTVSPost2010PropOp37
 70
     1
102
RTVSPost2010Prop38
140
0.0
102
RTVSPost2010PropOp38
 70
     1
102
RTVSPost2010Prop39
140
1.0
102
RTVSPost2010PropOp39
 70
     1
102
RTVSPost2010Prop40
 90
        0
102
RTVSPost2010PropOp40
 70
     1
102
RTVSPost2010Prop41ColorIndex
 90
       18
102
RTVSPost2010Prop41ColorRGB
 90
        0
102
RTVSPost2010PropOp41
 70
     1
102
RTVSPost2010Prop42
 90
       50
102
RTVSPost2010PropOp42
 70
     1
102
RTVSPost2010Prop43
 90
        3
102
RTVSPost2010PropOp43
 70
     1
102
RTVSPost2010Prop44ColorIndex
 90
        5
102
RTVSPost2010Prop44ColorRGB
 90
      255
102
RTVSPost2010PropOp44
 70
     1
102
RTVSPost2010Prop45
280
     0
102
RTVSPost2010PropOp45
 70
     1
102
RTVSPost2010Prop46
 90
       50
102
RTVSPost2010PropOp46
 70
     1
102
RTVSPost2010Prop47
 90
       50
102
RTVSPost2010PropOp47
 70
     1
102
RTVSPost2010Prop48
 90
       50
102
RTVSPost2010PropOp48
 70
     1
102
RTVSPost2010Prop49
280
     0
102
RTVSPost2010PropOp49
 70
     1
102
RTVSPost2010Prop50
 90
       50
102
RTVSPost2010PropOp50
 70
     1
102
RTVSPost2010Prop51ColorIndex
 90
      256
102
RTVSPost2010Prop51ColorRGB
 90
-16777216
102
RTVSPost2010PropOp51
 70
     0
102
RTVSPost2010Prop52
140
1.0
102
RTVSPost2010PropOp52
 70
     0
102
RTVSPost2010Prop53
 90
        2
102
RTVSPost2010PropOp53
 70
     1
102
RTVSPost2010Prop54
  1
strokes_ogs.tif
102
RTVSPost2010PropOp54
 70
     1
102
RTVSPost2010Prop55
280
     0
102
RTVSPost2010PropOp55
 70
     1
102
RTVSPost2010Prop56
140
1.0
102
RTVSPost2010PropOp56
 70
     1
102
RTVSPost2010Prop57
140
1.0
102
RTVSPost2010PropOp57
 70
     1
  0
XRECORD
  5
5A7
102
{ACAD_REACTORS
330
5A6
102
}
330
5A6
100
AcDbXrecord
280
     1
102
RTVSPropertyOp0
 70
     1
102
RTVSPropertyOp1
 70
     1
102
RTVSPropertyOp2
 70
     1
102
RTVSPropertyOp3
 70
     1
102
RTVSPropertyOp4
 70
     1
102
RTVSPropertyOp5
 70
     1
102
RTVSPropertyOp6
 70
     1
102
RTVSPropertyOp7
 70
     1
102
RTVSPropertyOp8
 70
     1
102
RTVSPropertyOp9
 70
     1
102
RTVSPropertyOp10
 70
     1
102
RTVSPropertyOp11
 70
     1
102
RTVSPropertyOp12
 70
     1
102
RTVSPropertyOp13
 70
     1
102
RTVSPropertyOp14
 70
     1
102
RTVSPropertyOp15
 70
     1
102
RTVSPropertyOp16
 70
     1
102
RTVSPropertyOp17
 70
     1
102
RTVSPropertyOp18
 70
     1
102
RTVSPropertyOp19
 70
     1
102
RTVSPropertyOp20
 70
     1
102
RTVSPropertyOp21
 70
     1
102
RTVSPropertyOp22
 70
     1
102
RTVSPropertyOp23
 70
     1
102
RTVSPropertyOp24
 70
     1
102
RTVSPropertyOp25
 70
     1
102
RTVSPropertyOp26
 70
     1
102
RTVSPropertyOp27
 70
     1
102
RTVSPropertyOp28
 70
     1
102
RTVSPropertyOp29
 70
     1
102
RTVSPropertyOp30
 70
     1
102
RTVSPropertyOp31
 70
     1
102
RTVSPropertyOp32
 70
     1
102
RTVSPropertyOp33
 70
     1
102
RTVSPropertyOp34
 70
     1
102
RTVSPropertyOp35
 70
     1
102
RTVSPropertyOp36
 70
     1
102
RTVSPropertyOp37
 70
     1
102
RTVSPropertyOp38
 70
     1
102
RTVSPropertyOp39
 70
     1
102
RTVSPropertyOp40
 70
     1
102
RTVSPropertyOp41
 70
     1
102
RTVSPropertyOp42
 70
     1
102
RTVSPropertyOp43
 70
     1
102
RTVSPropertyOp44
 70
     1
102
RTVSPropertyOp45
 70
     1
102
RTVSPropertyOp46
 70
     1
102
RTVSPropertyOp47
 70
     1
102
RTVSPropertyOp48
 70
     1
102
RTVSPropertyOp49
 70
     1
102
RTVSPropertyOp50
 70
     1
102
RTVSPropertyOp51
 70
     0
102
RTVSPropertyOp52
 70
     0
102
RTVSPropertyOp53
 70
     1
102
RTVSPropertyOp54
 70
     1
102
RTVSPropertyOp55
 70
     1
102
RTVSPropertyOp56
 70
     1
102
RTVSPropertyOp57
 70
     1
102
RTVSPost2010Prop28
280
     0
102
RTVSPost2010PropOp28
 70
     1
102
RTVSPost2010Prop29
280
     1
102
RTVSPost2010PropOp29
 70
     1
102
RTVSPost2010Prop30
280
     1
102
RTVSPost2010PropOp30
 70
     1
102
RTVSPost2010Prop31
280
     0
102
RTVSPost2010PropOp31
 70
     1
102
RTVSPost2010Prop32
280
     0
102
RTVSPost2010PropOp32
 70
     1
102
RTVSPost2010Prop33
280
     0
102
RTVSPost2010PropOp33
 70
     1
102
RTVSPost2010Prop34
280
     0
102
RTVSPost2010PropOp34
 70
     1
102
RTVSPost2010Prop35
280
     0
102
RTVSPost2010PropOp35
 70
     1
102
RTVSPost2010Prop36
280
     0
102
RTVSPost2010PropOp36
 70
     1
102
RTVSPost2010Prop37
 90
       50
102
RTVSPost2010PropOp37
 70
     1
102
RTVSPost2010Prop38
140
0.0
102
RTVSPost2010PropOp38
 70
     1
102
RTVSPost2010Prop39
140
1.0
102
RTVSPost2010PropOp39
 70
     1
102
RTVSPost2010Prop40
 90
        0
102
RTVSPost2010PropOp40
 70
     1
102
RTVSPost2010Prop41ColorIndex
 90
       18
102
RTVSPost2010Prop41ColorRGB
 90
        0
102
RTVSPost2010PropOp41
 70
     1
102
RTVSPost2010Prop42
 90
       50
102
RTVSPost2010PropOp42
 70
     1
102
RTVSPost2010Prop43
 90
        3
102
RTVSPost2010PropOp43
 70
     1
102
RTVSPost2010Prop44ColorIndex
 90
        5
102
RTVSPost2010Prop44ColorRGB
 90
      255
102
RTVSPost2010PropOp44
 70
     1
102
RTVSPost2010Prop45
280
     0
102
RTVSPost2010PropOp45
 70
     1
102
RTVSPost2010Prop46
 90
       50
102
RTVSPost2010PropOp46
 70
     1
102
RTVSPost2010Prop47
 90
       50
102
RTVSPost2010PropOp47
 70
     1
102
RTVSPost2010Prop48
 90
       50
102
RTVSPost2010PropOp48
 70
     1
102
RTVSPost2010Prop49
280
     0
102
RTVSPost2010PropOp49
 70
     1
102
RTVSPost2010Prop50
 90
       50
102
RTVSPost2010PropOp50
 70
     1
102
RTVSPost2010Prop51ColorIndex
 90
      256
102
RTVSPost2010Prop51ColorRGB
 90
-16777216
102
RTVSPost2010PropOp51
 70
     0
102
RTVSPost2010Prop52
140
1.0
102
RTVSPost2010PropOp52
 70
     0
102
RTVSPost2010Prop53
 90
        2
102
RTVSPost2010PropOp53
 70
     1
102
RTVSPost2010Prop54
  1
strokes_ogs.tif
102
RTVSPost2010PropOp54
 70
     1
102
RTVSPost2010Prop55
280
     0
102
RTVSPost2010PropOp55
 70
     1
102
RTVSPost2010Prop56
140
1.0
102
RTVSPost2010PropOp56
 70
     1
102
RTVSPost2010Prop57
140
1.0
102
RTVSPost2010PropOp57
 70
     1
  0
XRECORD
  5
5A9
102
{ACAD_REACTORS
330
5A8
102
}
330
5A8
100
AcDbXrecord
280
     1
102
RTVSPropertyOp0
 70
     1
102
RTVSPropertyOp1
 70
     1
102
RTVSPropertyOp2
 70
     1
102
RTVSPropertyOp3
 70
     1
102
RTVSPropertyOp4
 70
     1
102
RTVSPropertyOp5
 70
     1
102
RTVSPropertyOp6
 70
     1
102
RTVSPropertyOp7
 70
     1
102
RTVSPropertyOp8
 70
     1
102
RTVSPropertyOp9
 70
     1
102
RTVSPropertyOp10
 70
     1
102
RTVSPropertyOp11
 70
     1
102
RTVSPropertyOp12
 70
     1
102
RTVSPropertyOp13
 70
     1
102
RTVSPropertyOp14
 70
     1
102
RTVSPropertyOp15
 70
     1
102
RTVSPropertyOp16
 70
     1
102
RTVSPropertyOp17
 70
     1
102
RTVSPropertyOp18
 70
     1
102
RTVSPropertyOp19
 70
     1
102
RTVSPropertyOp20
 70
     1
102
RTVSPropertyOp21
 70
     1
102
RTVSPropertyOp22
 70
     1
102
RTVSPropertyOp23
 70
     1
102
RTVSPropertyOp24
 70
     1
102
RTVSPropertyOp25
 70
     1
102
RTVSPropertyOp26
 70
     1
102
RTVSPropertyOp27
 70
     1
102
RTVSPropertyOp28
 70
     1
102
RTVSPropertyOp29
 70
     1
102
RTVSPropertyOp30
 70
     1
102
RTVSPropertyOp31
 70
     1
102
RTVSPropertyOp32
 70
     1
102
RTVSPropertyOp33
 70
     1
102
RTVSPropertyOp34
 70
     1
102
RTVSPropertyOp35
 70
     1
102
RTVSPropertyOp36
 70
     1
102
RTVSPropertyOp37
 70
     1
102
RTVSPropertyOp38
 70
     1
102
RTVSPropertyOp39
 70
     1
102
RTVSPropertyOp40
 70
     1
102
RTVSPropertyOp41
 70
     1
102
RTVSPropertyOp42
 70
     1
102
RTVSPropertyOp43
 70
     1
102
RTVSPropertyOp44
 70
     1
102
RTVSPropertyOp45
 70
     1
102
RTVSPropertyOp46
 70
     1
102
RTVSPropertyOp47
 70
     1
102
RTVSPropertyOp48
 70
     1
102
RTVSPropertyOp49
 70
     1
102
RTVSPropertyOp50
 70
     1
102
RTVSPropertyOp51
 70
     0
102
RTVSPropertyOp52
 70
     0
102
RTVSPropertyOp53
 70
     1
102
RTVSPropertyOp54
 70
     1
102
RTVSPropertyOp55
 70
     1
102
RTVSPropertyOp56
 70
     1
102
RTVSPropertyOp57
 70
     1
102
RTVSPost2010Prop28
280
     0
102
RTVSPost2010PropOp28
 70
     1
102
RTVSPost2010Prop29
280
     1
102
RTVSPost2010PropOp29
 70
     1
102
RTVSPost2010Prop30
280
     1
102
RTVSPost2010PropOp30
 70
     1
102
RTVSPost2010Prop31
280
     0
102
RTVSPost2010PropOp31
 70
     1
102
RTVSPost2010Prop32
280
     0
102
RTVSPost2010PropOp32
 70
     1
102
RTVSPost2010Prop33
280
     0
102
RTVSPost2010PropOp33
 70
     1
102
RTVSPost2010Prop34
280
     0
102
RTVSPost2010PropOp34
 70
     1
102
RTVSPost2010Prop35
280
     0
102
RTVSPost2010PropOp35
 70
     1
102
RTVSPost2010Prop36
280
     0
102
RTVSPost2010PropOp36
 70
     1
102
RTVSPost2010Prop37
 90
       50
102
RTVSPost2010PropOp37
 70
     1
102
RTVSPost2010Prop38
140
0.0
102
RTVSPost2010PropOp38
 70
     1
102
RTVSPost2010Prop39
140
1.0
102
RTVSPost2010PropOp39
 70
     1
102
RTVSPost2010Prop40
 90
        0
102
RTVSPost2010PropOp40
 70
     1
102
RTVSPost2010Prop41ColorIndex
 90
       18
102
RTVSPost2010Prop41ColorRGB
 90
        0
102
RTVSPost2010PropOp41
 70
     1
102
RTVSPost2010Prop42
 90
       50
102
RTVSPost2010PropOp42
 70
     1
102
RTVSPost2010Prop43
 90
        3
102
RTVSPost2010PropOp43
 70
     1
102
RTVSPost2010Prop44ColorIndex
 90
        5
102
RTVSPost2010Prop44ColorRGB
 90
      255
102
RTVSPost2010PropOp44
 70
     1
102
RTVSPost2010Prop45
280
     0
102
RTVSPost2010PropOp45
 70
     1
102
RTVSPost2010Prop46
 90
       50
102
RTVSPost2010PropOp46
 70
     1
102
RTVSPost2010Prop47
 90
       50
102
RTVSPost2010PropOp47
 70
     1
102
RTVSPost2010Prop48
 90
       50
102
RTVSPost2010PropOp48
 70
     1
102
RTVSPost2010Prop49
280
     0
102
RTVSPost2010PropOp49
 70
     1
102
RTVSPost2010Prop50
 90
       50
102
RTVSPost2010PropOp50
 70
     1
102
RTVSPost2010Prop51ColorIndex
 90
      256
102
RTVSPost2010Prop51ColorRGB
 90
-16777216
102
RTVSPost2010PropOp51
 70
     0
102
RTVSPost2010Prop52
140
1.0
102
RTVSPost2010PropOp52
 70
     0
102
RTVSPost2010Prop53
 90
        2
102
RTVSPost2010PropOp53
 70
     1
102
RTVSPost2010Prop54
  1
strokes_ogs.tif
102
RTVSPost2010PropOp54
 70
     1
102
RTVSPost2010Prop55
280
     0
102
RTVSPost2010PropOp55
 70
     1
102
RTVSPost2010Prop56
140
1.0
102
RTVSPost2010PropOp56
 70
     1
102
RTVSPost2010Prop57
140
1.0
102
RTVSPost2010PropOp57
 70
     1
  0
XRECORD
  5
5BD
102
{ACAD_REACTORS
330
5BC
102
}
330
5BC
100
AcDbXrecord
280
     1
102
RTVSPropertyOp0
 70
     1
102
RTVSPropertyOp1
 70
     1
102
RTVSPropertyOp2
 70
     1
102
RTVSPropertyOp3
 70
     1
102
RTVSPropertyOp4
 70
     1
102
RTVSPropertyOp5
 70
     1
102
RTVSPropertyOp6
 70
     1
102
RTVSPropertyOp7
 70
     1
102
RTVSPropertyOp8
 70
     1
102
RTVSPropertyOp9
 70
     1
102
RTVSPropertyOp10
 70
     1
102
RTVSPropertyOp11
 70
     1
102
RTVSPropertyOp12
 70
     1
102
RTVSPropertyOp13
 70
     1
102
RTVSPropertyOp14
 70
     1
102
RTVSPropertyOp15
 70
     1
102
RTVSPropertyOp16
 70
     1
102
RTVSPropertyOp17
 70
     1
102
RTVSPropertyOp18
 70
     1
102
RTVSPropertyOp19
 70
     1
102
RTVSPropertyOp20
 70
     1
102
RTVSPropertyOp21
 70
     1
102
RTVSPropertyOp22
 70
     1
102
RTVSPropertyOp23
 70
     1
102
RTVSPropertyOp24
 70
     1
102
RTVSPropertyOp25
 70
     1
102
RTVSPropertyOp26
 70
     1
102
RTVSPropertyOp27
 70
     1
102
RTVSPropertyOp28
 70
     1
102
RTVSPropertyOp29
 70
     1
102
RTVSPropertyOp30
 70
     1
102
RTVSPropertyOp31
 70
     1
102
RTVSPropertyOp32
 70
     1
102
RTVSPropertyOp33
 70
     1
102
RTVSPropertyOp34
 70
     1
102
RTVSPropertyOp35
 70
     1
102
RTVSPropertyOp36
 70
     1
102
RTVSPropertyOp37
 70
     1
102
RTVSPropertyOp38
 70
     1
102
RTVSPropertyOp39
 70
     1
102
RTVSPropertyOp40
 70
     1
102
RTVSPropertyOp41
 70
     1
102
RTVSPropertyOp42
 70
     1
102
RTVSPropertyOp43
 70
     1
102
RTVSPropertyOp44
 70
     1
102
RTVSPropertyOp45
 70
     1
102
RTVSPropertyOp46
 70
     1
102
RTVSPropertyOp47
 70
     1
102
RTVSPropertyOp48
 70
     1
102
RTVSPropertyOp49
 70
     1
102
RTVSPropertyOp50
 70
     1
102
RTVSPropertyOp51
 70
     0
102
RTVSPropertyOp52
 70
     0
102
RTVSPropertyOp53
 70
     1
102
RTVSPropertyOp54
 70
     1
102
RTVSPropertyOp55
 70
     1
102
RTVSPropertyOp56
 70
     1
102
RTVSPropertyOp57
 70
     1
102
RTVSPost2010Prop28
280
     0
102
RTVSPost2010PropOp28
 70
     1
102
RTVSPost2010Prop29
280
     1
102
RTVSPost2010PropOp29
 70
     1
102
RTVSPost2010Prop30
280
     1
102
RTVSPost2010PropOp30
 70
     1
102
RTVSPost2010Prop31
280
     0
102
RTVSPost2010PropOp31
 70
     1
102
RTVSPost2010Prop32
280
     0
102
RTVSPost2010PropOp32
 70
     1
102
RTVSPost2010Prop33
280
     0
102
RTVSPost2010PropOp33
 70
     1
102
RTVSPost2010Prop34
280
     0
102
RTVSPost2010PropOp34
 70
     1
102
RTVSPost2010Prop35
280
     0
102
RTVSPost2010PropOp35
 70
     1
102
RTVSPost2010Prop36
280
     0
102
RTVSPost2010PropOp36
 70
     1
102
RTVSPost2010Prop37
 90
       50
102
RTVSPost2010PropOp37
 70
     1
102
RTVSPost2010Prop38
140
0.0
102
RTVSPost2010PropOp38
 70
     1
102
RTVSPost2010Prop39
140
1.0
102
RTVSPost2010PropOp39
 70
     1
102
RTVSPost2010Prop40
 90
        0
102
RTVSPost2010PropOp40
 70
     1
102
RTVSPost2010Prop41ColorIndex
 90
       18
102
RTVSPost2010Prop41ColorRGB
 90
        0
102
RTVSPost2010PropOp41
 70
     1
102
RTVSPost2010Prop42
 90
       50
102
RTVSPost2010PropOp42
 70
     1
102
RTVSPost2010Prop43
 90
        3
102
RTVSPost2010PropOp43
 70
     1
102
RTVSPost2010Prop44ColorIndex
 90
        5
102
RTVSPost2010Prop44ColorRGB
 90
      255
102
RTVSPost2010PropOp44
 70
     1
102
RTVSPost2010Prop45
280
     0
102
RTVSPost2010PropOp45
 70
     1
102
RTVSPost2010Prop46
 90
       50
102
RTVSPost2010PropOp46
 70
     1
102
RTVSPost2010Prop47
 90
       50
102
RTVSPost2010PropOp47
 70
     1
102
RTVSPost2010Prop48
 90
       50
102
RTVSPost2010PropOp48
 70
     1
102
RTVSPost2010Prop49
280
     0
102
RTVSPost2010PropOp49
 70
     1
102
RTVSPost2010Prop50
 90
       50
102
RTVSPost2010PropOp50
 70
     1
102
RTVSPost2010Prop51ColorIndex
 90
      256
102
RTVSPost2010Prop51ColorRGB
 90
-16777216
102
RTVSPost2010PropOp51
 70
     0
102
RTVSPost2010Prop52
140
1.0
102
RTVSPost2010PropOp52
 70
     0
102
RTVSPost2010Prop53
 90
        2
102
RTVSPost2010PropOp53
 70
     1
102
RTVSPost2010Prop54
  1
strokes_ogs.tif
102
RTVSPost2010PropOp54
 70
     1
102
RTVSPost2010Prop55
280
     0
102
RTVSPost2010PropOp55
 70
     1
102
RTVSPost2010Prop56
140
1.0
102
RTVSPost2010PropOp56
 70
     1
102
RTVSPost2010Prop57
140
1.0
102
RTVSPost2010PropOp57
 70
     1
  0
XRECORD
  5
5B3
102
{ACAD_REACTORS
330
5B2
102
}
330
5B2
100
AcDbXrecord
280
     1
102
RTVSPropertyOp0
 70
     1
102
RTVSPropertyOp1
 70
     1
102
RTVSPropertyOp2
 70
     1
102
RTVSPropertyOp3
 70
     1
102
RTVSPropertyOp4
 70
     1
102
RTVSPropertyOp5
 70
     1
102
RTVSPropertyOp6
 70
     1
102
RTVSPropertyOp7
 70
     1
102
RTVSPropertyOp8
 70
     1
102
RTVSPropertyOp9
 70
     1
102
RTVSPropertyOp10
 70
     1
102
RTVSPropertyOp11
 70
     1
102
RTVSPropertyOp12
 70
     1
102
RTVSPropertyOp13
 70
     1
102
RTVSPropertyOp14
 70
     1
102
RTVSPropertyOp15
 70
     1
102
RTVSPropertyOp16
 70
     1
102
RTVSPropertyOp17
 70
     1
102
RTVSPropertyOp18
 70
     1
102
RTVSPropertyOp19
 70
     1
102
RTVSPropertyOp20
 70
     1
102
RTVSPropertyOp21
 70
     1
102
RTVSPropertyOp22
 70
     1
102
RTVSPropertyOp23
 70
     1
102
RTVSPropertyOp24
 70
     1
102
RTVSPropertyOp25
 70
     1
102
RTVSPropertyOp26
 70
     1
102
RTVSPropertyOp27
 70
     1
102
RTVSPropertyOp28
 70
     1
102
RTVSPropertyOp29
 70
     1
102
RTVSPropertyOp30
 70
     1
102
RTVSPropertyOp31
 70
     1
102
RTVSPropertyOp32
 70
     1
102
RTVSPropertyOp33
 70
     1
102
RTVSPropertyOp34
 70
     1
102
RTVSPropertyOp35
 70
     1
102
RTVSPropertyOp36
 70
     1
102
RTVSPropertyOp37
 70
     1
102
RTVSPropertyOp38
 70
     1
102
RTVSPropertyOp39
 70
     1
102
RTVSPropertyOp40
 70
     1
102
RTVSPropertyOp41
 70
     1
102
RTVSPropertyOp42
 70
     1
102
RTVSPropertyOp43
 70
     1
102
RTVSPropertyOp44
 70
     1
102
RTVSPropertyOp45
 70
     1
102
RTVSPropertyOp46
 70
     1
102
RTVSPropertyOp47
 70
     1
102
RTVSPropertyOp48
 70
     1
102
RTVSPropertyOp49
 70
     1
102
RTVSPropertyOp50
 70
     1
102
RTVSPropertyOp51
 70
     0
102
RTVSPropertyOp52
 70
     0
102
RTVSPropertyOp53
 70
     1
102
RTVSPropertyOp54
 70
     1
102
RTVSPropertyOp55
 70
     1
102
RTVSPropertyOp56
 70
     1
102
RTVSPropertyOp57
 70
     1
102
RTVSPost2010Prop28
280
     0
102
RTVSPost2010PropOp28
 70
     1
102
RTVSPost2010Prop29
280
     1
102
RTVSPost2010PropOp29
 70
     1
102
RTVSPost2010Prop30
280
     1
102
RTVSPost2010PropOp30
 70
     1
102
RTVSPost2010Prop31
280
     0
102
RTVSPost2010PropOp31
 70
     1
102
RTVSPost2010Prop32
280
     0
102
RTVSPost2010PropOp32
 70
     1
102
RTVSPost2010Prop33
280
     0
102
RTVSPost2010PropOp33
 70
     1
102
RTVSPost2010Prop34
280
     0
102
RTVSPost2010PropOp34
 70
     1
102
RTVSPost2010Prop35
280
     0
102
RTVSPost2010PropOp35
 70
     1
102
RTVSPost2010Prop36
280
     0
102
RTVSPost2010PropOp36
 70
     1
102
RTVSPost2010Prop37
 90
       50
102
RTVSPost2010PropOp37
 70
     1
102
RTVSPost2010Prop38
140
0.0
102
RTVSPost2010PropOp38
 70
     1
102
RTVSPost2010Prop39
140
1.0
102
RTVSPost2010PropOp39
 70
     1
102
RTVSPost2010Prop40
 90
        0
102
RTVSPost2010PropOp40
 70
     1
102
RTVSPost2010Prop41ColorIndex
 90
       18
102
RTVSPost2010Prop41ColorRGB
 90
        0
102
RTVSPost2010PropOp41
 70
     1
102
RTVSPost2010Prop42
 90
       50
102
RTVSPost2010PropOp42
 70
     1
102
RTVSPost2010Prop43
 90
        3
102
RTVSPost2010PropOp43
 70
     1
102
RTVSPost2010Prop44ColorIndex
 90
        5
102
RTVSPost2010Prop44ColorRGB
 90
      255
102
RTVSPost2010PropOp44
 70
     1
102
RTVSPost2010Prop45
280
     0
102
RTVSPost2010PropOp45
 70
     1
102
RTVSPost2010Prop46
 90
       50
102
RTVSPost2010PropOp46
 70
     1
102
RTVSPost2010Prop47
 90
       50
102
RTVSPost2010PropOp47
 70
     1
102
RTVSPost2010Prop48
 90
       50
102
RTVSPost2010PropOp48
 70
     1
102
RTVSPost2010Prop49
280
     0
102
RTVSPost2010PropOp49
 70
     1
102
RTVSPost2010Prop50
 90
       50
102
RTVSPost2010PropOp50
 70
     1
102
RTVSPost2010Prop51ColorIndex
 90
      256
102
RTVSPost2010Prop51ColorRGB
 90
-16777216
102
RTVSPost2010PropOp51
 70
     0
102
RTVSPost2010Prop52
140
1.0
102
RTVSPost2010PropOp52
 70
     0
102
RTVSPost2010Prop53
 90
        2
102
RTVSPost2010PropOp53
 70
     1
102
RTVSPost2010Prop54
  1
strokes_ogs.tif
102
RTVSPost2010PropOp54
 70
     1
102
RTVSPost2010Prop55
280
     0
102
RTVSPost2010PropOp55
 70
     1
102
RTVSPost2010Prop56
140
1.0
102
RTVSPost2010PropOp56
 70
     1
102
RTVSPost2010Prop57
140
1.0
102
RTVSPost2010PropOp57
 70
     1
  0
XRECORD
  5
5BB
102
{ACAD_REACTORS
330
5BA
102
}
330
5BA
100
AcDbXrecord
280
     1
102
RTVSPropertyOp0
 70
     1
102
RTVSPropertyOp1
 70
     1
102
RTVSPropertyOp2
 70
     1
102
RTVSPropertyOp3
 70
     1
102
RTVSPropertyOp4
 70
     1
102
RTVSPropertyOp5
 70
     1
102
RTVSPropertyOp6
 70
     1
102
RTVSPropertyOp7
 70
     1
102
RTVSPropertyOp8
 70
     1
102
RTVSPropertyOp9
 70
     1
102
RTVSPropertyOp10
 70
     1
102
RTVSPropertyOp11
 70
     1
102
RTVSPropertyOp12
 70
     1
102
RTVSPropertyOp13
 70
     1
102
RTVSPropertyOp14
 70
     1
102
RTVSPropertyOp15
 70
     1
102
RTVSPropertyOp16
 70
     1
102
RTVSPropertyOp17
 70
     1
102
RTVSPropertyOp18
 70
     1
102
RTVSPropertyOp19
 70
     1
102
RTVSPropertyOp20
 70
     1
102
RTVSPropertyOp21
 70
     1
102
RTVSPropertyOp22
 70
     1
102
RTVSPropertyOp23
 70
     1
102
RTVSPropertyOp24
 70
     1
102
RTVSPropertyOp25
 70
     1
102
RTVSPropertyOp26
 70
     1
102
RTVSPropertyOp27
 70
     1
102
RTVSPropertyOp28
 70
     1
102
RTVSPropertyOp29
 70
     1
102
RTVSPropertyOp30
 70
     1
102
RTVSPropertyOp31
 70
     1
102
RTVSPropertyOp32
 70
     1
102
RTVSPropertyOp33
 70
     1
102
RTVSPropertyOp34
 70
     1
102
RTVSPropertyOp35
 70
     1
102
RTVSPropertyOp36
 70
     1
102
RTVSPropertyOp37
 70
     1
102
RTVSPropertyOp38
 70
     1
102
RTVSPropertyOp39
 70
     1
102
RTVSPropertyOp40
 70
     1
102
RTVSPropertyOp41
 70
     1
102
RTVSPropertyOp42
 70
     1
102
RTVSPropertyOp43
 70
     1
102
RTVSPropertyOp44
 70
     1
102
RTVSPropertyOp45
 70
     1
102
RTVSPropertyOp46
 70
     1
102
RTVSPropertyOp47
 70
     1
102
RTVSPropertyOp48
 70
     1
102
RTVSPropertyOp49
 70
     1
102
RTVSPropertyOp50
 70
     1
102
RTVSPropertyOp51
 70
     0
102
RTVSPropertyOp52
 70
     0
102
RTVSPropertyOp53
 70
     1
102
RTVSPropertyOp54
 70
     1
102
RTVSPropertyOp55
 70
     1
102
RTVSPropertyOp56
 70
     1
102
RTVSPropertyOp57
 70
     1
102
RTVSPost2010Prop28
280
     0
102
RTVSPost2010PropOp28
 70
     1
102
RTVSPost2010Prop29
280
     1
102
RTVSPost2010PropOp29
 70
     1
102
RTVSPost2010Prop30
280
     1
102
RTVSPost2010PropOp30
 70
     1
102
RTVSPost2010Prop31
280
     0
102
RTVSPost2010PropOp31
 70
     1
102
RTVSPost2010Prop32
280
     0
102
RTVSPost2010PropOp32
 70
     1
102
RTVSPost2010Prop33
280
     0
102
RTVSPost2010PropOp33
 70
     1
102
RTVSPost2010Prop34
280
     0
102
RTVSPost2010PropOp34
 70
     1
102
RTVSPost2010Prop35
280
     0
102
RTVSPost2010PropOp35
 70
     1
102
RTVSPost2010Prop36
280
     0
102
RTVSPost2010PropOp36
 70
     1
102
RTVSPost2010Prop37
 90
       50
102
RTVSPost2010PropOp37
 70
     1
102
RTVSPost2010Prop38
140
0.0
102
RTVSPost2010PropOp38
 70
     1
102
RTVSPost2010Prop39
140
1.0
102
RTVSPost2010PropOp39
 70
     1
102
RTVSPost2010Prop40
 90
        0
102
RTVSPost2010PropOp40
 70
     1
102
RTVSPost2010Prop41ColorIndex
 90
       18
102
RTVSPost2010Prop41ColorRGB
 90
        0
102
RTVSPost2010PropOp41
 70
     1
102
RTVSPost2010Prop42
 90
       50
102
RTVSPost2010PropOp42
 70
     1
102
RTVSPost2010Prop43
 90
        3
102
RTVSPost2010PropOp43
 70
     1
102
RTVSPost2010Prop44ColorIndex
 90
        5
102
RTVSPost2010Prop44ColorRGB
 90
      255
102
RTVSPost2010PropOp44
 70
     1
102
RTVSPost2010Prop45
280
     0
102
RTVSPost2010PropOp45
 70
     1
102
RTVSPost2010Prop46
 90
       50
102
RTVSPost2010PropOp46
 70
     1
102
RTVSPost2010Prop47
 90
       50
102
RTVSPost2010PropOp47
 70
     1
102
RTVSPost2010Prop48
 90
       50
102
RTVSPost2010PropOp48
 70
     1
102
RTVSPost2010Prop49
280
     0
102
RTVSPost2010PropOp49
 70
     1
102
RTVSPost2010Prop50
 90
       50
102
RTVSPost2010PropOp50
 70
     1
102
RTVSPost2010Prop51ColorIndex
 90
      256
102
RTVSPost2010Prop51ColorRGB
 90
-16777216
102
RTVSPost2010PropOp51
 70
     0
102
RTVSPost2010Prop52
140
1.0
102
RTVSPost2010PropOp52
 70
     0
102
RTVSPost2010Prop53
 90
        2
102
RTVSPost2010PropOp53
 70
     1
102
RTVSPost2010Prop54
  1
strokes_ogs.tif
102
RTVSPost2010PropOp54
 70
     1
102
RTVSPost2010Prop55
280
     0
102
RTVSPost2010PropOp55
 70
     1
102
RTVSPost2010Prop56
140
1.0
102
RTVSPost2010PropOp56
 70
     1
102
RTVSPost2010Prop57
140
1.0
102
RTVSPost2010PropOp57
 70
     1
  0
ENDSEC
  0
EOF
