  0
SECTION
  2
HEADER
  9
$ACADVER
  1
AC1018
  9
$ACADMAINTVER
 70
     0
  9
$DWGCODEPAGE
  3
ANSI_936
  9
$INSBASE
 10
0.0
 20
0.0
 30
0.0
  9
$EXTMIN
 10
274.9161210101253
 20
459.0
 30
0.0
  9
$EXTMAX
 10
389.8210072071478
 20
628.9048861970225
 30
0.0
  9
$LIMMIN
 10
0.0
 20
0.0
  9
$LIMMAX
 10
12.0
 20
9.0
  9
$ORTHOMODE
 70
     0
  9
$REGENMODE
 70
     1
  9
$FILLMODE
 70
     1
  9
$QTEXTMODE
 70
     0
  9
$MIRRTEXT
 70
     1
  9
$LTSCALE
 40
1.0
  9
$ATTMODE
 70
     1
  9
$TEXTSIZE
 40
0.2
  9
$TRACEWID
 40
0.05
  9
$TEXTSTYLE
  7
Standard
  9
$CLAYER
  8
E98720
  9
$CELTYPE
  6
ByLayer
  9
$CECOLOR
 62
   256
  9
$CELTSCALE
 40
1.0
  9
$DISPSILH
 70
     0
  9
$DIMSCALE
 40
1.0
  9
$DIMASZ
 40
0.18
  9
$DIMEXO
 40
0.0625
  9
$DIMDLI
 40
0.38
  9
$DIMRND
 40
0.0
  9
$DIMDLE
 40
0.0
  9
$DIMEXE
 40
0.18
  9
$DIMTP
 40
0.0
  9
$DIMTM
 40
0.0
  9
$DIMTXT
 40
0.18
  9
$DIMCEN
 40
0.09
  9
$DIMTSZ
 40
0.0
  9
$DIMTOL
 70
     0
  9
$DIMLIM
 70
     0
  9
$DIMTIH
 70
     1
  9
$DIMTOH
 70
     1
  9
$DIMSE1
 70
     0
  9
$DIMSE2
 70
     0
  9
$DIMTAD
 70
     0
  9
$DIMZIN
 70
     0
  9
$DIMBLK
  1

  9
$DIMASO
 70
     1
  9
$DIMSHO
 70
     1
  9
$DIMPOST
  1

  9
$DIMAPOST
  1

  9
$DIMALT
 70
     0
  9
$DIMALTD
 70
     2
  9
$DIMALTF
 40
25.4
  9
$DIMLFAC
 40
1.0
  9
$DIMTOFL
 70
     0
  9
$DIMTVP
 40
0.0
  9
$DIMTIX
 70
     0
  9
$DIMSOXD
 70
     0
  9
$DIMSAH
 70
     0
  9
$DIMBLK1
  1

  9
$DIMBLK2
  1

  9
$DIMSTYLE
  2
Standard
  9
$DIMCLRD
 70
     0
  9
$DIMCLRE
 70
     0
  9
$DIMCLRT
 70
     0
  9
$DIMTFAC
 40
1.0
  9
$DIMGAP
 40
0.09
  9
$DIMJUST
 70
     0
  9
$DIMSD1
 70
     0
  9
$DIMSD2
 70
     0
  9
$DIMTOLJ
 70
     1
  9
$DIMTZIN
 70
     0
  9
$DIMALTZ
 70
     0
  9
$DIMALTTZ
 70
     0
  9
$DIMUPT
 70
     0
  9
$DIMDEC
 70
     4
  9
$DIMTDEC
 70
     4
  9
$DIMALTU
 70
     2
  9
$DIMALTTD
 70
     2
  9
$DIMTXSTY
  7
Standard
  9
$DIMAUNIT
 70
     0
  9
$DIMADEC
 70
     0
  9
$DIMALTRND
 40
0.0
  9
$DIMAZIN
 70
     0
  9
$DIMDSEP
 70
    46
  9
$DIMATFIT
 70
     3
  9
$DIMFRAC
 70
     0
  9
$DIMLDRBLK
  1

  9
$DIMLUNIT
 70
     2
  9
$DIMLWD
 70
    -2
  9
$DIMLWE
 70
    -2
  9
$DIMTMOVE
 70
     2
  9
$LUNITS
 70
     2
  9
$LUPREC
 70
     2
  9
$SKETCHINC
 40
0.1
  9
$FILLETRAD
 40
0.5
  9
$AUNITS
 70
     0
  9
$AUPREC
 70
     0
  9
$MENU
  1
.
  9
$ELEVATION
 40
0.0
  9
$PELEVATION
 40
0.0
  9
$THICKNESS
 40
0.0
  9
$LIMCHECK
 70
     0
  9
$CHAMFERA
 40
0.5
  9
$CHAMFERB
 40
0.5
  9
$CHAMFERC
 40
1.0
  9
$CHAMFERD
 40
0.0
  9
$SKPOLY
 70
     0
  9
$TDCREATE
 40
2456705.998898484
  9
$TDUCREATE
 40
2456705.66556515
  9
$TDUPDATE
 40
2456705.998899387
  9
$TDUUPDATE
 40
2456705.665566053
  9
$TDINDWG
 40
0.0000000116
  9
$TDUSRTIMER
 40
0.0000000116
  9
$USRTIMER
 70
     1
  9
$ANGBASE
 50
0.0
  9
$ANGDIR
 70
     0
  9
$PDMODE
 70
     0
  9
$PDSIZE
 40
0.0
  9
$PLINEWID
 40
0.0
  9
$SPLFRAME
 70
     0
  9
$SPLINETYPE
 70
     6
  9
$SPLINESEGS
 70
     8
  9
$HANDSEED
  5
63D
  9
$SURFTAB1
 70
     6
  9
$SURFTAB2
 70
     6
  9
$SURFTYPE
 70
     6
  9
$SURFU
 70
     6
  9
$SURFV
 70
     6
  9
$UCSBASE
  2

  9
$UCSNAME
  2

  9
$UCSORG
 10
0.0
 20
0.0
 30
0.0
  9
$UCSXDIR
 10
1.0
 20
0.0
 30
0.0
  9
$UCSYDIR
 10
0.0
 20
1.0
 30
0.0
  9
$UCSORTHOREF
  2

  9
$UCSORTHOVIEW
 70
     0
  9
$UCSORGTOP
 10
0.0
 20
0.0
 30
0.0
  9
$UCSORGBOTTOM
 10
0.0
 20
0.0
 30
0.0
  9
$UCSORGLEFT
 10
0.0
 20
0.0
 30
0.0
  9
$UCSORGRIGHT
 10
0.0
 20
0.0
 30
0.0
  9
$UCSORGFRONT
 10
0.0
 20
0.0
 30
0.0
  9
$UCSORGBACK
 10
0.0
 20
0.0
 30
0.0
  9
$PUCSBASE
  2

  9
$PUCSNAME
  2

  9
$PUCSORG
 10
0.0
 20
0.0
 30
0.0
  9
$PUCSXDIR
 10
1.0
 20
0.0
 30
0.0
  9
$PUCSYDIR
 10
0.0
 20
1.0
 30
0.0
  9
$PUCSORTHOREF
  2

  9
$PUCSORTHOVIEW
 70
     0
  9
$PUCSORGTOP
 10
0.0
 20
0.0
 30
0.0
  9
$PUCSORGBOTTOM
 10
0.0
 20
0.0
 30
0.0
  9
$PUCSORGLEFT
 10
0.0
 20
0.0
 30
0.0
  9
$PUCSORGRIGHT
 10
0.0
 20
0.0
 30
0.0
  9
$PUCSORGFRONT
 10
0.0
 20
0.0
 30
0.0
  9
$PUCSORGBACK
 10
0.0
 20
0.0
 30
0.0
  9
$USERI1
 70
     0
  9
$USERI2
 70
     0
  9
$USERI3
 70
     0
  9
$USERI4
 70
     0
  9
$USERI5
 70
     0
  9
$USERR1
 40
0.0
  9
$USERR2
 40
0.0
  9
$USERR3
 40
0.0
  9
$USERR4
 40
0.0
  9
$USERR5
 40
0.0
  9
$WORLDVIEW
 70
     1
  9
$SHADEDGE
 70
     3
  9
$SHADEDIF
 70
    70
  9
$TILEMODE
 70
     1
  9
$MAXACTVP
 70
    64
  9
$PINSBASE
 10
0.0
 20
0.0
 30
0.0
  9
$PLIMCHECK
 70
     0
  9
$PEXTMIN
 10
1.000000000000000E+20
 20
1.000000000000000E+20
 30
1.000000000000000E+20
  9
$PEXTMAX
 10
-1.000000000000000E+20
 20
-1.000000000000000E+20
 30
-1.000000000000000E+20
  9
$PLIMMIN
 10
0.0
 20
0.0
  9
$PLIMMAX
 10
12.0
 20
9.0
  9
$UNITMODE
 70
     0
  9
$VISRETAIN
 70
     1
  9
$PLINEGEN
 70
     0
  9
$PSLTSCALE
 70
     1
  9
$TREEDEPTH
 70
  3020
  9
$CMLSTYLE
  2
Standard
  9
$CMLJUST
 70
     0
  9
$CMLSCALE
 40
1.0
  9
$PROXYGRAPHICS
 70
     1
  9
$MEASUREMENT
 70
     0
  9
$CELWEIGHT
370
    -1
  9
$ENDCAPS
280
     0
  9
$JOINSTYLE
280
     0
  9
$LWDISPLAY
290
     0
  9
$INSUNITS
 70
     4
  9
$HYPERLINKBASE
  1

  9
$STYLESHEET
  1

  9
$XEDIT
290
     1
  9
$CEPSNTYPE
380
     0
  9
$PSTYLEMODE
290
     1
  9
$FINGERPRINTGUID
  2
{449F9B49-F724-42C2-8D59-CF526E26CBAE}
  9
$VERSIONGUID
  2
{FAEB1C32-E019-11D5-929B-00C0DF256EC4}
  9
$EXTNAMES
290
     1
  9
$PSVPSCALE
 40
0.0
  9
$OLESTARTUP
290
     0
  9
$SORTENTS
280
   127
  9
$INDEXCTL
280
     0
  9
$HIDETEXT
280
     1
  9
$XCLIPFRAME
290
     0
  9
$HALOGAP
280
     0
  9
$OBSCOLOR
 70
   257
  9
$OBSLTYPE
280
     0
  9
$INTERSECTIONDISPLAY
280
     0
  9
$INTERSECTIONCOLOR
 70
   257
  9
$DIMASSOC
280
     2
  9
$PROJECTNAME
  1

  0
ENDSEC
  0
SECTION
  2
CLASSES
  0
CLASS
  1
ACDBDICTIONARYWDFLT
  2
AcDbDictionaryWithDefault
  3
ObjectDBX Classes
 90
        0
 91
        4
280
     0
281
     0
  0
CLASS
  1
VISUALSTYLE
  2
AcDbVisualStyle
  3
ObjectDBX Classes
 90
     4095
 91
        4
280
     0
281
     0
  0
CLASS
  1
MATERIAL
  2
AcDbMaterial
  3
ObjectDBX Classes
 90
     1153
 91
        4
280
     0
281
     0
  0
CLASS
  1
SCALE
  2
AcDbScale
  3
ObjectDBX Classes
 90
     1153
 91
        4
280
     0
281
     0
  0
CLASS
  1
SUN
  2
AcDbSun
  3
SCENEOE
 90
     1153
 91
        4
280
     0
281
     0
  0
CLASS
  1
DICTIONARYVAR
  2
AcDbDictionaryVar
  3
ObjectDBX Classes
 90
        0
 91
        4
280
     0
281
     0
  0
ENDSEC
  0
SECTION
  2
TABLES
  0
TABLE
  2
VPORT
  5
8
330
0
100
AcDbSymbolTable
 70
     1
  0
VPORT
  5
29
330
8
100
AcDbSymbolTableRecord
100
AcDbViewportTableRecord
  2
*Active
 70
     0
 10
0.0
 20
0.0
 11
1.0
 21
1.0
 12
332.3685641086365
 22
543.9524430985113
 13
0.0
 23
0.0
 14
0.5
 24
0.5
 15
0.5
 25
0.5
 16
0.0
 26
0.0
 36
1.0
 17
0.0
 27
0.0
 37
0.0
 40
173.302983920963
 41
0.676289474475609
 42
50.0
 43
0.0
 44
0.0
 50
0.0
 51
0.0
 71
     0
 72
   100
 73
     1
 74
     3
 75
     0
 76
     0
 77
     0
 78
     0
281
     0
 65
     1
110
0.0
120
0.0
130
0.0
111
1.0
121
0.0
131
0.0
112
0.0
122
1.0
132
0.0
 79
     0
146
0.0
  0
ENDTAB
  0
TABLE
  2
LTYPE
  5
5
330
0
100
AcDbSymbolTable
 70
     1
  0
LTYPE
  5
14
330
5
100
AcDbSymbolTableRecord
100
AcDbLinetypeTableRecord
  2
ByBlock
 70
     0
  3

 72
    65
 73
     0
 40
0.0
  0
LTYPE
  5
15
330
5
100
AcDbSymbolTableRecord
100
AcDbLinetypeTableRecord
  2
ByLayer
 70
     0
  3

 72
    65
 73
     0
 40
0.0
  0
LTYPE
  5
16
330
5
100
AcDbSymbolTableRecord
100
AcDbLinetypeTableRecord
  2
Continuous
 70
     0
  3
Solid line
 72
    65
 73
     0
 40
0.0
  0
ENDTAB
  0
TABLE
  2
LAYER
  5
2
330
0
100
AcDbSymbolTable
 70
     3
  0
LAYER
  5
10
330
2
100
AcDbSymbolTableRecord
100
AcDbLayerTableRecord
  2
0
 70
     0
 62
     7
  6
Continuous
370
    -3
390
F
  0
LAYER
  5
62
330
2
100
AcDbSymbolTableRecord
100
AcDbLayerTableRecord
  2
Make2D$可见线$普通线
 70
     0
 62
    18
420
        0
  6
Continuous
370
    -3
390
F
  0
LAYER
  5
6E
330
2
100
AcDbSymbolTableRecord
100
AcDbLayerTableRecord
  2
E98720
 70
     0
 62
    18
420
        0
  6
Continuous
370
    -3
390
F
  0
ENDTAB
  0
TABLE
  2
STYLE
  5
3
330
0
100
AcDbSymbolTable
 70
     1
  0
STYLE
  5
11
330
3
100
AcDbSymbolTableRecord
100
AcDbTextStyleTableRecord
  2
Standard
 70
     0
 40
0.0
 41
1.0
 50
0.0
 71
     0
 42
0.2
  3
txt
  4

  0
ENDTAB
  0
TABLE
  2
VIEW
  5
6
330
0
100
AcDbSymbolTable
 70
     0
  0
ENDTAB
  0
TABLE
  2
UCS
  5
7
330
0
100
AcDbSymbolTable
 70
     0
  0
ENDTAB
  0
TABLE
  2
APPID
  5
9
330
0
100
AcDbSymbolTable
 70
     1
  0
APPID
  5
12
330
9
100
AcDbSymbolTableRecord
100
AcDbRegAppTableRecord
  2
ACAD
 70
     0
  0
ENDTAB
  0
TABLE
  2
DIMSTYLE
  5
A
330
0
100
AcDbSymbolTable
 70
     1
100
AcDbDimStyleTable
  0
DIMSTYLE
105
27
330
A
100
AcDbSymbolTableRecord
100
AcDbDimStyleTableRecord
  2
Standard
 70
     0
178
     0
340
11
  0
ENDTAB
  0
TABLE
  2
BLOCK_RECORD
  5
1
330
0
100
AcDbSymbolTable
 70
     1
  0
BLOCK_RECORD
  5
1F
330
1
100
AcDbSymbolTableRecord
100
AcDbBlockTableRecord
  2
*Model_Space
340
22
  0
BLOCK_RECORD
  5
1B
330
1
100
AcDbSymbolTableRecord
100
AcDbBlockTableRecord
  2
*Paper_Space
340
1E
  0
BLOCK_RECORD
  5
23
330
1
100
AcDbSymbolTableRecord
100
AcDbBlockTableRecord
  2
*Paper_Space0
340
26
  0
ENDTAB
  0
ENDSEC
  0
SECTION
  2
BLOCKS
  0
BLOCK
  5
20
330
1F
100
AcDbEntity
  8
0
100
AcDbBlockBegin
  2
*Model_Space
 70
     0
 10
0.0
 20
0.0
 30
0.0
  3
*Model_Space
  1
*Model_Space
  0
ENDBLK
  5
21
330
1F
100
AcDbEntity
  8
0
100
AcDbBlockEnd
  0
BLOCK
  5
1C
330
1B
100
AcDbEntity
 67
     1
  8
0
100
AcDbBlockBegin
  2
*Paper_Space
 70
     0
 10
0.0
 20
0.0
 30
0.0
  3
*Paper_Space
  1
*Paper_Space
  0
ENDBLK
  5
1D
330
1B
100
AcDbEntity
 67
     1
  8
0
100
AcDbBlockEnd
  0
BLOCK
  5
24
330
23
100
AcDbEntity
  8
0
100
AcDbBlockBegin
  2
*Paper_Space0
 70
     0
 10
0.0
 20
0.0
 30
0.0
  3
*Paper_Space0
  1
*Paper_Space0
  0
ENDBLK
  5
25
330
23
100
AcDbEntity
  8
0
100
AcDbBlockEnd
  0
ENDSEC
  0
SECTION
  2
ENTITIES
  0
POLYLINE
  5
63
330
1F
100
AcDbEntity
  8
Make2D$可见线$普通线
100
AcDb2dPolyline
 66
     1
 10
0.0
 20
0.0
 30
0.0
  0
VERTEX
  5
64
330
63
100
AcDbEntity
  8
Make2D$可见线$普通线
100
AcDbVertex
100
AcDb2dVertex
 10
389.8210072071477
 20
468.9524430985113
 30
0.0
 42
-0.4142135623730873
  0
VERTEX
  5
65
330
63
100
AcDbEntity
  8
Make2D$可见线$普通线
100
AcDbVertex
100
AcDb2dVertex
 10
379.8685641086361
 20
459.0000000000001
 30
0.0
  0
VERTEX
  5
66
330
63
100
AcDbEntity
  8
Make2D$可见线$普通线
100
AcDbVertex
100
AcDb2dVertex
 10
284.8685641086364
 20
459.0
 30
0.0
 42
-0.4142135623730825
  0
VERTEX
  5
67
330
63
100
AcDbEntity
  8
Make2D$可见线$普通线
100
AcDbVertex
100
AcDb2dVertex
 10
274.9161210101253
 20
468.9524430985116
 30
0.0
  0
VERTEX
  5
68
330
63
100
AcDbEntity
  8
Make2D$可见线$普通线
100
AcDbVertex
100
AcDb2dVertex
 10
274.9161210101253
 20
618.9524430985113
 30
0.0
 42
-0.4142135623730999
  0
VERTEX
  5
69
330
63
100
AcDbEntity
  8
Make2D$可见线$普通线
100
AcDbVertex
100
AcDb2dVertex
 10
284.8685641086363
 20
628.9048861970225
 30
0.0
  0
VERTEX
  5
6A
330
63
100
AcDbEntity
  8
Make2D$可见线$普通线
100
AcDbVertex
100
AcDb2dVertex
 10
379.8685641086364
 20
628.9048861970225
 30
0.0
 42
-0.4142135623730807
  0
VERTEX
  5
6B
330
63
100
AcDbEntity
  8
Make2D$可见线$普通线
100
AcDbVertex
100
AcDb2dVertex
 10
389.8210072071478
 20
618.9524430985107
 30
0.0
  0
VERTEX
  5
6C
330
63
100
AcDbEntity
  8
Make2D$可见线$普通线
100
AcDbVertex
100
AcDb2dVertex
 10
389.8210072071477
 20
468.9524430985113
 30
0.0
  0
SEQEND
  5
6D
330
63
100
AcDbEntity
  8
Make2D$可见线$普通线
  0
POLYLINE
  5
6F
330
1F
100
AcDbEntity
  8
E98720
100
AcDb2dPolyline
 66
     1
 10
0.0
 20
0.0
 30
0.0
  0
VERTEX
  5
70
330
6F
100
AcDbEntity
  8
E98720
100
AcDbVertex
100
AcDb2dVertex
 10
347.3687814783917
 20
489.170009781428
 30
0.0
  0
VERTEX
  5
71
330
6F
100
AcDbEntity
  8
E98720
100
AcDbVertex
100
AcDb2dVertex
 10
347.3687814168616
 20
538.3969882065096
 30
0.0
 42
-0.1559025186238006
  0
VERTEX
  5
72
330
6F
100
AcDbEntity
  8
E98720
100
AcDbVertex
100
AcDb2dVertex
 10
352.9409695809581
 20
555.8123328266703
 30
0.0
 42
0.1564031962048162
  0
VERTEX
  5
73
330
6F
100
AcDbEntity
  8
E98720
100
AcDbVertex
100
AcDb2dVertex
 10
357.6169733116994
 20
570.4541845657674
 30
0.0
 42
1.000131720702668
  0
VERTEX
  5
74
330
6F
100
AcDbEntity
  8
E98720
100
AcDbVertex
100
AcDb2dVertex
 10
307.1205894747662
 20
570.4543286182821
 30
0.0
 42
0.1564022771345122
  0
VERTEX
  5
75
330
6F
100
AcDbEntity
  8
E98720
100
AcDbVertex
100
AcDb2dVertex
 10
311.7966107524705
 20
555.8110907785008
 30
0.0
 42
-0.1559020514485788
  0
VERTEX
  5
76
330
6F
100
AcDbEntity
  8
E98720
100
AcDbVertex
100
AcDb2dVertex
 10
317.3687815399227
 20
538.3957705332391
 30
0.0
  0
VERTEX
  5
77
330
6F
100
AcDbEntity
  8
E98720
100
AcDbVertex
100
AcDb2dVertex
 10
317.3687814783916
 20
487.1691293694116
 30
0.0
 42
0.414242795093671
  0
VERTEX
  5
78
330
6F
100
AcDbEntity
  8
E98720
100
AcDbVertex
100
AcDb2dVertex
 10
319.3688474715646
 20
485.1691064450449
 30
0.0
  0
VERTEX
  5
79
330
6F
100
AcDbEntity
  8
E98720
100
AcDbVertex
100
AcDb2dVertex
 10
345.3688474395218
 20
485.1699663071882
 30
0.0
 42
0.4142192325697447
  0
VERTEX
  5
7A
330
6F
100
AcDbEntity
  8
E98720
100
AcDbVertex
100
AcDb2dVertex
 10
347.3687814783915
 20
487.1699663060955
 30
0.0
  0
VERTEX
  5
7B
330
6F
100
AcDbEntity
  8
E98720
100
AcDbVertex
100
AcDb2dVertex
 10
347.3687814783917
 20
489.170009781428
 30
0.0
  0
SEQEND
  5
7C
330
6F
100
AcDbEntity
  8
E98720
  0
POLYLINE
  5
7D
330
1F
100
AcDbEntity
  8
Make2D$可见线$普通线
100
AcDb2dPolyline
 66
     1
 10
0.0
 20
0.0
 30
0.0
  0
VERTEX
  5
7E
330
7D
100
AcDbEntity
  8
Make2D$可见线$普通线
100
AcDbVertex
100
AcDb2dVertex
 10
355.4030511584184
 20
627.4006692276716
 30
0.0
 42
-0.0436940163790381
  0
VERTEX
  5
7F
330
7D
100
AcDbEntity
  8
Make2D$可见线$普通线
100
AcDbVertex
100
AcDb2dVertex
 10
354.4030414234491
 20
627.3569248856654
 30
0.0
  0
VERTEX
  5
80
330
7D
100
AcDbEntity
  8
Make2D$可见线$普通线
100
AcDbVertex
100
AcDb2dVertex
 10
310.3350177740141
 20
627.3569248856655
 30
0.0
 42
-0.0436940163582494
  0
VERTEX
  5
81
330
7D
100
AcDbEntity
  8
Make2D$可见线$普通线
100
AcDbVertex
100
AcDb2dVertex
 10
309.3350080390422
 20
627.4006692276716
 30
0.0
  0
VERTEX
  5
82
330
7D
100
AcDbEntity
  8
Make2D$可见线$普通线
100
AcDbVertex
100
AcDb2dVertex
 10
309.3357055747654
 20
627.441002656042
 30
0.0
  0
VERTEX
  5
83
330
7D
100
AcDbEntity
  8
Make2D$可见线$普通线
100
AcDbVertex
100
AcDb2dVertex
 10
309.3357228348713
 20
627.4415884317029
 30
0.0
  0
VERTEX
  5
84
330
7D
100
AcDbEntity
  8
Make2D$可见线$普通线
100
AcDbVertex
100
AcDb2dVertex
 10
309.3357243770049
 20
627.4421738619437
 30
0.0
  0
VERTEX
  5
85
330
7D
100
AcDbEntity
  8
Make2D$可见线$普通线
100
AcDbVertex
100
AcDb2dVertex
 10
309.3357102210762
 20
627.4427589431771
 30
0.0
  0
VERTEX
  5
86
330
7D
100
AcDbEntity
  8
Make2D$可见线$普通线
100
AcDbVertex
100
AcDb2dVertex
 10
309.3356803869953
 20
627.4433436718161
 30
0.0
  0
VERTEX
  5
87
330
7D
100
AcDbEntity
  8
Make2D$可见线$普通线
100
AcDbVertex
100
AcDb2dVertex
 10
309.3356348946723
 20
627.4439280442737
 30
0.0
  0
VERTEX
  5
88
330
7D
100
AcDbEntity
  8
Make2D$可见线$普通线
100
AcDbVertex
100
AcDb2dVertex
 10
309.3355737640172
 20
627.4445120569627
 30
0.0
  0
VERTEX
  5
89
330
7D
100
AcDbEntity
  8
Make2D$可见线$普通线
100
AcDbVertex
100
AcDb2dVertex
 10
309.3354970149401
 20
627.4450957062959
 30
0.0
  0
VERTEX
  5
8A
330
7D
100
AcDbEntity
  8
Make2D$可见线$普通线
100
AcDbVertex
100
AcDb2dVertex
 10
309.3354046673511
 20
627.4456789886863
 30
0.0
  0
VERTEX
  5
8B
330
7D
100
AcDbEntity
  8
Make2D$可见线$普通线
100
AcDbVertex
100
AcDb2dVertex
 10
309.3352967411602
 20
627.4462619005468
 30
0.0
  0
VERTEX
  5
8C
330
7D
100
AcDbEntity
  8
Make2D$可见线$普通线
100
AcDbVertex
100
AcDb2dVertex
 10
309.3351732562775
 20
627.4468444382902
 30
0.0
  0
VERTEX
  5
8D
330
7D
100
AcDbEntity
  8
Make2D$可见线$普通线
100
AcDbVertex
100
AcDb2dVertex
 10
309.335034232613
 20
627.4474265983295
 30
0.0
  0
VERTEX
  5
8E
330
7D
100
AcDbEntity
  8
Make2D$可见线$普通线
100
AcDbVertex
100
AcDb2dVertex
 10
309.3348796900768
 20
627.4480083770774
 30
0.0
  0
VERTEX
  5
8F
330
7D
100
AcDbEntity
  8
Make2D$可见线$普通线
100
AcDbVertex
100
AcDb2dVertex
 10
309.3347096485789
 20
627.4485897709469
 30
0.0
  0
VERTEX
  5
90
330
7D
100
AcDbEntity
  8
Make2D$可见线$普通线
100
AcDbVertex
100
AcDb2dVertex
 10
309.3345241280295
 20
627.4491707763511
 30
0.0
  0
VERTEX
  5
91
330
7D
100
AcDbEntity
  8
Make2D$可见线$普通线
100
AcDbVertex
100
AcDb2dVertex
 10
309.3343231483386
 20
627.4497513897027
 30
0.0
  0
VERTEX
  5
92
330
7D
100
AcDbEntity
  8
Make2D$可见线$普通线
100
AcDbVertex
100
AcDb2dVertex
 10
309.3341067294162
 20
627.4503316074145
 30
0.0
  0
VERTEX
  5
93
330
7D
100
AcDbEntity
  8
Make2D$可见线$普通线
100
AcDbVertex
100
AcDb2dVertex
 10
309.3338748911725
 20
627.4509114258994
 30
0.0
  0
VERTEX
  5
94
330
7D
100
AcDbEntity
  8
Make2D$可见线$普通线
100
AcDbVertex
100
AcDb2dVertex
 10
309.3336276535175
 20
627.4514908415706
 30
0.0
  0
VERTEX
  5
95
330
7D
100
AcDbEntity
  8
Make2D$可见线$普通线
100
AcDbVertex
100
AcDb2dVertex
 10
309.3333650363611
 20
627.4520698508408
 30
0.0
  0
VERTEX
  5
96
330
7D
100
AcDbEntity
  8
Make2D$可见线$普通线
100
AcDbVertex
100
AcDb2dVertex
 10
309.3330870596135
 20
627.4526484501226
 30
0.0
  0
VERTEX
  5
97
330
7D
100
AcDbEntity
  8
Make2D$可见线$普通线
100
AcDbVertex
100
AcDb2dVertex
 10
309.3327937431849
 20
627.4532266358294
 30
0.0
  0
VERTEX
  5
98
330
7D
100
AcDbEntity
  8
Make2D$可见线$普通线
100
AcDbVertex
100
AcDb2dVertex
 10
309.3324851069851
 20
627.4538044043737
 30
0.0
  0
VERTEX
  5
99
330
7D
100
AcDbEntity
  8
Make2D$可见线$普通线
100
AcDbVertex
100
AcDb2dVertex
 10
309.3321611709243
 20
627.4543817521687
 30
0.0
  0
VERTEX
  5
9A
330
7D
100
AcDbEntity
  8
Make2D$可见线$普通线
100
AcDbVertex
100
AcDb2dVertex
 10
309.3318219549126
 20
627.454958675627
 30
0.0
  0
VERTEX
  5
9B
330
7D
100
AcDbEntity
  8
Make2D$可见线$普通线
100
AcDbVertex
100
AcDb2dVertex
 10
309.33146747886
 20
627.4555351711617
 30
0.0
  0
VERTEX
  5
9C
330
7D
100
AcDbEntity
  8
Make2D$可见线$普通线
100
AcDbVertex
100
AcDb2dVertex
 10
309.3310977626765
 20
627.4561112351856
 30
0.0
  0
VERTEX
  5
9D
330
7D
100
AcDbEntity
  8
Make2D$可见线$普通线
100
AcDbVertex
100
AcDb2dVertex
 10
309.3307128262722
 20
627.4566868641116
 30
0.0
  0
VERTEX
  5
9E
330
7D
100
AcDbEntity
  8
Make2D$可见线$普通线
100
AcDbVertex
100
AcDb2dVertex
 10
309.3303126895573
 20
627.4572620543527
 30
0.0
  0
VERTEX
  5
9F
330
7D
100
AcDbEntity
  8
Make2D$可见线$普通线
100
AcDbVertex
100
AcDb2dVertex
 10
309.3298973724417
 20
627.4578368023215
 30
0.0
  0
VERTEX
  5
A0
330
7D
100
AcDbEntity
  8
Make2D$可见线$普通线
100
AcDbVertex
100
AcDb2dVertex
 10
309.3294668948356
 20
627.4584111044312
 30
0.0
  0
VERTEX
  5
A1
330
7D
100
AcDbEntity
  8
Make2D$可见线$普通线
100
AcDbVertex
100
AcDb2dVertex
 10
309.3285605377919
 20
627.4595583567244
 30
0.0
  0
VERTEX
  5
A2
330
7D
100
AcDbEntity
  8
Make2D$可见线$普通线
100
AcDbVertex
100
AcDb2dVertex
 10
309.3275937777065
 20
627.4607037825355
 30
0.0
  0
VERTEX
  5
A3
330
7D
100
AcDbEntity
  8
Make2D$可见线$普通线
100
AcDbVertex
100
AcDb2dVertex
 10
309.32656677386
 20
627.4618473531676
 30
0.0
  0
VERTEX
  5
A4
330
7D
100
AcDbEntity
  8
Make2D$可见线$普通线
100
AcDbVertex
100
AcDb2dVertex
 10
309.325479685533
 20
627.4629890399239
 30
0.0
  0
VERTEX
  5
A5
330
7D
100
AcDbEntity
  8
Make2D$可见线$普通线
100
AcDbVertex
100
AcDb2dVertex
 10
309.3243326720058
 20
627.4641288141073
 30
0.0
  0
VERTEX
  5
A6
330
7D
100
AcDbEntity
  8
Make2D$可见线$普通线
100
AcDbVertex
100
AcDb2dVertex
 10
309.3231258925591
 20
627.465266647021
 30
0.0
  0
VERTEX
  5
A7
330
7D
100
AcDbEntity
  8
Make2D$可见线$普通线
100
AcDbVertex
100
AcDb2dVertex
 10
309.3218595064732
 20
627.4664025099685
 30
0.0
  0
VERTEX
  5
A8
330
7D
100
AcDbEntity
  8
Make2D$可见线$普通线
100
AcDbVertex
100
AcDb2dVertex
 10
309.3205336730288
 20
627.4675363742525
 30
0.0
  0
VERTEX
  5
A9
330
7D
100
AcDbEntity
  8
Make2D$可见线$普通线
100
AcDbVertex
100
AcDb2dVertex
 10
309.3191485515063
 20
627.4686682111764
 30
0.0
  0
VERTEX
  5
AA
330
7D
100
AcDbEntity
  8
Make2D$可见线$普通线
100
AcDbVertex
100
AcDb2dVertex
 10
309.3177043011862
 20
627.4697979920429
 30
0.0
  0
VERTEX
  5
AB
330
7D
100
AcDbEntity
  8
Make2D$可见线$普通线
100
AcDbVertex
100
AcDb2dVertex
 10
309.3162010813489
 20
627.4709256881558
 30
0.0
  0
VERTEX
  5
AC
330
7D
100
AcDbEntity
  8
Make2D$可见线$普通线
100
AcDbVertex
100
AcDb2dVertex
 10
309.314639051275
 20
627.4720512708177
 30
0.0
  0
VERTEX
  5
AD
330
7D
100
AcDbEntity
  8
Make2D$可见线$普通线
100
AcDbVertex
100
AcDb2dVertex
 10
309.313018370245
 20
627.4731747113319
 30
0.0
  0
VERTEX
  5
AE
330
7D
100
AcDbEntity
  8
Make2D$可见线$普通线
100
AcDbVertex
100
AcDb2dVertex
 10
309.3096016924387
 20
627.4754150511299
 30
0.0
  0
VERTEX
  5
AF
330
7D
100
AcDbEntity
  8
Make2D$可见线$普通线
100
AcDbVertex
100
AcDb2dVertex
 10
309.3059523221738
 20
627.4776464779748
 30
0.0
  0
VERTEX
  5
B0
330
7D
100
AcDbEntity
  8
Make2D$可见线$普通线
100
AcDbVertex
100
AcDb2dVertex
 10
309.3020715336944
 20
627.4798687622916
 30
0.0
  0
VERTEX
  5
B1
330
7D
100
AcDbEntity
  8
Make2D$可见线$普通线
100
AcDbVertex
100
AcDb2dVertex
 10
309.2979606012444
 20
627.4820816745055
 30
0.0
  0
VERTEX
  5
B2
330
7D
100
AcDbEntity
  8
Make2D$可见线$普通线
100
AcDbVertex
100
AcDb2dVertex
 10
309.2936207990679
 20
627.4842849850413
 30
0.0
  0
VERTEX
  5
B3
330
7D
100
AcDbEntity
  8
Make2D$可见线$普通线
100
AcDbVertex
100
AcDb2dVertex
 10
309.2890534014086
 20
627.4864784643244
 30
0.0
  0
VERTEX
  5
B4
330
7D
100
AcDbEntity
  8
Make2D$可见线$普通线
100
AcDbVertex
100
AcDb2dVertex
 10
309.2842596825108
 20
627.4886618827798
 30
0.0
  0
VERTEX
  5
B5
330
7D
100
AcDbEntity
  8
Make2D$可见线$普通线
100
AcDbVertex
100
AcDb2dVertex
 10
309.2792409166182
 20
627.4908350108324
 30
0.0
  0
VERTEX
  5
B6
330
7D
100
AcDbEntity
  8
Make2D$可见线$普通线
100
AcDbVertex
100
AcDb2dVertex
 10
309.2685333408249
 20
627.49514947743
 30
0.0
  0
VERTEX
  5
B7
330
7D
100
AcDbEntity
  8
Make2D$可见线$普通线
100
AcDbVertex
100
AcDb2dVertex
 10
309.2569408679805
 20
627.4994200275175
 30
0.0
  0
VERTEX
  5
B8
330
7D
100
AcDbEntity
  8
Make2D$可见线$普通线
100
AcDbVertex
100
AcDb2dVertex
 10
309.2444736920368
 20
627.503644824496
 30
0.0
  0
VERTEX
  5
B9
330
7D
100
AcDbEntity
  8
Make2D$可见线$普通线
100
AcDbVertex
100
AcDb2dVertex
 10
309.2311420069456
 20
627.5078220317657
 30
0.0
  0
VERTEX
  5
BA
330
7D
100
AcDbEntity
  8
Make2D$可见线$普通线
100
AcDbVertex
100
AcDb2dVertex
 10
309.2169560066586
 20
627.5119498127272
 30
0.0
  0
VERTEX
  5
BB
330
7D
100
AcDbEntity
  8
Make2D$可见线$普通线
100
AcDbVertex
100
AcDb2dVertex
 10
309.1860618363045
 20
627.5200497493279
 30
0.0
  0
VERTEX
  5
BC
330
7D
100
AcDbEntity
  8
Make2D$可见线$普通线
100
AcDbVertex
100
AcDb2dVertex
 10
309.1518727325886
 20
627.5279299415029
 30
0.0
  0
VERTEX
  5
BD
330
7D
100
AcDbEntity
  8
Make2D$可见线$普通线
100
AcDbVertex
100
AcDb2dVertex
 10
309.1144702471251
 20
627.5355756964568
 30
0.0
  0
VERTEX
  5
BE
330
7D
100
AcDbEntity
  8
Make2D$可见线$普通线
100
AcDbVertex
100
AcDb2dVertex
 10
309.0739359315282
 20
627.5429723213942
 30
0.0
  0
VERTEX
  5
BF
330
7D
100
AcDbEntity
  8
Make2D$可见线$普通线
100
AcDbVertex
100
AcDb2dVertex
 10
308.9837980163912
 20
627.5569594100381
 30
0.0
  0
VERTEX
  5
C0
330
7D
100
AcDbEntity
  8
Make2D$可见线$普通线
100
AcDbVertex
100
AcDb2dVertex
 10
308.8821114000913
 20
627.5697736650714
 30
0.0
  0
VERTEX
  5
C1
330
7D
100
AcDbEntity
  8
Make2D$可见线$普通线
100
AcDbVertex
100
AcDb2dVertex
 10
308.7737465952255
 20
627.5809238446838
 30
0.0
  0
VERTEX
  5
C2
330
7D
100
AcDbEntity
  8
Make2D$可见线$普通线
100
AcDbVertex
100
AcDb2dVertex
 10
308.6564713352639
 20
627.5908015882407
 30
0.0
  0
VERTEX
  5
C3
330
7D
100
AcDbEntity
  8
Make2D$可见线$普通线
100
AcDbVertex
100
AcDb2dVertex
 10
308.4001407040201
 20
627.606457194604
 30
0.0
  0
VERTEX
  5
C4
330
7D
100
AcDbEntity
  8
Make2D$可见线$普通线
100
AcDbVertex
100
AcDb2dVertex
 10
308.1230220142951
 20
627.6161753389939
 30
0.0
  0
VERTEX
  5
C5
330
7D
100
AcDbEntity
  8
Make2D$可见线$普通线
100
AcDbVertex
100
AcDb2dVertex
 10
307.8350177740236
 20
627.6193908762433
 30
0.0
  0
VERTEX
  5
C6
330
7D
100
AcDbEntity
  8
Make2D$可见线$普通线
100
AcDbVertex
100
AcDb2dVertex
 10
284.8685641086488
 20
627.6193908762433
 30
0.0
 42
0.4146179743451471
  0
VERTEX
  5
C7
330
7D
100
AcDbEntity
  8
Make2D$可见线$普通线
100
AcDbVertex
100
AcDb2dVertex
 10
276.2016163309165
 20
618.9524430985113
 30
0.0
  0
VERTEX
  5
C8
330
7D
100
AcDbEntity
  8
Make2D$可见线$普通线
100
AcDbVertex
100
AcDb2dVertex
 10
276.2016163309096
 20
468.9524430985113
 30
0.0
 42
0.4146179743452162
  0
VERTEX
  5
C9
330
7D
100
AcDbEntity
  8
Make2D$可见线$普通线
100
AcDbVertex
100
AcDb2dVertex
 10
284.8685641086414
 20
460.2854953207791
 30
0.0
  0
VERTEX
  5
CA
330
7D
100
AcDbEntity
  8
Make2D$可见线$普通线
100
AcDbVertex
100
AcDb2dVertex
 10
307.8350177740168
 20
460.2854953207792
 30
0.0
  0
VERTEX
  5
CB
330
7D
100
AcDbEntity
  8
Make2D$可见线$普通线
100
AcDbVertex
100
AcDb2dVertex
 10
308.1230220142893
 20
460.2887108580271
 30
0.0
  0
VERTEX
  5
CC
330
7D
100
AcDbEntity
  8
Make2D$可见线$普通线
100
AcDbVertex
100
AcDb2dVertex
 10
308.4001407040155
 20
460.2984290024168
 30
0.0
  0
VERTEX
  5
CD
330
7D
100
AcDbEntity
  8
Make2D$可见线$普通线
100
AcDbVertex
100
AcDb2dVertex
 10
308.6564713352602
 20
460.3140846087798
 30
0.0
  0
VERTEX
  5
CE
330
7D
100
AcDbEntity
  8
Make2D$可见线$普通线
100
AcDbVertex
100
AcDb2dVertex
 10
308.7737465952223
 20
460.3239623523363
 30
0.0
  0
VERTEX
  5
CF
330
7D
100
AcDbEntity
  8
Make2D$可见线$普通线
100
AcDbVertex
100
AcDb2dVertex
 10
308.8821114000886
 20
460.335112531948
 30
0.0
  0
VERTEX
  5
D0
330
7D
100
AcDbEntity
  8
Make2D$可见线$普通线
100
AcDbVertex
100
AcDb2dVertex
 10
308.983798016392
 20
460.3479267869806
 30
0.0
  0
VERTEX
  5
D1
330
7D
100
AcDbEntity
  8
Make2D$可见线$普通线
100
AcDbVertex
100
AcDb2dVertex
 10
309.0739359315315
 20
460.3619138756239
 30
0.0
  0
VERTEX
  5
D2
330
7D
100
AcDbEntity
  8
Make2D$可见线$普通线
100
AcDbVertex
100
AcDb2dVertex
 10
309.1144702471294
 20
460.3693105005611
 30
0.0
  0
VERTEX
  5
D3
330
7D
100
AcDbEntity
  8
Make2D$可见线$普通线
100
AcDbVertex
100
AcDb2dVertex
 10
309.1518727325936
 20
460.376956255515
 30
0.0
  0
VERTEX
  5
D4
330
7D
100
AcDbEntity
  8
Make2D$可见线$普通线
100
AcDbVertex
100
AcDb2dVertex
 10
309.1860618363101
 20
460.3848364476903
 30
0.0
  0
VERTEX
  5
D5
330
7D
100
AcDbEntity
  8
Make2D$可见线$普通线
100
AcDbVertex
100
AcDb2dVertex
 10
309.2169560066646
 20
460.3929363842915
 30
0.0
  0
VERTEX
  5
D6
330
7D
100
AcDbEntity
  8
Make2D$可见线$普通线
100
AcDbVertex
100
AcDb2dVertex
 10
309.2311420069517
 20
460.3970641652534
 30
0.0
  0
VERTEX
  5
D7
330
7D
100
AcDbEntity
  8
Make2D$可见线$普通线
100
AcDbVertex
100
AcDb2dVertex
 10
309.2444736920429
 20
460.4012413725235
 30
0.0
  0
VERTEX
  5
D8
330
7D
100
AcDbEntity
  8
Make2D$可见线$普通线
100
AcDbVertex
100
AcDb2dVertex
 10
309.2569408679865
 20
460.4054661695023
 30
0.0
  0
VERTEX
  5
D9
330
7D
100
AcDbEntity
  8
Make2D$可见线$普通线
100
AcDbVertex
100
AcDb2dVertex
 10
309.2685333408308
 20
460.4097367195907
 30
0.0
  0
VERTEX
  5
DA
330
7D
100
AcDbEntity
  8
Make2D$可见线$普通线
100
AcDbVertex
100
AcDb2dVertex
 10
309.2792409166239
 20
460.414051186189
 30
0.0
  0
VERTEX
  5
DB
330
7D
100
AcDbEntity
  8
Make2D$可见线$普通线
100
AcDbVertex
100
AcDb2dVertex
 10
309.2842596825163
 20
460.4162243142421
 30
0.0
  0
VERTEX
  5
DC
330
7D
100
AcDbEntity
  8
Make2D$可见线$普通线
100
AcDbVertex
100
AcDb2dVertex
 10
309.2890534014141
 20
460.4184077326979
 30
0.0
  0
VERTEX
  5
DD
330
7D
100
AcDbEntity
  8
Make2D$可见线$普通线
100
AcDbVertex
100
AcDb2dVertex
 10
309.2936207990732
 20
460.4206012119814
 30
0.0
  0
VERTEX
  5
DE
330
7D
100
AcDbEntity
  8
Make2D$可见线$普通线
100
AcDbVertex
100
AcDb2dVertex
 10
309.2979606012497
 20
460.4228045225179
 30
0.0
  0
VERTEX
  5
DF
330
7D
100
AcDbEntity
  8
Make2D$可见线$普通线
100
AcDbVertex
100
AcDb2dVertex
 10
309.3020715336994
 20
460.4250174347323
 30
0.0
  0
VERTEX
  5
E0
330
7D
100
AcDbEntity
  8
Make2D$可见线$普通线
100
AcDbVertex
100
AcDb2dVertex
 10
309.3059523221787
 20
460.4272397190497
 30
0.0
  0
VERTEX
  5
E1
330
7D
100
AcDbEntity
  8
Make2D$可见线$普通线
100
AcDbVertex
100
AcDb2dVertex
 10
309.3096016924433
 20
460.4294711458953
 30
0.0
  0
VERTEX
  5
E2
330
7D
100
AcDbEntity
  8
Make2D$可见线$普通线
100
AcDbVertex
100
AcDb2dVertex
 10
309.3130183702494
 20
460.4317114856939
 30
0.0
  0
VERTEX
  5
E3
330
7D
100
AcDbEntity
  8
Make2D$可见线$普通线
100
AcDbVertex
100
AcDb2dVertex
 10
309.3146390512793
 20
460.4328349262084
 30
0.0
  0
VERTEX
  5
E4
330
7D
100
AcDbEntity
  8
Make2D$可见线$普通线
100
AcDbVertex
100
AcDb2dVertex
 10
309.316201081353
 20
460.4339605088707
 30
0.0
  0
VERTEX
  5
E5
330
7D
100
AcDbEntity
  8
Make2D$可见线$普通线
100
AcDbVertex
100
AcDb2dVertex
 10
309.3177043011901
 20
460.4350882049839
 30
0.0
  0
VERTEX
  5
E6
330
7D
100
AcDbEntity
  8
Make2D$可见线$普通线
100
AcDbVertex
100
AcDb2dVertex
 10
309.3191485515102
 20
460.4362179858509
 30
0.0
  0
VERTEX
  5
E7
330
7D
100
AcDbEntity
  8
Make2D$可见线$普通线
100
AcDbVertex
100
AcDb2dVertex
 10
309.3205336730326
 20
460.4373498227751
 30
0.0
  0
VERTEX
  5
E8
330
7D
100
AcDbEntity
  8
Make2D$可见线$普通线
100
AcDbVertex
100
AcDb2dVertex
 10
309.3218595064769
 20
460.4384836870595
 30
0.0
  0
VERTEX
  5
E9
330
7D
100
AcDbEntity
  8
Make2D$可见线$普通线
100
AcDbVertex
100
AcDb2dVertex
 10
309.3231258925625
 20
460.4396195500073
 30
0.0
  0
VERTEX
  5
EA
330
7D
100
AcDbEntity
  8
Make2D$可见线$普通线
100
AcDbVertex
100
AcDb2dVertex
 10
309.3243326720091
 20
460.4407573829215
 30
0.0
  0
VERTEX
  5
EB
330
7D
100
AcDbEntity
  8
Make2D$可见线$普通线
100
AcDbVertex
100
AcDb2dVertex
 10
309.3254796855361
 20
460.4418971571054
 30
0.0
  0
VERTEX
  5
EC
330
7D
100
AcDbEntity
  8
Make2D$可见线$普通线
100
AcDbVertex
100
AcDb2dVertex
 10
309.326566773863
 20
460.443038843862
 30
0.0
  0
VERTEX
  5
ED
330
7D
100
AcDbEntity
  8
Make2D$可见线$普通线
100
AcDbVertex
100
AcDb2dVertex
 10
309.3275937777092
 20
460.4441824144945
 30
0.0
  0
VERTEX
  5
EE
330
7D
100
AcDbEntity
  8
Make2D$可见线$普通线
100
AcDbVertex
100
AcDb2dVertex
 10
309.3285605377945
 20
460.4453278403062
 30
0.0
  0
VERTEX
  5
EF
330
7D
100
AcDbEntity
  8
Make2D$可见线$普通线
100
AcDbVertex
100
AcDb2dVertex
 10
309.3294668948381
 20
460.4464750925999
 30
0.0
  0
VERTEX
  5
F0
330
7D
100
AcDbEntity
  8
Make2D$可见线$普通线
100
AcDbVertex
100
AcDb2dVertex
 10
309.3298973724442
 20
460.4470493947098
 30
0.0
  0
VERTEX
  5
F1
330
7D
100
AcDbEntity
  8
Make2D$可见线$普通线
100
AcDbVertex
100
AcDb2dVertex
 10
309.3303126895596
 20
460.447624142679
 30
0.0
  0
VERTEX
  5
F2
330
7D
100
AcDbEntity
  8
Make2D$可见线$普通线
100
AcDbVertex
100
AcDb2dVertex
 10
309.3307128262745
 20
460.4481993329202
 30
0.0
  0
VERTEX
  5
F3
330
7D
100
AcDbEntity
  8
Make2D$可见线$普通线
100
AcDbVertex
100
AcDb2dVertex
 10
309.3310977626786
 20
460.4487749618464
 30
0.0
  0
VERTEX
  5
F4
330
7D
100
AcDbEntity
  8
Make2D$可见线$普通线
100
AcDbVertex
100
AcDb2dVertex
 10
309.331467478862
 20
460.4493510258706
 30
0.0
  0
VERTEX
  5
F5
330
7D
100
AcDbEntity
  8
Make2D$可见线$普通线
100
AcDbVertex
100
AcDb2dVertex
 10
309.3318219549145
 20
460.4499275214055
 30
0.0
  0
VERTEX
  5
F6
330
7D
100
AcDbEntity
  8
Make2D$可见线$普通线
100
AcDbVertex
100
AcDb2dVertex
 10
309.3321611709262
 20
460.450504444864
 30
0.0
  0
VERTEX
  5
F7
330
7D
100
AcDbEntity
  8
Make2D$可见线$普通线
100
AcDbVertex
100
AcDb2dVertex
 10
309.3324851069868
 20
460.4510817926592
 30
0.0
  0
VERTEX
  5
F8
330
7D
100
AcDbEntity
  8
Make2D$可见线$普通线
100
AcDbVertex
100
AcDb2dVertex
 10
309.3327937431865
 20
460.4516595612038
 30
0.0
  0
VERTEX
  5
F9
330
7D
100
AcDbEntity
  8
Make2D$可见线$普通线
100
AcDbVertex
100
AcDb2dVertex
 10
309.3330870596151
 20
460.4522377469108
 30
0.0
  0
VERTEX
  5
FA
330
7D
100
AcDbEntity
  8
Make2D$可见线$普通线
100
AcDbVertex
100
AcDb2dVertex
 10
309.3333650363625
 20
460.452816346193
 30
0.0
  0
VERTEX
  5
FB
330
7D
100
AcDbEntity
  8
Make2D$可见线$普通线
100
AcDbVertex
100
AcDb2dVertex
 10
309.3336276535188
 20
460.4533953554634
 30
0.0
  0
VERTEX
  5
FC
330
7D
100
AcDbEntity
  8
Make2D$可见线$普通线
100
AcDbVertex
100
AcDb2dVertex
 10
309.3338748911737
 20
460.4539747711347
 30
0.0
  0
VERTEX
  5
FD
330
7D
100
AcDbEntity
  8
Make2D$可见线$普通线
100
AcDbVertex
100
AcDb2dVertex
 10
309.3341067294174
 20
460.45455458962
 30
0.0
  0
VERTEX
  5
FE
330
7D
100
AcDbEntity
  8
Make2D$可见线$普通线
100
AcDbVertex
100
AcDb2dVertex
 10
309.3343231483397
 20
460.4551348073321
 30
0.0
  0
VERTEX
  5
FF
330
7D
100
AcDbEntity
  8
Make2D$可见线$普通线
100
AcDbVertex
100
AcDb2dVertex
 10
309.3345241280305
 20
460.4557154206839
 30
0.0
  0
VERTEX
  5
100
330
7D
100
AcDbEntity
  8
Make2D$可见线$普通线
100
AcDbVertex
100
AcDb2dVertex
 10
309.3347096485797
 20
460.4562964260883
 30
0.0
  0
VERTEX
  5
101
330
7D
100
AcDbEntity
  8
Make2D$可见线$普通线
100
AcDbVertex
100
AcDb2dVertex
 10
309.3348796900775
 20
460.4568778199582
 30
0.0
  0
VERTEX
  5
102
330
7D
100
AcDbEntity
  8
Make2D$可见线$普通线
100
AcDbVertex
100
AcDb2dVertex
 10
309.3350342326136
 20
460.4574595987065
 30
0.0
  0
VERTEX
  5
103
330
7D
100
AcDbEntity
  8
Make2D$可见线$普通线
100
AcDbVertex
100
AcDb2dVertex
 10
309.3351732562779
 20
460.4580417587459
 30
0.0
  0
VERTEX
  5
104
330
7D
100
AcDbEntity
  8
Make2D$可见线$普通线
100
AcDbVertex
100
AcDb2dVertex
 10
309.3352967411606
 20
460.4586242964896
 30
0.0
  0
VERTEX
  5
105
330
7D
100
AcDbEntity
  8
Make2D$可见线$普通线
100
AcDbVertex
100
AcDb2dVertex
 10
309.3354046673514
 20
460.4592072083503
 30
0.0
  0
VERTEX
  5
106
330
7D
100
AcDbEntity
  8
Make2D$可见线$普通线
100
AcDbVertex
100
AcDb2dVertex
 10
309.3354970149404
 20
460.4597904907411
 30
0.0
  0
VERTEX
  5
107
330
7D
100
AcDbEntity
  8
Make2D$可见线$普通线
100
AcDbVertex
100
AcDb2dVertex
 10
309.3355737640173
 20
460.4603741400746
 30
0.0
  0
VERTEX
  5
108
330
7D
100
AcDbEntity
  8
Make2D$可见线$普通线
100
AcDbVertex
100
AcDb2dVertex
 10
309.3356348946722
 20
460.4609581527638
 30
0.0
  0
VERTEX
  5
109
330
7D
100
AcDbEntity
  8
Make2D$可见线$普通线
100
AcDbVertex
100
AcDb2dVertex
 10
309.3356803869951
 20
460.4615425252217
 30
0.0
  0
VERTEX
  5
10A
330
7D
100
AcDbEntity
  8
Make2D$可见线$普通线
100
AcDbVertex
100
AcDb2dVertex
 10
309.3357102210758
 20
460.4621272538611
 30
0.0
  0
VERTEX
  5
10B
330
7D
100
AcDbEntity
  8
Make2D$可见线$普通线
100
AcDbVertex
100
AcDb2dVertex
 10
309.3357243770044
 20
460.4627123350949
 30
0.0
  0
VERTEX
  5
10C
330
7D
100
AcDbEntity
  8
Make2D$可见线$普通线
100
AcDbVertex
100
AcDb2dVertex
 10
309.3357228348707
 20
460.4632977653359
 30
0.0
  0
VERTEX
  5
10D
330
7D
100
AcDbEntity
  8
Make2D$可见线$普通线
100
AcDbVertex
100
AcDb2dVertex
 10
309.3357055747647
 20
460.4638835409972
 30
0.0
  0
VERTEX
  5
10E
330
7D
100
AcDbEntity
  8
Make2D$可见线$普通线
100
AcDbVertex
100
AcDb2dVertex
 10
309.3350080390426
 20
460.5042169693509
 30
0.0
 42
-0.043694016363693
  0
VERTEX
  5
10F
330
7D
100
AcDbEntity
  8
Make2D$可见线$普通线
100
AcDbVertex
100
AcDb2dVertex
 10
310.3350177740119
 20
460.547961311357
 30
0.0
  0
VERTEX
  5
110
330
7D
100
AcDbEntity
  8
Make2D$可见线$普通线
100
AcDbVertex
100
AcDb2dVertex
 10
354.4030414234476
 20
460.547961311357
 30
0.0
 42
-0.0436940163587651
  0
VERTEX
  5
111
330
7D
100
AcDbEntity
  8
Make2D$可见线$普通线
100
AcDbVertex
100
AcDb2dVertex
 10
355.403051158418
 20
460.5042169693509
 30
0.0
  0
VERTEX
  5
112
330
7D
100
AcDbEntity
  8
Make2D$可见线$普通线
100
AcDbVertex
100
AcDb2dVertex
 10
355.4023536226953
 20
460.4638835409878
 30
0.0
  0
VERTEX
  5
113
330
7D
100
AcDbEntity
  8
Make2D$可见线$普通线
100
AcDbVertex
100
AcDb2dVertex
 10
355.4023363625894
 20
460.4632977653268
 30
0.0
  0
VERTEX
  5
114
330
7D
100
AcDbEntity
  8
Make2D$可见线$普通线
100
AcDbVertex
100
AcDb2dVertex
 10
355.4023348204558
 20
460.4627123350859
 30
0.0
  0
VERTEX
  5
115
330
7D
100
AcDbEntity
  8
Make2D$可见线$普通线
100
AcDbVertex
100
AcDb2dVertex
 10
355.4023489763845
 20
460.4621272538524
 30
0.0
  0
VERTEX
  5
116
330
7D
100
AcDbEntity
  8
Make2D$可见线$普通线
100
AcDbVertex
100
AcDb2dVertex
 10
355.4023788104653
 20
460.4615425252133
 30
0.0
  0
VERTEX
  5
117
330
7D
100
AcDbEntity
  8
Make2D$可见线$普通线
100
AcDbVertex
100
AcDb2dVertex
 10
355.4024243027883
 20
460.4609581527557
 30
0.0
  0
VERTEX
  5
118
330
7D
100
AcDbEntity
  8
Make2D$可见线$普通线
100
AcDbVertex
100
AcDb2dVertex
 10
355.4024854334434
 20
460.4603741400666
 30
0.0
  0
VERTEX
  5
119
330
7D
100
AcDbEntity
  8
Make2D$可见线$普通线
100
AcDbVertex
100
AcDb2dVertex
 10
355.4025621825205
 20
460.4597904907333
 30
0.0
  0
VERTEX
  5
11A
330
7D
100
AcDbEntity
  8
Make2D$可见线$普通线
100
AcDbVertex
100
AcDb2dVertex
 10
355.4026545301095
 20
460.4592072083428
 30
0.0
  0
VERTEX
  5
11B
330
7D
100
AcDbEntity
  8
Make2D$可见线$普通线
100
AcDbVertex
100
AcDb2dVertex
 10
355.4027624563005
 20
460.4586242964823
 30
0.0
  0
VERTEX
  5
11C
330
7D
100
AcDbEntity
  8
Make2D$可见线$普通线
100
AcDbVertex
100
AcDb2dVertex
 10
355.4028859411833
 20
460.4580417587388
 30
0.0
  0
VERTEX
  5
11D
330
7D
100
AcDbEntity
  8
Make2D$可见线$普通线
100
AcDbVertex
100
AcDb2dVertex
 10
355.4030249648478
 20
460.4574595986995
 30
0.0
  0
VERTEX
  5
11E
330
7D
100
AcDbEntity
  8
Make2D$可见线$普通线
100
AcDbVertex
100
AcDb2dVertex
 10
355.403179507384
 20
460.4568778199514
 30
0.0
  0
VERTEX
  5
11F
330
7D
100
AcDbEntity
  8
Make2D$可见线$普通线
100
AcDbVertex
100
AcDb2dVertex
 10
355.4033495488818
 20
460.4562964260817
 30
0.0
  0
VERTEX
  5
120
330
7D
100
AcDbEntity
  8
Make2D$可见线$普通线
100
AcDbVertex
100
AcDb2dVertex
 10
355.4035350694312
 20
460.4557154206776
 30
0.0
  0
VERTEX
  5
121
330
7D
100
AcDbEntity
  8
Make2D$可见线$普通线
100
AcDbVertex
100
AcDb2dVertex
 10
355.4037360491221
 20
460.455134807326
 30
0.0
  0
VERTEX
  5
122
330
7D
100
AcDbEntity
  8
Make2D$可见线$普通线
100
AcDbVertex
100
AcDb2dVertex
 10
355.4039524680445
 20
460.4545545896141
 30
0.0
  0
VERTEX
  5
123
330
7D
100
AcDbEntity
  8
Make2D$可见线$普通线
100
AcDbVertex
100
AcDb2dVertex
 10
355.4041843062883
 20
460.453974771129
 30
0.0
  0
VERTEX
  5
124
330
7D
100
AcDbEntity
  8
Make2D$可见线$普通线
100
AcDbVertex
100
AcDb2dVertex
 10
355.4044315439434
 20
460.4533953554578
 30
0.0
  0
VERTEX
  5
125
330
7D
100
AcDbEntity
  8
Make2D$可见线$普通线
100
AcDbVertex
100
AcDb2dVertex
 10
355.4046941610998
 20
460.4528163461876
 30
0.0
  0
VERTEX
  5
126
330
7D
100
AcDbEntity
  8
Make2D$可见线$普通线
100
AcDbVertex
100
AcDb2dVertex
 10
355.4049721378473
 20
460.4522377469056
 30
0.0
  0
VERTEX
  5
127
330
7D
100
AcDbEntity
  8
Make2D$可见线$普通线
100
AcDbVertex
100
AcDb2dVertex
 10
355.405265454276
 20
460.4516595611988
 30
0.0
  0
VERTEX
  5
128
330
7D
100
AcDbEntity
  8
Make2D$可见线$普通线
100
AcDbVertex
100
AcDb2dVertex
 10
355.4055740904757
 20
460.4510817926543
 30
0.0
  0
VERTEX
  5
129
330
7D
100
AcDbEntity
  8
Make2D$可见线$普通线
100
AcDbVertex
100
AcDb2dVertex
 10
355.4058980265365
 20
460.4505044448594
 30
0.0
  0
VERTEX
  5
12A
330
7D
100
AcDbEntity
  8
Make2D$可见线$普通线
100
AcDbVertex
100
AcDb2dVertex
 10
355.4062372425483
 20
460.449927521401
 30
0.0
  0
VERTEX
  5
12B
330
7D
100
AcDbEntity
  8
Make2D$可见线$普通线
100
AcDbVertex
100
AcDb2dVertex
 10
355.4065917186009
 20
460.4493510258662
 30
0.0
  0
VERTEX
  5
12C
330
7D
100
AcDbEntity
  8
Make2D$可见线$普通线
100
AcDbVertex
100
AcDb2dVertex
 10
355.4069614347844
 20
460.4487749618423
 30
0.0
  0
VERTEX
  5
12D
330
7D
100
AcDbEntity
  8
Make2D$可见线$普通线
100
AcDbVertex
100
AcDb2dVertex
 10
355.4073463711886
 20
460.4481993329163
 30
0.0
  0
VERTEX
  5
12E
330
7D
100
AcDbEntity
  8
Make2D$可见线$普通线
100
AcDbVertex
100
AcDb2dVertex
 10
355.4077465079035
 20
460.4476241426752
 30
0.0
  0
VERTEX
  5
12F
330
7D
100
AcDbEntity
  8
Make2D$可见线$普通线
100
AcDbVertex
100
AcDb2dVertex
 10
355.4081618250191
 20
460.4470493947062
 30
0.0
  0
VERTEX
  5
130
330
7D
100
AcDbEntity
  8
Make2D$可见线$普通线
100
AcDbVertex
100
AcDb2dVertex
 10
355.4085923026253
 20
460.4464750925964
 30
0.0
  0
VERTEX
  5
131
330
7D
100
AcDbEntity
  8
Make2D$可见线$普通线
100
AcDbVertex
100
AcDb2dVertex
 10
355.4094986596691
 20
460.445327840303
 30
0.0
  0
VERTEX
  5
132
330
7D
100
AcDbEntity
  8
Make2D$可见线$普通线
100
AcDbVertex
100
AcDb2dVertex
 10
355.4104654197545
 20
460.4441824144918
 30
0.0
  0
VERTEX
  5
133
330
7D
100
AcDbEntity
  8
Make2D$可见线$普通线
100
AcDbVertex
100
AcDb2dVertex
 10
355.411492423601
 20
460.4430388438595
 30
0.0
  0
VERTEX
  5
134
330
7D
100
AcDbEntity
  8
Make2D$可见线$普通线
100
AcDbVertex
100
AcDb2dVertex
 10
355.412579511928
 20
460.4418971571032
 30
0.0
  0
VERTEX
  5
135
330
7D
100
AcDbEntity
  8
Make2D$可见线$普通线
100
AcDbVertex
100
AcDb2dVertex
 10
355.4137265254552
 20
460.4407573829196
 30
0.0
  0
VERTEX
  5
136
330
7D
100
AcDbEntity
  8
Make2D$可见线$普通线
100
AcDbVertex
100
AcDb2dVertex
 10
355.4149333049019
 20
460.4396195500057
 30
0.0
  0
VERTEX
  5
137
330
7D
100
AcDbEntity
  8
Make2D$可见线$普通线
100
AcDbVertex
100
AcDb2dVertex
 10
355.4161996909878
 20
460.4384836870581
 30
0.0
  0
VERTEX
  5
138
330
7D
100
AcDbEntity
  8
Make2D$可见线$普通线
100
AcDbVertex
100
AcDb2dVertex
 10
355.4175255244322
 20
460.437349822774
 30
0.0
  0
VERTEX
  5
139
330
7D
100
AcDbEntity
  8
Make2D$可见线$普通线
100
AcDbVertex
100
AcDb2dVertex
 10
355.4189106459548
 20
460.4362179858502
 30
0.0
  0
VERTEX
  5
13A
330
7D
100
AcDbEntity
  8
Make2D$可见线$普通线
100
AcDbVertex
100
AcDb2dVertex
 10
355.4203548962749
 20
460.4350882049835
 30
0.0
  0
VERTEX
  5
13B
330
7D
100
AcDbEntity
  8
Make2D$可见线$普通线
100
AcDbVertex
100
AcDb2dVertex
 10
355.4218581161122
 20
460.4339605088705
 30
0.0
  0
VERTEX
  5
13C
330
7D
100
AcDbEntity
  8
Make2D$可见线$普通线
100
AcDbVertex
100
AcDb2dVertex
 10
355.4234201461861
 20
460.4328349262086
 30
0.0
  0
VERTEX
  5
13D
330
7D
100
AcDbEntity
  8
Make2D$可见线$普通线
100
AcDbVertex
100
AcDb2dVertex
 10
355.4250408272161
 20
460.4317114856942
 30
0.0
  0
VERTEX
  5
13E
330
7D
100
AcDbEntity
  8
Make2D$可见线$普通线
100
AcDbVertex
100
AcDb2dVertex
 10
355.4284575050225
 20
460.429471145896
 30
0.0
  0
VERTEX
  5
13F
330
7D
100
AcDbEntity
  8
Make2D$可见线$普通线
100
AcDbVertex
100
AcDb2dVertex
 10
355.4321068752874
 20
460.4272397190509
 30
0.0
  0
VERTEX
  5
140
330
7D
100
AcDbEntity
  8
Make2D$可见线$普通线
100
AcDbVertex
100
AcDb2dVertex
 10
355.4359876637669
 20
460.4250174347339
 30
0.0
  0
VERTEX
  5
141
330
7D
100
AcDbEntity
  8
Make2D$可见线$普通线
100
AcDbVertex
100
AcDb2dVertex
 10
355.440098596217
 20
460.4228045225199
 30
0.0
  0
VERTEX
  5
142
330
7D
100
AcDbEntity
  8
Make2D$可见线$普通线
100
AcDbVertex
100
AcDb2dVertex
 10
355.4444383983937
 20
460.4206012119838
 30
0.0
  0
VERTEX
  5
143
330
7D
100
AcDbEntity
  8
Make2D$可见线$普通线
100
AcDbVertex
100
AcDb2dVertex
 10
355.4490057960529
 20
460.4184077327005
 30
0.0
  0
VERTEX
  5
144
330
7D
100
AcDbEntity
  8
Make2D$可见线$普通线
100
AcDbVertex
100
AcDb2dVertex
 10
355.4537995149508
 20
460.416224314245
 30
0.0
  0
VERTEX
  5
145
330
7D
100
AcDbEntity
  8
Make2D$可见线$普通线
100
AcDbVertex
100
AcDb2dVertex
 10
355.4588182808434
 20
460.4140511861922
 30
0.0
  0
VERTEX
  5
146
330
7D
100
AcDbEntity
  8
Make2D$可见线$普通线
100
AcDbVertex
100
AcDb2dVertex
 10
355.4695258566368
 20
460.4097367195944
 30
0.0
  0
VERTEX
  5
147
330
7D
100
AcDbEntity
  8
Make2D$可见线$普通线
100
AcDbVertex
100
AcDb2dVertex
 10
355.4811183294814
 20
460.4054661695066
 30
0.0
  0
VERTEX
  5
148
330
7D
100
AcDbEntity
  8
Make2D$可见线$普通线
100
AcDbVertex
100
AcDb2dVertex
 10
355.4935855054252
 20
460.401241372528
 30
0.0
  0
VERTEX
  5
149
330
7D
100
AcDbEntity
  8
Make2D$可见线$普通线
100
AcDbVertex
100
AcDb2dVertex
 10
355.5069171905166
 20
460.3970641652581
 30
0.0
  0
VERTEX
  5
14A
330
7D
100
AcDbEntity
  8
Make2D$可见线$普通线
100
AcDbVertex
100
AcDb2dVertex
 10
355.5211031908036
 20
460.3929363842965
 30
0.0
  0
VERTEX
  5
14B
330
7D
100
AcDbEntity
  8
Make2D$可见线$普通线
100
AcDbVertex
100
AcDb2dVertex
 10
355.551997361158
 20
460.3848364476955
 30
0.0
  0
VERTEX
  5
14C
330
7D
100
AcDbEntity
  8
Make2D$可见线$普通线
100
AcDbVertex
100
AcDb2dVertex
 10
355.5861864648742
 20
460.3769562555203
 30
0.0
  0
VERTEX
  5
14D
330
7D
100
AcDbEntity
  8
Make2D$可见线$普通线
100
AcDbVertex
100
AcDb2dVertex
 10
355.6235889503379
 20
460.3693105005663
 30
0.0
  0
VERTEX
  5
14E
330
7D
100
AcDbEntity
  8
Make2D$可见线$普通线
100
AcDbVertex
100
AcDb2dVertex
 10
355.664123265935
 20
460.3619138756287
 30
0.0
  0
VERTEX
  5
14F
330
7D
100
AcDbEntity
  8
Make2D$可见线$普通线
100
AcDbVertex
100
AcDb2dVertex
 10
355.7542611810725
 20
460.3479267869848
 30
0.0
  0
VERTEX
  5
150
330
7D
100
AcDbEntity
  8
Make2D$可见线$普通线
100
AcDbVertex
100
AcDb2dVertex
 10
355.8559477973731
 20
460.3351125319515
 30
0.0
  0
VERTEX
  5
151
330
7D
100
AcDbEntity
  8
Make2D$可见线$普通线
100
AcDbVertex
100
AcDb2dVertex
 10
355.9643126022394
 20
460.3239623523391
 30
0.0
  0
VERTEX
  5
152
330
7D
100
AcDbEntity
  8
Make2D$可见线$普通线
100
AcDbVertex
100
AcDb2dVertex
 10
356.0815878622016
 20
460.3140846087822
 30
0.0
  0
VERTEX
  5
153
330
7D
100
AcDbEntity
  8
Make2D$可见线$普通线
100
AcDbVertex
100
AcDb2dVertex
 10
356.3379184934463
 20
460.2984290024187
 30
0.0
  0
VERTEX
  5
154
330
7D
100
AcDbEntity
  8
Make2D$可见线$普通线
100
AcDbVertex
100
AcDb2dVertex
 10
356.615037183172
 20
460.2887108580286
 30
0.0
  0
VERTEX
  5
155
330
7D
100
AcDbEntity
  8
Make2D$可见线$普通线
100
AcDbVertex
100
AcDb2dVertex
 10
356.9030414234436
 20
460.2854953207792
 30
0.0
  0
VERTEX
  5
156
330
7D
100
AcDbEntity
  8
Make2D$可见线$普通线
100
AcDbVertex
100
AcDb2dVertex
 10
379.8685641086347
 20
460.2854953207793
 30
0.0
 42
0.4146179743452452
  0
VERTEX
  5
157
330
7D
100
AcDbEntity
  8
Make2D$可见线$普通线
100
AcDbVertex
100
AcDb2dVertex
 10
388.5355118863684
 20
468.9524430985113
 30
0.0
  0
VERTEX
  5
158
330
7D
100
AcDbEntity
  8
Make2D$可见线$普通线
100
AcDbVertex
100
AcDb2dVertex
 10
388.5355118863575
 20
618.9524430985113
 30
0.0
 42
0.4146179743451492
  0
VERTEX
  5
159
330
7D
100
AcDbEntity
  8
Make2D$可见线$普通线
100
AcDbVertex
100
AcDb2dVertex
 10
379.8685641086246
 20
627.6193908762434
 30
0.0
  0
VERTEX
  5
15A
330
7D
100
AcDbEntity
  8
Make2D$可见线$普通线
100
AcDbVertex
100
AcDb2dVertex
 10
356.9030414234369
 20
627.6193908762434
 30
0.0
  0
VERTEX
  5
15B
330
7D
100
AcDbEntity
  8
Make2D$可见线$普通线
100
AcDbVertex
100
AcDb2dVertex
 10
356.6150371831657
 20
627.6161753389954
 30
0.0
  0
VERTEX
  5
15C
330
7D
100
AcDbEntity
  8
Make2D$可见线$普通线
100
AcDbVertex
100
AcDb2dVertex
 10
356.3379184934407
 20
627.6064571946056
 30
0.0
  0
VERTEX
  5
15D
330
7D
100
AcDbEntity
  8
Make2D$可见线$普通线
100
AcDbVertex
100
AcDb2dVertex
 10
356.0815878621971
 20
627.5908015882424
 30
0.0
  0
VERTEX
  5
15E
330
7D
100
AcDbEntity
  8
Make2D$可见线$普通线
100
AcDbVertex
100
AcDb2dVertex
 10
355.9643126022354
 20
627.5809238446859
 30
0.0
  0
VERTEX
  5
15F
330
7D
100
AcDbEntity
  8
Make2D$可见线$普通线
100
AcDbVertex
100
AcDb2dVertex
 10
355.8559477973697
 20
627.5697736650741
 30
0.0
  0
VERTEX
  5
160
330
7D
100
AcDbEntity
  8
Make2D$可见线$普通线
100
AcDbVertex
100
AcDb2dVertex
 10
355.7542611810668
 20
627.5569594100416
 30
0.0
  0
VERTEX
  5
161
330
7D
100
AcDbEntity
  8
Make2D$可见线$普通线
100
AcDbVertex
100
AcDb2dVertex
 10
355.6641232659277
 20
627.5429723213988
 30
0.0
  0
VERTEX
  5
162
330
7D
100
AcDbEntity
  8
Make2D$可见线$普通线
100
AcDbVertex
100
AcDb2dVertex
 10
355.62358895033
 20
627.535575696462
 30
0.0
  0
VERTEX
  5
163
330
7D
100
AcDbEntity
  8
Make2D$可见线$普通线
100
AcDbVertex
100
AcDb2dVertex
 10
355.5861864648659
 20
627.527929941509
 30
0.0
  0
VERTEX
  5
164
330
7D
100
AcDbEntity
  8
Make2D$可见线$普通线
100
AcDbVertex
100
AcDb2dVertex
 10
355.5519973611496
 20
627.5200497493348
 30
0.0
  0
VERTEX
  5
165
330
7D
100
AcDbEntity
  8
Make2D$可见线$普通线
100
AcDbVertex
100
AcDb2dVertex
 10
355.5211031907952
 20
627.5119498127351
 30
0.0
  0
VERTEX
  5
166
330
7D
100
AcDbEntity
  8
Make2D$可见线$普通线
100
AcDbVertex
100
AcDb2dVertex
 10
355.5069171905081
 20
627.5078220317741
 30
0.0
  0
VERTEX
  5
167
330
7D
100
AcDbEntity
  8
Make2D$可见线$普通线
100
AcDbVertex
100
AcDb2dVertex
 10
355.4935855054169
 20
627.5036448245052
 30
0.0
  0
VERTEX
  5
168
330
7D
100
AcDbEntity
  8
Make2D$可见线$普通线
100
AcDbVertex
100
AcDb2dVertex
 10
355.4811183294732
 20
627.4994200275273
 30
0.0
  0
VERTEX
  5
169
330
7D
100
AcDbEntity
  8
Make2D$可见线$普通线
100
AcDbVertex
100
AcDb2dVertex
 10
355.469525856629
 20
627.4951494774402
 30
0.0
  0
VERTEX
  5
16A
330
7D
100
AcDbEntity
  8
Make2D$可见线$普通线
100
AcDbVertex
100
AcDb2dVertex
 10
355.4588182808359
 20
627.4908350108433
 30
0.0
  0
VERTEX
  5
16B
330
7D
100
AcDbEntity
  8
Make2D$可见线$普通线
100
AcDbVertex
100
AcDb2dVertex
 10
355.4537995149435
 20
627.4886618827909
 30
0.0
  0
VERTEX
  5
16C
330
7D
100
AcDbEntity
  8
Make2D$可见线$普通线
100
AcDbVertex
100
AcDb2dVertex
 10
355.4490057960456
 20
627.4864784643357
 30
0.0
  0
VERTEX
  5
16D
330
7D
100
AcDbEntity
  8
Make2D$可见线$普通线
100
AcDbVertex
100
AcDb2dVertex
 10
355.4444383983865
 20
627.484284985053
 30
0.0
  0
VERTEX
  5
16E
330
7D
100
AcDbEntity
  8
Make2D$可见线$普通线
100
AcDbVertex
100
AcDb2dVertex
 10
355.4400985962101
 20
627.4820816745173
 30
0.0
  0
VERTEX
  5
16F
330
7D
100
AcDbEntity
  8
Make2D$可见线$普通线
100
AcDbVertex
100
AcDb2dVertex
 10
355.4359876637602
 20
627.4798687623038
 30
0.0
  0
VERTEX
  5
170
330
7D
100
AcDbEntity
  8
Make2D$可见线$普通线
100
AcDbVertex
100
AcDb2dVertex
 10
355.432106875281
 20
627.4776464779874
 30
0.0
  0
VERTEX
  5
171
330
7D
100
AcDbEntity
  8
Make2D$可见线$普通线
100
AcDbVertex
100
AcDb2dVertex
 10
355.4284575050162
 20
627.4754150511428
 30
0.0
  0
VERTEX
  5
172
330
7D
100
AcDbEntity
  8
Make2D$可见线$普通线
100
AcDbVertex
100
AcDb2dVertex
 10
355.4250408272101
 20
627.4731747113452
 30
0.0
  0
VERTEX
  5
173
330
7D
100
AcDbEntity
  8
Make2D$可见线$普通线
100
AcDbVertex
100
AcDb2dVertex
 10
355.4234201461801
 20
627.4720512708311
 30
0.0
  0
VERTEX
  5
174
330
7D
100
AcDbEntity
  8
Make2D$可见线$普通线
100
AcDbVertex
100
AcDb2dVertex
 10
355.4218581161064
 20
627.4709256881695
 30
0.0
  0
VERTEX
  5
175
330
7D
100
AcDbEntity
  8
Make2D$可见线$普通线
100
AcDbVertex
100
AcDb2dVertex
 10
355.4203548962693
 20
627.4697979920568
 30
0.0
  0
VERTEX
  5
176
330
7D
100
AcDbEntity
  8
Make2D$可见线$普通线
100
AcDbVertex
100
AcDb2dVertex
 10
355.4189106459492
 20
627.4686682111902
 30
0.0
  0
VERTEX
  5
177
330
7D
100
AcDbEntity
  8
Make2D$可见线$普通线
100
AcDbVertex
100
AcDb2dVertex
 10
355.4175255244268
 20
627.4675363742665
 30
0.0
  0
VERTEX
  5
178
330
7D
100
AcDbEntity
  8
Make2D$可见线$普通线
100
AcDbVertex
100
AcDb2dVertex
 10
355.4161996909825
 20
627.4664025099827
 30
0.0
  0
VERTEX
  5
179
330
7D
100
AcDbEntity
  8
Make2D$可见线$普通线
100
AcDbVertex
100
AcDb2dVertex
 10
355.4149333048967
 20
627.4652666470355
 30
0.0
  0
VERTEX
  5
17A
330
7D
100
AcDbEntity
  8
Make2D$可见线$普通线
100
AcDbVertex
100
AcDb2dVertex
 10
355.4137265254502
 20
627.4641288141219
 30
0.0
  0
VERTEX
  5
17B
330
7D
100
AcDbEntity
  8
Make2D$可见线$普通线
100
AcDbVertex
100
AcDb2dVertex
 10
355.4125795119231
 20
627.4629890399385
 30
0.0
  0
VERTEX
  5
17C
330
7D
100
AcDbEntity
  8
Make2D$可见线$普通线
100
AcDbVertex
100
AcDb2dVertex
 10
355.4114924235962
 20
627.4618473531825
 30
0.0
  0
VERTEX
  5
17D
330
7D
100
AcDbEntity
  8
Make2D$可见线$普通线
100
AcDbVertex
100
AcDb2dVertex
 10
355.4104654197499
 20
627.4607037825506
 30
0.0
  0
VERTEX
  5
17E
330
7D
100
AcDbEntity
  8
Make2D$可见线$普通线
100
AcDbVertex
100
AcDb2dVertex
 10
355.4094986596646
 20
627.4595583567396
 30
0.0
  0
VERTEX
  5
17F
330
7D
100
AcDbEntity
  8
Make2D$可见线$普通线
100
AcDbVertex
100
AcDb2dVertex
 10
355.4085923026209
 20
627.4584111044466
 30
0.0
  0
VERTEX
  5
180
330
7D
100
AcDbEntity
  8
Make2D$可见线$普通线
100
AcDbVertex
100
AcDb2dVertex
 10
355.4081618250149
 20
627.4578368023369
 30
0.0
  0
VERTEX
  5
181
330
7D
100
AcDbEntity
  8
Make2D$可见线$普通线
100
AcDbVertex
100
AcDb2dVertex
 10
355.4077465078993
 20
627.4572620543682
 30
0.0
  0
VERTEX
  5
182
330
7D
100
AcDbEntity
  8
Make2D$可见线$普通线
100
AcDbVertex
100
AcDb2dVertex
 10
355.4073463711845
 20
627.4566868641273
 30
0.0
  0
VERTEX
  5
183
330
7D
100
AcDbEntity
  8
Make2D$可见线$普通线
100
AcDbVertex
100
AcDb2dVertex
 10
355.4069614347804
 20
627.4561112352014
 30
0.0
  0
VERTEX
  5
184
330
7D
100
AcDbEntity
  8
Make2D$可见线$普通线
100
AcDbVertex
100
AcDb2dVertex
 10
355.406591718597
 20
627.4555351711776
 30
0.0
  0
VERTEX
  5
185
330
7D
100
AcDbEntity
  8
Make2D$可见线$普通线
100
AcDbVertex
100
AcDb2dVertex
 10
355.4062372425444
 20
627.454958675643
 30
0.0
  0
VERTEX
  5
186
330
7D
100
AcDbEntity
  8
Make2D$可见线$普通线
100
AcDbVertex
100
AcDb2dVertex
 10
355.4058980265328
 20
627.4543817521846
 30
0.0
  0
VERTEX
  5
187
330
7D
100
AcDbEntity
  8
Make2D$可见线$普通线
100
AcDbVertex
100
AcDb2dVertex
 10
355.4055740904721
 20
627.4538044043899
 30
0.0
  0
VERTEX
  5
188
330
7D
100
AcDbEntity
  8
Make2D$可见线$普通线
100
AcDbVertex
100
AcDb2dVertex
 10
355.4052654542724
 20
627.4532266358456
 30
0.0
  0
VERTEX
  5
189
330
7D
100
AcDbEntity
  8
Make2D$可见线$普通线
100
AcDbVertex
100
AcDb2dVertex
 10
355.4049721378437
 20
627.4526484501389
 30
0.0
  0
VERTEX
  5
18A
330
7D
100
AcDbEntity
  8
Make2D$可见线$普通线
100
AcDbVertex
100
AcDb2dVertex
 10
355.4046941610963
 20
627.4520698508571
 30
0.0
  0
VERTEX
  5
18B
330
7D
100
AcDbEntity
  8
Make2D$可见线$普通线
100
AcDbVertex
100
AcDb2dVertex
 10
355.4044315439401
 20
627.4514908415872
 30
0.0
  0
VERTEX
  5
18C
330
7D
100
AcDbEntity
  8
Make2D$可见线$普通线
100
AcDbVertex
100
AcDb2dVertex
 10
355.404184306285
 20
627.4509114259162
 30
0.0
  0
VERTEX
  5
18D
330
7D
100
AcDbEntity
  8
Make2D$可见线$普通线
100
AcDbVertex
100
AcDb2dVertex
 10
355.4039524680413
 20
627.4503316074312
 30
0.0
  0
VERTEX
  5
18E
330
7D
100
AcDbEntity
  8
Make2D$可见线$普通线
100
AcDbVertex
100
AcDb2dVertex
 10
355.403736049119
 20
627.4497513897193
 30
0.0
  0
VERTEX
  5
18F
330
7D
100
AcDbEntity
  8
Make2D$可见线$普通线
100
AcDbVertex
100
AcDb2dVertex
 10
355.4035350694282
 20
627.449170776368
 30
0.0
  0
VERTEX
  5
190
330
7D
100
AcDbEntity
  8
Make2D$可见线$普通线
100
AcDbVertex
100
AcDb2dVertex
 10
355.4033495488789
 20
627.448589770964
 30
0.0
  0
VERTEX
  5
191
330
7D
100
AcDbEntity
  8
Make2D$可见线$普通线
100
AcDbVertex
100
AcDb2dVertex
 10
355.4031795073811
 20
627.4480083770945
 30
0.0
  0
VERTEX
  5
192
330
7D
100
AcDbEntity
  8
Make2D$可见线$普通线
100
AcDbVertex
100
AcDb2dVertex
 10
355.403024964845
 20
627.4474265983467
 30
0.0
  0
VERTEX
  5
193
330
7D
100
AcDbEntity
  8
Make2D$可见线$普通线
100
AcDbVertex
100
AcDb2dVertex
 10
355.4028859411807
 20
627.4468444383076
 30
0.0
  0
VERTEX
  5
194
330
7D
100
AcDbEntity
  8
Make2D$可见线$普通线
100
AcDbVertex
100
AcDb2dVertex
 10
355.402762456298
 20
627.4462619005642
 30
0.0
  0
VERTEX
  5
195
330
7D
100
AcDbEntity
  8
Make2D$可见线$普通线
100
AcDbVertex
100
AcDb2dVertex
 10
355.4026545301072
 20
627.4456789887038
 30
0.0
  0
VERTEX
  5
196
330
7D
100
AcDbEntity
  8
Make2D$可见线$普通线
100
AcDbVertex
100
AcDb2dVertex
 10
355.4025621825182
 20
627.4450957063134
 30
0.0
  0
VERTEX
  5
197
330
7D
100
AcDbEntity
  8
Make2D$可见线$普通线
100
AcDbVertex
100
AcDb2dVertex
 10
355.4024854334412
 20
627.4445120569803
 30
0.0
  0
VERTEX
  5
198
330
7D
100
AcDbEntity
  8
Make2D$可见线$普通线
100
AcDbVertex
100
AcDb2dVertex
 10
355.4024243027862
 20
627.4439280442914
 30
0.0
  0
VERTEX
  5
199
330
7D
100
AcDbEntity
  8
Make2D$可见线$普通线
100
AcDbVertex
100
AcDb2dVertex
 10
355.4023788104633
 20
627.443343671834
 30
0.0
  0
VERTEX
  5
19A
330
7D
100
AcDbEntity
  8
Make2D$可见线$普通线
100
AcDbVertex
100
AcDb2dVertex
 10
355.4023489763825
 20
627.442758943195
 30
0.0
  0
VERTEX
  5
19B
330
7D
100
AcDbEntity
  8
Make2D$可见线$普通线
100
AcDbVertex
100
AcDb2dVertex
 10
355.4023348204539
 20
627.4421738619617
 30
0.0
  0
VERTEX
  5
19C
330
7D
100
AcDbEntity
  8
Make2D$可见线$普通线
100
AcDbVertex
100
AcDb2dVertex
 10
355.4023363625876
 20
627.441588431721
 30
0.0
  0
VERTEX
  5
19D
330
7D
100
AcDbEntity
  8
Make2D$可见线$普通线
100
AcDbVertex
100
AcDb2dVertex
 10
355.4023536226936
 20
627.4410026560602
 30
0.0
  0
VERTEX
  5
19E
330
7D
100
AcDbEntity
  8
Make2D$可见线$普通线
100
AcDbVertex
100
AcDb2dVertex
 10
355.4030511584184
 20
627.4006692276716
 30
0.0
  0
SEQEND
  5
19F
330
7D
100
AcDbEntity
  8
Make2D$可见线$普通线
  0
POLYLINE
  5
1A0
330
1F
100
AcDbEntity
  8
Make2D$可见线$普通线
100
AcDb2dPolyline
 66
     1
 10
0.0
 20
0.0
 30
0.0
  0
VERTEX
  5
1A1
330
1A0
100
AcDbEntity
  8
Make2D$可见线$普通线
100
AcDbVertex
100
AcDb2dVertex
 10
310.3350177740119
 20
460.547961311357
 30
0.0
  0
VERTEX
  5
1A2
330
1A0
100
AcDbEntity
  8
Make2D$可见线$普通线
100
AcDbVertex
100
AcDb2dVertex
 10
310.3350177740126
 20
549.6639103326112
 30
0.0
 42
0.1412304758507806
  0
VERTEX
  5
1A3
330
1A0
100
AcDbEntity
  8
Make2D$可见线$普通线
100
AcDbVertex
100
AcDb2dVertex
 10
308.6446754858695
 20
555.5231144849308
 30
0.0
 42
-0.2886364397277534
  0
VERTEX
  5
1A4
330
1A0
100
AcDbEntity
  8
Make2D$可见线$普通线
100
AcDbVertex
100
AcDb2dVertex
 10
308.6446754858675
 20
585.3862215292725
 30
0.0
 42
0.141230475696721
  0
VERTEX
  5
1A5
330
1A0
100
AcDbEntity
  8
Make2D$可见线$普通线
100
AcDbVertex
100
AcDb2dVertex
 10
310.3350177744912
 20
591.2454256815997
 30
0.0
  0
VERTEX
  5
1A6
330
1A0
100
AcDbEntity
  8
Make2D$可见线$普通线
100
AcDbVertex
100
AcDb2dVertex
 10
310.3350177740141
 20
627.3569248856655
 30
0.0
  0
SEQEND
  5
1A7
330
1A0
100
AcDbEntity
  8
Make2D$可见线$普通线
  0
POLYLINE
  5
1A8
330
1F
100
AcDbEntity
  8
Make2D$可见线$普通线
100
AcDb2dPolyline
 66
     1
 10
0.0
 20
0.0
 30
0.0
  0
VERTEX
  5
1A9
330
1A8
100
AcDbEntity
  8
Make2D$可见线$普通线
100
AcDbVertex
100
AcDb2dVertex
 10
356.9030414234436
 20
460.2854953207792
 30
0.0
  0
VERTEX
  5
1AA
330
1A8
100
AcDbEntity
  8
Make2D$可见线$普通线
100
AcDbVertex
100
AcDb2dVertex
 10
356.9030414211562
 20
549.6639103326107
 30
0.0
 42
-0.141230473703784
  0
VERTEX
  5
1AB
330
1A8
100
AcDbEntity
  8
Make2D$可见线$普通线
100
AcDbVertex
100
AcDb2dVertex
 10
358.2092150081137
 20
554.1914771786071
 30
0.0
 42
0.2886364397444249
  0
VERTEX
  5
1AC
330
1A8
100
AcDbEntity
  8
Make2D$可见线$普通线
100
AcDbVertex
100
AcDb2dVertex
 10
358.2092150081159
 20
586.7178588355964
 30
0.0
 42
-0.1412304737038459
  0
VERTEX
  5
1AD
330
1A8
100
AcDbEntity
  8
Make2D$可见线$普通线
100
AcDbVertex
100
AcDb2dVertex
 10
356.903041421157
 20
591.2454256815986
 30
0.0
  0
VERTEX
  5
1AE
330
1A8
100
AcDbEntity
  8
Make2D$可见线$普通线
100
AcDbVertex
100
AcDb2dVertex
 10
356.9030414234369
 20
627.6193908762434
 30
0.0
  0
SEQEND
  5
1AF
330
1A8
100
AcDbEntity
  8
Make2D$可见线$普通线
  0
POLYLINE
  5
1B0
330
1F
100
AcDbEntity
  8
Make2D$可见线$普通线
100
AcDb2dPolyline
 66
     1
 10
0.0
 20
0.0
 30
0.0
  0
VERTEX
  5
1B1
330
1B0
100
AcDbEntity
  8
Make2D$可见线$普通线
100
AcDbVertex
100
AcDb2dVertex
 10
307.8350177740236
 20
627.6193908762433
 30
0.0
  0
VERTEX
  5
1B2
330
1B0
100
AcDbEntity
  8
Make2D$可见线$普通线
100
AcDbVertex
100
AcDb2dVertex
 10
307.8350177763035
 20
591.2454256815987
 30
0.0
 42
-0.1412304737038494
  0
VERTEX
  5
1B3
330
1B0
100
AcDbEntity
  8
Make2D$可见线$普通线
100
AcDbVertex
100
AcDb2dVertex
 10
306.5288441893446
 20
586.7178588355963
 30
0.0
 42
0.2886364397444227
  0
VERTEX
  5
1B4
330
1B0
100
AcDbEntity
  8
Make2D$可见线$普通线
100
AcDbVertex
100
AcDb2dVertex
 10
306.5288441893468
 20
554.1914771786072
 30
0.0
 42
-0.1412304737036541
  0
VERTEX
  5
1B5
330
1B0
100
AcDbEntity
  8
Make2D$可见线$普通线
100
AcDbVertex
100
AcDb2dVertex
 10
307.8350177763044
 20
549.6639103326107
 30
0.0
  0
VERTEX
  5
1B6
330
1B0
100
AcDbEntity
  8
Make2D$可见线$普通线
100
AcDbVertex
100
AcDb2dVertex
 10
307.8350177740168
 20
460.2854953207792
 30
0.0
  0
SEQEND
  5
1B7
330
1B0
100
AcDbEntity
  8
Make2D$可见线$普通线
  0
POLYLINE
  5
1B8
330
1F
100
AcDbEntity
  8
Make2D$可见线$普通线
100
AcDb2dPolyline
 66
     1
 10
0.0
 20
0.0
 30
0.0
  0
VERTEX
  5
1B9
330
1B8
100
AcDbEntity
  8
Make2D$可见线$普通线
100
AcDbVertex
100
AcDb2dVertex
 10
333.035049241618
 20
569.5107750096495
 30
0.0
  0
VERTEX
  5
1BA
330
1B8
100
AcDbEntity
  8
Make2D$可见线$普通线
100
AcDbVertex
100
AcDb2dVertex
 10
333.1666217942406
 20
569.5109271965543
 30
0.0
  0
VERTEX
  5
1BB
330
1B8
100
AcDbEntity
  8
Make2D$可见线$普通线
100
AcDbVertex
100
AcDb2dVertex
 10
333.190550458508
 20
570.5452555405498
 30
0.0
  0
VERTEX
  5
1BC
330
1B8
100
AcDbEntity
  8
Make2D$可见线$普通线
100
AcDbVertex
100
AcDb2dVertex
 10
333.0581109033608
 20
570.5452781968661
 30
0.0
  0
VERTEX
  5
1BD
330
1B8
100
AcDbEntity
  8
Make2D$可见线$普通线
100
AcDbVertex
100
AcDb2dVertex
 10
333.035049241618
 20
569.5107750096495
 30
0.0
  0
SEQEND
  5
1BE
330
1B8
100
AcDbEntity
  8
Make2D$可见线$普通线
  0
POLYLINE
  5
1BF
330
1F
100
AcDbEntity
  8
Make2D$可见线$普通线
100
AcDb2dPolyline
 66
     1
 10
0.0
 20
0.0
 30
0.0
  0
VERTEX
  5
1C0
330
1BF
100
AcDbEntity
  8
Make2D$可见线$普通线
100
AcDbVertex
100
AcDb2dVertex
 10
334.4504033422423
 20
569.7731481753964
 30
0.0
  0
VERTEX
  5
1C1
330
1BF
100
AcDbEntity
  8
Make2D$可见线$普通线
100
AcDbVertex
100
AcDb2dVertex
 10
334.456765568915
 20
569.7090620991814
 30
0.0
  0
VERTEX
  5
1C2
330
1BF
100
AcDbEntity
  8
Make2D$可见线$普通线
100
AcDbVertex
100
AcDb2dVertex
 10
334.4920891989725
 20
569.6399465372965
 30
0.0
  0
VERTEX
  5
1C3
330
1BF
100
AcDbEntity
  8
Make2D$可见线$普通线
100
AcDbVertex
100
AcDb2dVertex
 10
334.5706808661708
 20
569.5583058126108
 30
0.0
  0
VERTEX
  5
1C4
330
1BF
100
AcDbEntity
  8
Make2D$可见线$普通线
100
AcDbVertex
100
AcDb2dVertex
 10
334.6645610506018
 20
569.5097284535328
 30
0.0
  0
VERTEX
  5
1C5
330
1BF
100
AcDbEntity
  8
Make2D$可见线$普通线
100
AcDbVertex
100
AcDb2dVertex
 10
334.7127413577126
 20
569.4966714110308
 30
0.0
  0
VERTEX
  5
1C6
330
1BF
100
AcDbEntity
  8
Make2D$可见线$普通线
100
AcDbVertex
100
AcDb2dVertex
 10
334.7780342556856
 20
569.4930751371027
 30
0.0
  0
VERTEX
  5
1C7
330
1BF
100
AcDbEntity
  8
Make2D$可见线$普通线
100
AcDbVertex
100
AcDb2dVertex
 10
334.8351534202058
 20
569.5010296053944
 30
0.0
  0
VERTEX
  5
1C8
330
1BF
100
AcDbEntity
  8
Make2D$可见线$普通线
100
AcDbVertex
100
AcDb2dVertex
 10
334.9061087762568
 20
569.5177767751966
 30
0.0
  0
VERTEX
  5
1C9
330
1BF
100
AcDbEntity
  8
Make2D$可见线$普通线
100
AcDbVertex
100
AcDb2dVertex
 10
334.9661693402679
 20
569.5473024474383
 30
0.0
  0
VERTEX
  5
1CA
330
1BF
100
AcDbEntity
  8
Make2D$可见线$普通线
100
AcDbVertex
100
AcDb2dVertex
 10
335.0434493526547
 20
569.6045785514314
 30
0.0
  0
VERTEX
  5
1CB
330
1BF
100
AcDbEntity
  8
Make2D$可见线$普通线
100
AcDbVertex
100
AcDb2dVertex
 10
335.0979683972646
 20
569.6805123314848
 30
0.0
  0
VERTEX
  5
1CC
330
1BF
100
AcDbEntity
  8
Make2D$可见线$普通线
100
AcDbVertex
100
AcDb2dVertex
 10
335.1230994293469
 20
569.745202328149
 30
0.0
  0
VERTEX
  5
1CD
330
1BF
100
AcDbEntity
  8
Make2D$可见线$普通线
100
AcDbVertex
100
AcDb2dVertex
 10
335.1303843006463
 20
569.8209235523888
 30
0.0
  0
VERTEX
  5
1CE
330
1BF
100
AcDbEntity
  8
Make2D$可见线$普通线
100
AcDbVertex
100
AcDb2dVertex
 10
335.1221145037524
 20
569.8984258135998
 30
0.0
  0
VERTEX
  5
1CF
330
1BF
100
AcDbEntity
  8
Make2D$可见线$普通线
100
AcDbVertex
100
AcDb2dVertex
 10
335.0869010673713
 20
569.9782686637566
 30
0.0
  0
VERTEX
  5
1D0
330
1BF
100
AcDbEntity
  8
Make2D$可见线$普通线
100
AcDbVertex
100
AcDb2dVertex
 10
335.0112711070516
 20
570.0479703246144
 30
0.0
  0
VERTEX
  5
1D1
330
1BF
100
AcDbEntity
  8
Make2D$可见线$普通线
100
AcDbVertex
100
AcDb2dVertex
 10
334.9004270098321
 20
570.1053796978624
 30
0.0
  0
VERTEX
  5
1D2
330
1BF
100
AcDbEntity
  8
Make2D$可见线$普通线
100
AcDbVertex
100
AcDb2dVertex
 10
334.7542149586525
 20
570.1582556548784
 30
0.0
  0
VERTEX
  5
1D3
330
1BF
100
AcDbEntity
  8
Make2D$可见线$普通线
100
AcDbVertex
100
AcDb2dVertex
 10
334.6788728501526
 20
570.2058276097505
 30
0.0
  0
VERTEX
  5
1D4
330
1BF
100
AcDbEntity
  8
Make2D$可见线$普通线
100
AcDbVertex
100
AcDb2dVertex
 10
334.6451457047064
 20
570.2476574314315
 30
0.0
  0
VERTEX
  5
1D5
330
1BF
100
AcDbEntity
  8
Make2D$可见线$普通线
100
AcDbVertex
100
AcDb2dVertex
 10
334.6389920723586
 20
570.3133034005299
 30
0.0
  0
VERTEX
  5
1D6
330
1BF
100
AcDbEntity
  8
Make2D$可见线$普通线
100
AcDbVertex
100
AcDb2dVertex
 10
334.6621773874725
 20
570.3755457635989
 30
0.0
  0
VERTEX
  5
1D7
330
1BF
100
AcDbEntity
  8
Make2D$可见线$普通线
100
AcDbVertex
100
AcDb2dVertex
 10
334.7207002438848
 20
570.4196614923289
 30
0.0
  0
VERTEX
  5
1D8
330
1BF
100
AcDbEntity
  8
Make2D$可见线$普通线
100
AcDbVertex
100
AcDb2dVertex
 10
334.7934051208696
 20
570.4464862021923
 30
0.0
  0
VERTEX
  5
1D9
330
1BF
100
AcDbEntity
  8
Make2D$可见线$普通线
100
AcDbVertex
100
AcDb2dVertex
 10
334.8827279900594
 20
570.4473465790799
 30
0.0
  0
VERTEX
  5
1DA
330
1BF
100
AcDbEntity
  8
Make2D$可见线$普通线
100
AcDbVertex
100
AcDb2dVertex
 10
334.9434762166719
 20
570.4205262297652
 30
0.0
  0
VERTEX
  5
1DB
330
1BF
100
AcDbEntity
  8
Make2D$可见线$普通线
100
AcDbVertex
100
AcDb2dVertex
 10
335.0064258443906
 20
570.3522266373308
 30
0.0
  0
VERTEX
  5
1DC
330
1BF
100
AcDbEntity
  8
Make2D$可见线$普通线
100
AcDbVertex
100
AcDb2dVertex
 10
335.1115655475193
 20
570.4170160419083
 30
0.0
  0
VERTEX
  5
1DD
330
1BF
100
AcDbEntity
  8
Make2D$可见线$普通线
100
AcDbVertex
100
AcDb2dVertex
 10
335.098514339784
 20
570.4360568686059
 30
0.0
  0
VERTEX
  5
1DE
330
1BF
100
AcDbEntity
  8
Make2D$可见线$普通线
100
AcDbVertex
100
AcDb2dVertex
 10
335.0249275446511
 20
570.5121247595168
 30
0.0
  0
VERTEX
  5
1DF
330
1BF
100
AcDbEntity
  8
Make2D$可见线$普通线
100
AcDbVertex
100
AcDb2dVertex
 10
334.9396301530252
 20
570.5529198480103
 30
0.0
  0
VERTEX
  5
1E0
330
1BF
100
AcDbEntity
  8
Make2D$可见线$普通线
100
AcDbVertex
100
AcDb2dVertex
 10
334.8309686007992
 20
570.5679432493198
 30
0.0
  0
VERTEX
  5
1E1
330
1BF
100
AcDbEntity
  8
Make2D$可见线$普通线
100
AcDbVertex
100
AcDb2dVertex
 10
334.745628997969
 20
570.5577015126879
 30
0.0
  0
VERTEX
  5
1E2
330
1BF
100
AcDbEntity
  8
Make2D$可见线$普通线
100
AcDbVertex
100
AcDb2dVertex
 10
334.6306165333401
 20
570.5120510963183
 30
0.0
  0
VERTEX
  5
1E3
330
1BF
100
AcDbEntity
  8
Make2D$可见线$普通线
100
AcDbVertex
100
AcDb2dVertex
 10
334.5500287274701
 20
570.4300574867734
 30
0.0
  0
VERTEX
  5
1E4
330
1BF
100
AcDbEntity
  8
Make2D$可见线$普通线
100
AcDbVertex
100
AcDb2dVertex
 10
334.5134260734641
 20
570.3289757483699
 30
0.0
  0
VERTEX
  5
1E5
330
1BF
100
AcDbEntity
  8
Make2D$可见线$普通线
100
AcDbVertex
100
AcDb2dVertex
 10
334.51703984624
 20
570.2222810770163
 30
0.0
  0
VERTEX
  5
1E6
330
1BF
100
AcDbEntity
  8
Make2D$可见线$普通线
100
AcDbVertex
100
AcDb2dVertex
 10
334.57551683926
 20
570.1367928921511
 30
0.0
  0
VERTEX
  5
1E7
330
1BF
100
AcDbEntity
  8
Make2D$可见线$普通线
100
AcDbVertex
100
AcDb2dVertex
 10
334.6530369993287
 20
570.0794707268351
 30
0.0
  0
VERTEX
  5
1E8
330
1BF
100
AcDbEntity
  8
Make2D$可见线$普通线
100
AcDbVertex
100
AcDb2dVertex
 10
334.8582346913165
 20
569.9942465284602
 30
0.0
  0
VERTEX
  5
1E9
330
1BF
100
AcDbEntity
  8
Make2D$可见线$普通线
100
AcDbVertex
100
AcDb2dVertex
 10
334.9622599350785
 20
569.9212595022807
 30
0.0
  0
VERTEX
  5
1EA
330
1BF
100
AcDbEntity
  8
Make2D$可见线$普通线
100
AcDbVertex
100
AcDb2dVertex
 10
334.9974849750917
 20
569.843030134798
 30
0.0
  0
VERTEX
  5
1EB
330
1BF
100
AcDbEntity
  8
Make2D$可见线$普通线
100
AcDbVertex
100
AcDb2dVertex
 10
334.9898386350208
 20
569.7542456796732
 30
0.0
  0
VERTEX
  5
1EC
330
1BF
100
AcDbEntity
  8
Make2D$可见线$普通线
100
AcDbVertex
100
AcDb2dVertex
 10
334.933946934618
 20
569.6663642549405
 30
0.0
  0
VERTEX
  5
1ED
330
1BF
100
AcDbEntity
  8
Make2D$可见线$普通线
100
AcDbVertex
100
AcDb2dVertex
 10
334.84847445737
 20
569.617712770337
 30
0.0
  0
VERTEX
  5
1EE
330
1BF
100
AcDbEntity
  8
Make2D$可见线$普通线
100
AcDbVertex
100
AcDb2dVertex
 10
334.7634058552558
 20
569.6074037505787
 30
0.0
  0
VERTEX
  5
1EF
330
1BF
100
AcDbEntity
  8
Make2D$可见线$普通线
100
AcDbVertex
100
AcDb2dVertex
 10
334.6930320584071
 20
569.6286308856052
 30
0.0
  0
VERTEX
  5
1F0
330
1BF
100
AcDbEntity
  8
Make2D$可见线$普通线
100
AcDbVertex
100
AcDb2dVertex
 10
334.6328279013233
 20
569.6649057309843
 30
0.0
  0
VERTEX
  5
1F1
330
1BF
100
AcDbEntity
  8
Make2D$可见线$普通线
100
AcDbVertex
100
AcDb2dVertex
 10
334.5866378482441
 20
569.7296213155666
 30
0.0
  0
VERTEX
  5
1F2
330
1BF
100
AcDbEntity
  8
Make2D$可见线$普通线
100
AcDbVertex
100
AcDb2dVertex
 10
334.57658100421
 20
569.8008380297871
 30
0.0
  0
VERTEX
  5
1F3
330
1BF
100
AcDbEntity
  8
Make2D$可见线$普通线
100
AcDbVertex
100
AcDb2dVertex
 10
334.4504033422423
 20
569.7731481753964
 30
0.0
  0
SEQEND
  5
1F4
330
1BF
100
AcDbEntity
  8
Make2D$可见线$普通线
  0
POLYLINE
  5
1F5
330
1F
100
AcDbEntity
  8
Make2D$可见线$普通线
100
AcDb2dPolyline
 66
     1
 10
0.0
 20
0.0
 30
0.0
  0
VERTEX
  5
1F6
330
1F5
100
AcDbEntity
  8
Make2D$可见线$普通线
100
AcDbVertex
100
AcDb2dVertex
 10
327.230679907681
 20
569.5040612309222
 30
0.0
  0
VERTEX
  5
1F7
330
1F5
100
AcDbEntity
  8
Make2D$可见线$普通线
100
AcDbVertex
100
AcDb2dVertex
 10
327.3602054496153
 20
569.5042110500974
 30
0.0
  0
VERTEX
  5
1F8
330
1F5
100
AcDbEntity
  8
Make2D$可见线$普通线
100
AcDbVertex
100
AcDb2dVertex
 10
327.3541183584623
 20
569.9382248503363
 30
0.0
  0
VERTEX
  5
1F9
330
1F5
100
AcDbEntity
  8
Make2D$可见线$普通线
100
AcDbVertex
100
AcDb2dVertex
 10
327.5134726091404
 20
569.9383210463798
 30
0.0
  0
VERTEX
  5
1FA
330
1F5
100
AcDbEntity
  8
Make2D$可见线$普通线
100
AcDbVertex
100
AcDb2dVertex
 10
327.6268754080473
 20
569.9637915478013
 30
0.0
  0
VERTEX
  5
1FB
330
1F5
100
AcDbEntity
  8
Make2D$可见线$普通线
100
AcDbVertex
100
AcDb2dVertex
 10
327.7399311224949
 20
570.0289183202717
 30
0.0
  0
VERTEX
  5
1FC
330
1F5
100
AcDbEntity
  8
Make2D$可见线$普通线
100
AcDbVertex
100
AcDb2dVertex
 10
327.8114168592003
 20
570.1254740821099
 30
0.0
  0
VERTEX
  5
1FD
330
1F5
100
AcDbEntity
  8
Make2D$可见线$普通线
100
AcDbVertex
100
AcDb2dVertex
 10
327.8241558738156
 20
570.218623067061
 30
0.0
  0
VERTEX
  5
1FE
330
1F5
100
AcDbEntity
  8
Make2D$可见线$普通线
100
AcDbVertex
100
AcDb2dVertex
 10
327.8182702276641
 20
570.3410747149287
 30
0.0
  0
VERTEX
  5
1FF
330
1F5
100
AcDbEntity
  8
Make2D$可见线$普通线
100
AcDbVertex
100
AcDb2dVertex
 10
327.7565274595278
 20
570.4374401108145
 30
0.0
  0
VERTEX
  5
200
330
1F5
100
AcDbEntity
  8
Make2D$可见线$普通线
100
AcDbVertex
100
AcDb2dVertex
 10
327.6629843284864
 20
570.4973292070512
 30
0.0
  0
VERTEX
  5
201
330
1F5
100
AcDbEntity
  8
Make2D$可见线$普通线
100
AcDbVertex
100
AcDb2dVertex
 10
327.5474599541732
 20
570.5239025607493
 30
0.0
  0
VERTEX
  5
202
330
1F5
100
AcDbEntity
  8
Make2D$可见线$普通线
100
AcDbVertex
100
AcDb2dVertex
 10
327.4365536348865
 20
570.5341703425881
 30
0.0
  0
VERTEX
  5
203
330
1F5
100
AcDbEntity
  8
Make2D$可见线$普通线
100
AcDbVertex
100
AcDb2dVertex
 10
327.2153780761062
 20
570.5342047771659
 30
0.0
  0
VERTEX
  5
204
330
1F5
100
AcDbEntity
  8
Make2D$可见线$普通线
100
AcDbVertex
100
AcDb2dVertex
 10
327.230679907681
 20
569.5040612309222
 30
0.0
  0
SEQEND
  5
205
330
1F5
100
AcDbEntity
  8
Make2D$可见线$普通线
  0
POLYLINE
  5
206
330
1F
100
AcDbEntity
  8
Make2D$可见线$普通线
100
AcDb2dPolyline
 66
     1
 10
0.0
 20
0.0
 30
0.0
  0
VERTEX
  5
207
330
206
100
AcDbEntity
  8
Make2D$可见线$普通线
100
AcDbVertex
100
AcDb2dVertex
 10
327.3531702310507
 20
570.0596793687572
 30
0.0
  0
VERTEX
  5
208
330
206
100
AcDbEntity
  8
Make2D$可见线$普通线
100
AcDbVertex
100
AcDb2dVertex
 10
327.3482306707518
 20
570.4119944227562
 30
0.0
  0
VERTEX
  5
209
330
206
100
AcDbEntity
  8
Make2D$可见线$普通线
100
AcDbVertex
100
AcDb2dVertex
 10
327.4317147714341
 20
570.4119944227563
 30
0.0
  0
VERTEX
  5
20A
330
206
100
AcDbEntity
  8
Make2D$可见线$普通线
100
AcDbVertex
100
AcDb2dVertex
 10
327.5267098499692
 20
570.4032213848063
 30
0.0
  0
VERTEX
  5
20B
330
206
100
AcDbEntity
  8
Make2D$可见线$普通线
100
AcDbVertex
100
AcDb2dVertex
 10
327.6096333188349
 20
570.3841754388802
 30
0.0
  0
VERTEX
  5
20C
330
206
100
AcDbEntity
  8
Make2D$可见线$普通线
100
AcDbVertex
100
AcDb2dVertex
 10
327.6592878295492
 20
570.3524241612375
 30
0.0
  0
VERTEX
  5
20D
330
206
100
AcDbEntity
  8
Make2D$可见线$普通线
100
AcDbVertex
100
AcDb2dVertex
 10
327.6890858629127
 20
570.3059955078281
 30
0.0
  0
VERTEX
  5
20E
330
206
100
AcDbEntity
  8
Make2D$可见线$普通线
100
AcDbVertex
100
AcDb2dVertex
 10
327.6930549294137
 20
570.2248360246041
 30
0.0
  0
VERTEX
  5
20F
330
206
100
AcDbEntity
  8
Make2D$可见线$普通线
100
AcDbVertex
100
AcDb2dVertex
 10
327.6857495237789
 20
570.1710976217017
 30
0.0
  0
VERTEX
  5
210
330
206
100
AcDbEntity
  8
Make2D$可见线$普通线
100
AcDbVertex
100
AcDb2dVertex
 10
327.6473694377001
 20
570.1191971431805
 30
0.0
  0
VERTEX
  5
211
330
206
100
AcDbEntity
  8
Make2D$可见线$普通线
100
AcDbVertex
100
AcDb2dVertex
 10
327.5747531866923
 20
570.0773409847458
 30
0.0
  0
VERTEX
  5
212
330
206
100
AcDbEntity
  8
Make2D$可见线$普通线
100
AcDbVertex
100
AcDb2dVertex
 10
327.4964109463864
 20
570.0597436706194
 30
0.0
  0
VERTEX
  5
213
330
206
100
AcDbEntity
  8
Make2D$可见线$普通线
100
AcDbVertex
100
AcDb2dVertex
 10
327.3531702310507
 20
570.0596793687572
 30
0.0
  0
SEQEND
  5
214
330
206
100
AcDbEntity
  8
Make2D$可见线$普通线
  0
POLYLINE
  5
215
330
1F
100
AcDbEntity
  8
Make2D$可见线$普通线
100
AcDb2dPolyline
 66
     1
 10
0.0
 20
0.0
 30
0.0
  0
VERTEX
  5
216
330
215
100
AcDbEntity
  8
Make2D$可见线$普通线
100
AcDbVertex
100
AcDb2dVertex
 10
331.4665081565279
 20
569.9531506419951
 30
0.0
  0
VERTEX
  5
217
330
215
100
AcDbEntity
  8
Make2D$可见线$普通线
100
AcDbVertex
100
AcDb2dVertex
 10
331.8124787500117
 20
569.5093608908559
 30
0.0
  0
VERTEX
  5
218
330
215
100
AcDbEntity
  8
Make2D$可见线$普通线
100
AcDbVertex
100
AcDb2dVertex
 10
331.6395685282292
 20
569.5091608896324
 30
0.0
  0
VERTEX
  5
219
330
215
100
AcDbEntity
  8
Make2D$可见线$普通线
100
AcDbVertex
100
AcDb2dVertex
 10
331.3243338500256
 20
569.9406215170113
 30
0.0
  0
VERTEX
  5
21A
330
215
100
AcDbEntity
  8
Make2D$可见线$普通线
100
AcDbVertex
100
AcDb2dVertex
 10
331.2531495285786
 20
569.9405785457692
 30
0.0
  0
VERTEX
  5
21B
330
215
100
AcDbEntity
  8
Make2D$可见线$普通线
100
AcDbVertex
100
AcDb2dVertex
 10
331.2484598111228
 20
569.5087085032949
 30
0.0
  0
VERTEX
  5
21C
330
215
100
AcDbEntity
  8
Make2D$可见线$普通线
100
AcDbVertex
100
AcDb2dVertex
 10
331.1202052952735
 20
569.5076314681697
 30
0.0
  0
VERTEX
  5
21D
330
215
100
AcDbEntity
  8
Make2D$可见线$普通线
100
AcDbVertex
100
AcDb2dVertex
 10
331.1305042974841
 20
570.5335952355007
 30
0.0
  0
VERTEX
  5
21E
330
215
100
AcDbEntity
  8
Make2D$可见线$普通线
100
AcDbVertex
100
AcDb2dVertex
 10
331.3494793764704
 20
570.5335611435132
 30
0.0
  0
VERTEX
  5
21F
330
215
100
AcDbEntity
  8
Make2D$可见线$普通线
100
AcDbVertex
100
AcDb2dVertex
 10
331.4590294920438
 20
570.5233446739068
 30
0.0
  0
VERTEX
  5
220
330
215
100
AcDbEntity
  8
Make2D$可见线$普通线
100
AcDbVertex
100
AcDb2dVertex
 10
331.572749550226
 20
570.496903927877
 30
0.0
  0
VERTEX
  5
221
330
215
100
AcDbEntity
  8
Make2D$可见线$普通线
100
AcDbVertex
100
AcDb2dVertex
 10
331.6638850035996
 20
570.4373133612484
 30
0.0
  0
VERTEX
  5
222
330
215
100
AcDbEntity
  8
Make2D$可见线$普通线
100
AcDbVertex
100
AcDb2dVertex
 10
331.7226363569652
 20
570.3414277361292
 30
0.0
  0
VERTEX
  5
223
330
215
100
AcDbEntity
  8
Make2D$可见线$普通线
100
AcDbVertex
100
AcDb2dVertex
 10
331.7254419211394
 20
570.2195848709056
 30
0.0
  0
VERTEX
  5
224
330
215
100
AcDbEntity
  8
Make2D$可见线$普通线
100
AcDbVertex
100
AcDb2dVertex
 10
331.7105307947198
 20
570.1268983802373
 30
0.0
  0
VERTEX
  5
225
330
215
100
AcDbEntity
  8
Make2D$可见线$普通线
100
AcDbVertex
100
AcDb2dVertex
 10
331.6373717854946
 20
570.0308216082828
 30
0.0
  0
VERTEX
  5
226
330
215
100
AcDbEntity
  8
Make2D$可见线$普通线
100
AcDbVertex
100
AcDb2dVertex
 10
331.5238306435937
 20
569.9660178156158
 30
0.0
  0
VERTEX
  5
227
330
215
100
AcDbEntity
  8
Make2D$可见线$普通线
100
AcDbVertex
100
AcDb2dVertex
 10
331.4665081565279
 20
569.9531506419951
 30
0.0
  0
SEQEND
  5
228
330
215
100
AcDbEntity
  8
Make2D$可见线$普通线
  0
POLYLINE
  5
229
330
1F
100
AcDbEntity
  8
Make2D$可见线$普通线
100
AcDb2dPolyline
 66
     1
 10
0.0
 20
0.0
 30
0.0
  0
VERTEX
  5
22A
330
229
100
AcDbEntity
  8
Make2D$可见线$普通线
100
AcDbVertex
100
AcDb2dVertex
 10
331.5957961339427
 20
570.2257671176037
 30
0.0
  0
VERTEX
  5
22B
330
229
100
AcDbEntity
  8
Make2D$可见线$普通线
100
AcDbVertex
100
AcDb2dVertex
 10
331.5872369892315
 20
570.1722956613554
 30
0.0
  0
VERTEX
  5
22C
330
229
100
AcDbEntity
  8
Make2D$可见线$普通线
100
AcDbVertex
100
AcDb2dVertex
 10
331.5479570070983
 20
570.1206528897225
 30
0.0
  0
VERTEX
  5
22D
330
229
100
AcDbEntity
  8
Make2D$可见线$普通线
100
AcDbVertex
100
AcDb2dVertex
 10
331.4750285577895
 20
570.0790045470188
 30
0.0
  0
VERTEX
  5
22E
330
229
100
AcDbEntity
  8
Make2D$可见线$普通线
100
AcDbVertex
100
AcDb2dVertex
 10
331.3970297062958
 20
570.0614946884701
 30
0.0
  0
VERTEX
  5
22F
330
229
100
AcDbEntity
  8
Make2D$可见线$普通线
100
AcDbVertex
100
AcDb2dVertex
 10
331.2552096625451
 20
570.0614310243585
 30
0.0
  0
VERTEX
  5
230
330
229
100
AcDbEntity
  8
Make2D$可见线$普通线
100
AcDbVertex
100
AcDb2dVertex
 10
331.2590181352508
 20
570.4119944227562
 30
0.0
  0
VERTEX
  5
231
330
229
100
AcDbEntity
  8
Make2D$可见线$普通线
100
AcDbVertex
100
AcDb2dVertex
 10
331.3416723568728
 20
570.4119944227562
 30
0.0
  0
VERTEX
  5
232
330
229
100
AcDbEntity
  8
Make2D$可见线$普通线
100
AcDbVertex
100
AcDb2dVertex
 10
331.4355066740578
 20
570.403265088185
 30
0.0
  0
VERTEX
  5
233
330
229
100
AcDbEntity
  8
Make2D$可见线$普通线
100
AcDbVertex
100
AcDb2dVertex
 10
331.5171359431325
 20
570.3843139894606
 30
0.0
  0
VERTEX
  5
234
330
229
100
AcDbEntity
  8
Make2D$可见线$普通线
100
AcDbVertex
100
AcDb2dVertex
 10
331.5655134015777
 20
570.3527207687323
 30
0.0
  0
VERTEX
  5
235
330
229
100
AcDbEntity
  8
Make2D$可见线$普通线
100
AcDbVertex
100
AcDb2dVertex
 10
331.5938695209563
 20
570.3065231143894
 30
0.0
  0
VERTEX
  5
236
330
229
100
AcDbEntity
  8
Make2D$可见线$普通线
100
AcDbVertex
100
AcDb2dVertex
 10
331.5957961339427
 20
570.2257671176037
 30
0.0
  0
SEQEND
  5
237
330
229
100
AcDbEntity
  8
Make2D$可见线$普通线
  0
POLYLINE
  5
238
330
1F
100
AcDbEntity
  8
Make2D$可见线$普通线
100
AcDb2dPolyline
 66
     1
 10
0.0
 20
0.0
 30
0.0
  0
VERTEX
  5
239
330
238
100
AcDbEntity
  8
Make2D$可见线$普通线
100
AcDbVertex
100
AcDb2dVertex
 10
329.496757588632
 20
576.0266528556118
 30
0.0
  0
VERTEX
  5
23A
330
238
100
AcDbEntity
  8
Make2D$可见线$普通线
100
AcDbVertex
100
AcDb2dVertex
 10
329.4929263403148
 20
576.0616799984649
 30
0.0
  0
VERTEX
  5
23B
330
238
100
AcDbEntity
  8
Make2D$可见线$普通线
100
AcDbVertex
100
AcDb2dVertex
 10
329.4429821494362
 20
576.1373860560858
 30
0.0
  0
VERTEX
  5
23C
330
238
100
AcDbEntity
  8
Make2D$可见线$普通线
100
AcDbVertex
100
AcDb2dVertex
 10
329.4114282301826
 20
576.2432470949208
 30
0.0
  0
VERTEX
  5
23D
330
238
100
AcDbEntity
  8
Make2D$可见线$普通线
100
AcDbVertex
100
AcDb2dVertex
 10
329.4212913260905
 20
576.341880404196
 30
0.0
  0
VERTEX
  5
23E
330
238
100
AcDbEntity
  8
Make2D$可见线$普通线
100
AcDbVertex
100
AcDb2dVertex
 10
329.5804570055853
 20
576.475660426871
 30
0.0
  0
VERTEX
  5
23F
330
238
100
AcDbEntity
  8
Make2D$可见线$普通线
100
AcDbVertex
100
AcDb2dVertex
 10
330.1562588240331
 20
576.6786283450818
 30
0.0
  0
VERTEX
  5
240
330
238
100
AcDbEntity
  8
Make2D$可见线$普通线
100
AcDbVertex
100
AcDb2dVertex
 10
331.1067651448747
 20
576.8223823702183
 30
0.0
  0
VERTEX
  5
241
330
238
100
AcDbEntity
  8
Make2D$可见线$普通线
100
AcDbVertex
100
AcDb2dVertex
 10
332.2052997753373
 20
576.8886820901268
 30
0.0
  0
VERTEX
  5
242
330
238
100
AcDbEntity
  8
Make2D$可见线$普通线
100
AcDbVertex
100
AcDb2dVertex
 10
332.8821770342892
 20
576.7973639538603
 30
0.0
  0
VERTEX
  5
243
330
238
100
AcDbEntity
  8
Make2D$可见线$普通线
100
AcDbVertex
100
AcDb2dVertex
 10
333.6752925371069
 20
576.5277452708275
 30
0.0
  0
VERTEX
  5
244
330
238
100
AcDbEntity
  8
Make2D$可见线$普通线
100
AcDbVertex
100
AcDb2dVertex
 10
334.2427854041688
 20
576.0779192019693
 30
0.0
  0
VERTEX
  5
245
330
238
100
AcDbEntity
  8
Make2D$可见线$普通线
100
AcDbVertex
100
AcDb2dVertex
 10
334.7198245886345
 20
575.4586874639406
 30
0.0
  0
VERTEX
  5
246
330
238
100
AcDbEntity
  8
Make2D$可见线$普通线
100
AcDbVertex
100
AcDb2dVertex
 10
334.9357375541001
 20
574.9854896308217
 30
0.0
  0
VERTEX
  5
247
330
238
100
AcDbEntity
  8
Make2D$可见线$普通线
100
AcDbVertex
100
AcDb2dVertex
 10
334.9345062106802
 20
574.1499671748809
 30
0.0
  0
VERTEX
  5
248
330
238
100
AcDbEntity
  8
Make2D$可见线$普通线
100
AcDbVertex
100
AcDb2dVertex
 10
334.7127766649289
 20
573.7086975468478
 30
0.0
  0
VERTEX
  5
249
330
238
100
AcDbEntity
  8
Make2D$可见线$普通线
100
AcDbVertex
100
AcDb2dVertex
 10
334.4136923281582
 20
573.3512394681243
 30
0.0
  0
VERTEX
  5
24A
330
238
100
AcDbEntity
  8
Make2D$可见线$普通线
100
AcDbVertex
100
AcDb2dVertex
 10
334.2138947024997
 20
573.2161350077006
 30
0.0
  0
VERTEX
  5
24B
330
238
100
AcDbEntity
  8
Make2D$可见线$普通线
100
AcDbVertex
100
AcDb2dVertex
 10
333.9657685143312
 20
573.1290040507254
 30
0.0
  0
VERTEX
  5
24C
330
238
100
AcDbEntity
  8
Make2D$可见线$普通线
100
AcDbVertex
100
AcDb2dVertex
 10
333.6301277139682
 20
573.0678542454586
 30
0.0
  0
VERTEX
  5
24D
330
238
100
AcDbEntity
  8
Make2D$可见线$普通线
100
AcDbVertex
100
AcDb2dVertex
 10
331.8325191693037
 20
573.0556233239245
 30
0.0
  0
VERTEX
  5
24E
330
238
100
AcDbEntity
  8
Make2D$可见线$普通线
100
AcDbVertex
100
AcDb2dVertex
 10
331.5776786244834
 20
573.0417956745362
 30
0.0
  0
VERTEX
  5
24F
330
238
100
AcDbEntity
  8
Make2D$可见线$普通线
100
AcDbVertex
100
AcDb2dVertex
 10
331.411181377151
 20
572.9982874077527
 30
0.0
  0
VERTEX
  5
250
330
238
100
AcDbEntity
  8
Make2D$可见线$普通线
100
AcDbVertex
100
AcDb2dVertex
 10
331.1676683847014
 20
572.9733905097731
 30
0.0
  0
VERTEX
  5
251
330
238
100
AcDbEntity
  8
Make2D$可见线$普通线
100
AcDbVertex
100
AcDb2dVertex
 10
331.0435581699697
 20
572.9187363765685
 30
0.0
  0
VERTEX
  5
252
330
238
100
AcDbEntity
  8
Make2D$可见线$普通线
100
AcDbVertex
100
AcDb2dVertex
 10
330.7548928759439
 20
572.874407302604
 30
0.0
  0
VERTEX
  5
253
330
238
100
AcDbEntity
  8
Make2D$可见线$普通线
100
AcDbVertex
100
AcDb2dVertex
 10
330.6486533997111
 20
572.8942968191764
 30
0.0
  0
VERTEX
  5
254
330
238
100
AcDbEntity
  8
Make2D$可见线$普通线
100
AcDbVertex
100
AcDb2dVertex
 10
330.6285805228544
 20
572.9726295335661
 30
0.0
  0
VERTEX
  5
255
330
238
100
AcDbEntity
  8
Make2D$可见线$普通线
100
AcDbVertex
100
AcDb2dVertex
 10
330.6400014727549
 20
573.1358950901343
 30
0.0
  0
VERTEX
  5
256
330
238
100
AcDbEntity
  8
Make2D$可见线$普通线
100
AcDbVertex
100
AcDb2dVertex
 10
330.7095546681288
 20
573.2468772236888
 30
0.0
  0
VERTEX
  5
257
330
238
100
AcDbEntity
  8
Make2D$可见线$普通线
100
AcDbVertex
100
AcDb2dVertex
 10
330.755393430219
 20
573.3974338132773
 30
0.0
  0
VERTEX
  5
258
330
238
100
AcDbEntity
  8
Make2D$可见线$普通线
100
AcDbVertex
100
AcDb2dVertex
 10
330.8456650334604
 20
573.5451272318516
 30
0.0
  0
VERTEX
  5
259
330
238
100
AcDbEntity
  8
Make2D$可见线$普通线
100
AcDbVertex
100
AcDb2dVertex
 10
330.9713053717392
 20
573.7942992655495
 30
0.0
  0
VERTEX
  5
25A
330
238
100
AcDbEntity
  8
Make2D$可见线$普通线
100
AcDbVertex
100
AcDb2dVertex
 10
331.1388641267794
 20
574.0764969385452
 30
0.0
  0
VERTEX
  5
25B
330
238
100
AcDbEntity
  8
Make2D$可见线$普通线
100
AcDbVertex
100
AcDb2dVertex
 10
331.2195674708996
 20
574.2387557422875
 30
0.0
  0
VERTEX
  5
25C
330
238
100
AcDbEntity
  8
Make2D$可见线$普通线
100
AcDbVertex
100
AcDb2dVertex
 10
331.4593613701425
 20
574.6722925008971
 30
0.0
  0
VERTEX
  5
25D
330
238
100
AcDbEntity
  8
Make2D$可见线$普通线
100
AcDbVertex
100
AcDb2dVertex
 10
331.6211766319755
 20
574.8544533043689
 30
0.0
  0
VERTEX
  5
25E
330
238
100
AcDbEntity
  8
Make2D$可见线$普通线
100
AcDbVertex
100
AcDb2dVertex
 10
331.7081305800322
 20
575.0299803043337
 30
0.0
  0
VERTEX
  5
25F
330
238
100
AcDbEntity
  8
Make2D$可见线$普通线
100
AcDbVertex
100
AcDb2dVertex
 10
331.8569827848918
 20
575.211047376209
 30
0.0
  0
VERTEX
  5
260
330
238
100
AcDbEntity
  8
Make2D$可见线$普通线
100
AcDbVertex
100
AcDb2dVertex
 10
332.0156363773929
 20
575.3817113855655
 30
0.0
  0
VERTEX
  5
261
330
238
100
AcDbEntity
  8
Make2D$可见线$普通线
100
AcDbVertex
100
AcDb2dVertex
 10
332.0802222136614
 20
575.527989397832
 30
0.0
  0
VERTEX
  5
262
330
238
100
AcDbEntity
  8
Make2D$可见线$普通线
100
AcDbVertex
100
AcDb2dVertex
 10
332.0413271375416
 20
575.6436892948814
 30
0.0
  0
VERTEX
  5
263
330
238
100
AcDbEntity
  8
Make2D$可见线$普通线
100
AcDbVertex
100
AcDb2dVertex
 10
331.9158447216784
 20
575.6473663609638
 30
0.0
  0
VERTEX
  5
264
330
238
100
AcDbEntity
  8
Make2D$可见线$普通线
100
AcDbVertex
100
AcDb2dVertex
 10
331.7491091479226
 20
575.5007556658131
 30
0.0
  0
VERTEX
  5
265
330
238
100
AcDbEntity
  8
Make2D$可见线$普通线
100
AcDbVertex
100
AcDb2dVertex
 10
331.401716797715
 20
574.9911061039904
 30
0.0
  0
VERTEX
  5
266
330
238
100
AcDbEntity
  8
Make2D$可见线$普通线
100
AcDbVertex
100
AcDb2dVertex
 10
330.8857970962135
 20
574.1778889714395
 30
0.0
  0
VERTEX
  5
267
330
238
100
AcDbEntity
  8
Make2D$可见线$普通线
100
AcDbVertex
100
AcDb2dVertex
 10
330.49793080974
 20
573.4167292884764
 30
0.0
  0
VERTEX
  5
268
330
238
100
AcDbEntity
  8
Make2D$可见线$普通线
100
AcDbVertex
100
AcDb2dVertex
 10
330.4036951022287
 20
572.9551537282316
 30
0.0
  0
VERTEX
  5
269
330
238
100
AcDbEntity
  8
Make2D$可见线$普通线
100
AcDbVertex
100
AcDb2dVertex
 10
330.3684389634146
 20
572.8204169101596
 30
0.0
  0
VERTEX
  5
26A
330
238
100
AcDbEntity
  8
Make2D$可见线$普通线
100
AcDbVertex
100
AcDb2dVertex
 10
330.1030869375847
 20
572.6938417621665
 30
0.0
  0
VERTEX
  5
26B
330
238
100
AcDbEntity
  8
Make2D$可见线$普通线
100
AcDbVertex
100
AcDb2dVertex
 10
329.9417671414338
 20
572.6506707292679
 30
0.0
  0
VERTEX
  5
26C
330
238
100
AcDbEntity
  8
Make2D$可见线$普通线
100
AcDbVertex
100
AcDb2dVertex
 10
329.5846470212566
 20
572.5462788673574
 30
0.0
  0
VERTEX
  5
26D
330
238
100
AcDbEntity
  8
Make2D$可见线$普通线
100
AcDbVertex
100
AcDb2dVertex
 10
329.4157747240711
 20
572.4523288199547
 30
0.0
  0
VERTEX
  5
26E
330
238
100
AcDbEntity
  8
Make2D$可见线$普通线
100
AcDbVertex
100
AcDb2dVertex
 10
329.0021615013721
 20
572.2668173192842
 30
0.0
  0
VERTEX
  5
26F
330
238
100
AcDbEntity
  8
Make2D$可见线$普通线
100
AcDbVertex
100
AcDb2dVertex
 10
328.5711220520292
 20
571.9870633560078
 30
0.0
  0
VERTEX
  5
270
330
238
100
AcDbEntity
  8
Make2D$可见线$普通线
100
AcDbVertex
100
AcDb2dVertex
 10
328.4316431732896
 20
571.8304845256517
 30
0.0
  0
VERTEX
  5
271
330
238
100
AcDbEntity
  8
Make2D$可见线$普通线
100
AcDbVertex
100
AcDb2dVertex
 10
328.3739193540856
 20
571.6631328835272
 30
0.0
  0
VERTEX
  5
272
330
238
100
AcDbEntity
  8
Make2D$可见线$普通线
100
AcDbVertex
100
AcDb2dVertex
 10
328.4105771390351
 20
571.55666680616
 30
0.0
  0
VERTEX
  5
273
330
238
100
AcDbEntity
  8
Make2D$可见线$普通线
100
AcDbVertex
100
AcDb2dVertex
 10
328.5928614860921
 20
571.3723413823649
 30
0.0
  0
VERTEX
  5
274
330
238
100
AcDbEntity
  8
Make2D$可见线$普通线
100
AcDbVertex
100
AcDb2dVertex
 10
328.8400325732493
 20
571.2872589101127
 30
0.0
  0
VERTEX
  5
275
330
238
100
AcDbEntity
  8
Make2D$可见线$普通线
100
AcDbVertex
100
AcDb2dVertex
 10
329.2588691120305
 20
571.2921881219788
 30
0.0
  0
VERTEX
  5
276
330
238
100
AcDbEntity
  8
Make2D$可见线$普通线
100
AcDbVertex
100
AcDb2dVertex
 10
330.0524544800924
 20
571.3672979378173
 30
0.0
  0
VERTEX
  5
277
330
238
100
AcDbEntity
  8
Make2D$可见线$普通线
100
AcDbVertex
100
AcDb2dVertex
 10
330.7019891487389
 20
571.4853852328802
 30
0.0
  0
VERTEX
  5
278
330
238
100
AcDbEntity
  8
Make2D$可见线$普通线
100
AcDbVertex
100
AcDb2dVertex
 10
332.0954155473767
 20
571.9370264337657
 30
0.0
  0
VERTEX
  5
279
330
238
100
AcDbEntity
  8
Make2D$可见线$普通线
100
AcDbVertex
100
AcDb2dVertex
 10
332.8719138357778
 20
572.2241213606962
 30
0.0
  0
VERTEX
  5
27A
330
238
100
AcDbEntity
  8
Make2D$可见线$普通线
100
AcDbVertex
100
AcDb2dVertex
 10
333.7820950043815
 20
572.7025302258181
 30
0.0
  0
VERTEX
  5
27B
330
238
100
AcDbEntity
  8
Make2D$可见线$普通线
100
AcDbVertex
100
AcDb2dVertex
 10
333.9421528735578
 20
572.7822723952871
 30
0.0
  0
VERTEX
  5
27C
330
238
100
AcDbEntity
  8
Make2D$可见线$普通线
100
AcDbVertex
100
AcDb2dVertex
 10
334.032879363879
 20
572.8642916740823
 30
0.0
  0
VERTEX
  5
27D
330
238
100
AcDbEntity
  8
Make2D$可见线$普通线
100
AcDbVertex
100
AcDb2dVertex
 10
334.1012905868882
 20
572.9002298058921
 30
0.0
  0
VERTEX
  5
27E
330
238
100
AcDbEntity
  8
Make2D$可见线$普通线
100
AcDbVertex
100
AcDb2dVertex
 10
334.3246417423952
 20
572.9758709179811
 30
0.0
  0
VERTEX
  5
27F
330
238
100
AcDbEntity
  8
Make2D$可见线$普通线
100
AcDbVertex
100
AcDb2dVertex
 10
334.4293708485576
 20
572.9574370294322
 30
0.0
  0
VERTEX
  5
280
330
238
100
AcDbEntity
  8
Make2D$可见线$普通线
100
AcDbVertex
100
AcDb2dVertex
 10
334.4263654708591
 20
572.8590355373958
 30
0.0
  0
VERTEX
  5
281
330
238
100
AcDbEntity
  8
Make2D$可见线$普通线
100
AcDbVertex
100
AcDb2dVertex
 10
334.3480242504084
 20
572.7730148415407
 30
0.0
  0
VERTEX
  5
282
330
238
100
AcDbEntity
  8
Make2D$可见线$普通线
100
AcDbVertex
100
AcDb2dVertex
 10
334.2550808709192
 20
572.6170338416385
 30
0.0
  0
VERTEX
  5
283
330
238
100
AcDbEntity
  8
Make2D$可见线$普通线
100
AcDbVertex
100
AcDb2dVertex
 10
334.2133315339589
 20
572.4831608326392
 30
0.0
  0
VERTEX
  5
284
330
238
100
AcDbEntity
  8
Make2D$可见线$普通线
100
AcDbVertex
100
AcDb2dVertex
 10
334.1425663234435
 20
572.3576530107993
 30
0.0
  0
VERTEX
  5
285
330
238
100
AcDbEntity
  8
Make2D$可见线$普通线
100
AcDbVertex
100
AcDb2dVertex
 10
333.9194985353185
 20
572.2390967473718
 30
0.0
  0
VERTEX
  5
286
330
238
100
AcDbEntity
  8
Make2D$可见线$普通线
100
AcDbVertex
100
AcDb2dVertex
 10
333.6587098393204
 20
572.0787849945265
 30
0.0
  0
VERTEX
  5
287
330
238
100
AcDbEntity
  8
Make2D$可见线$普通线
100
AcDbVertex
100
AcDb2dVertex
 10
333.5476196613918
 20
572.0580550797747
 30
0.0
  0
VERTEX
  5
288
330
238
100
AcDbEntity
  8
Make2D$可见线$普通线
100
AcDbVertex
100
AcDb2dVertex
 10
333.4879084243611
 20
572.0875405842515
 30
0.0
  0
VERTEX
  5
289
330
238
100
AcDbEntity
  8
Make2D$可见线$普通线
100
AcDbVertex
100
AcDb2dVertex
 10
333.4222442479207
 20
572.1772362430903
 30
0.0
  0
VERTEX
  5
28A
330
238
100
AcDbEntity
  8
Make2D$可见线$普通线
100
AcDbVertex
100
AcDb2dVertex
 10
333.3566075863228
 20
572.182775853491
 30
0.0
  0
VERTEX
  5
28B
330
238
100
AcDbEntity
  8
Make2D$可见线$普通线
100
AcDbVertex
100
AcDb2dVertex
 10
333.1587503626052
 20
572.0625926944999
 30
0.0
  0
VERTEX
  5
28C
330
238
100
AcDbEntity
  8
Make2D$可见线$普通线
100
AcDbVertex
100
AcDb2dVertex
 10
332.9548660425303
 20
571.8502994793967
 30
0.0
  0
VERTEX
  5
28D
330
238
100
AcDbEntity
  8
Make2D$可见线$普通线
100
AcDbVertex
100
AcDb2dVertex
 10
332.986409087626
 20
571.742097403844
 30
0.0
  0
VERTEX
  5
28E
330
238
100
AcDbEntity
  8
Make2D$可见线$普通线
100
AcDbVertex
100
AcDb2dVertex
 10
333.1373218403254
 20
571.6778356970303
 30
0.0
  0
VERTEX
  5
28F
330
238
100
AcDbEntity
  8
Make2D$可见线$普通线
100
AcDbVertex
100
AcDb2dVertex
 10
333.374683292453
 20
571.7014374010795
 30
0.0
  0
VERTEX
  5
290
330
238
100
AcDbEntity
  8
Make2D$可见线$普通线
100
AcDbVertex
100
AcDb2dVertex
 10
333.9960500174905
 20
572.0000645432207
 30
0.0
  0
VERTEX
  5
291
330
238
100
AcDbEntity
  8
Make2D$可见线$普通线
100
AcDbVertex
100
AcDb2dVertex
 10
334.1775087860701
 20
572.0591760610195
 30
0.0
  0
VERTEX
  5
292
330
238
100
AcDbEntity
  8
Make2D$可见线$普通线
100
AcDbVertex
100
AcDb2dVertex
 10
334.277034604323
 20
572.0255199397989
 30
0.0
  0
VERTEX
  5
293
330
238
100
AcDbEntity
  8
Make2D$可见线$普通线
100
AcDbVertex
100
AcDb2dVertex
 10
334.4150449793842
 20
571.9745347672331
 30
0.0
  0
VERTEX
  5
294
330
238
100
AcDbEntity
  8
Make2D$可见线$普通线
100
AcDbVertex
100
AcDb2dVertex
 10
334.5902067238118
 20
571.9325053245254
 30
0.0
  0
VERTEX
  5
295
330
238
100
AcDbEntity
  8
Make2D$可见线$普通线
100
AcDbVertex
100
AcDb2dVertex
 10
334.733536236986
 20
571.9290992713212
 30
0.0
  0
VERTEX
  5
296
330
238
100
AcDbEntity
  8
Make2D$可见线$普通线
100
AcDbVertex
100
AcDb2dVertex
 10
335.0696730453446
 20
572.068198833178
 30
0.0
  0
VERTEX
  5
297
330
238
100
AcDbEntity
  8
Make2D$可见线$普通线
100
AcDbVertex
100
AcDb2dVertex
 10
335.4838016716953
 20
572.2795555299274
 30
0.0
  0
VERTEX
  5
298
330
238
100
AcDbEntity
  8
Make2D$可见线$普通线
100
AcDbVertex
100
AcDb2dVertex
 10
335.7136877353491
 20
572.4620175041516
 30
0.0
  0
VERTEX
  5
299
330
238
100
AcDbEntity
  8
Make2D$可见线$普通线
100
AcDbVertex
100
AcDb2dVertex
 10
335.8725304316395
 20
572.5548631053518
 30
0.0
  0
VERTEX
  5
29A
330
238
100
AcDbEntity
  8
Make2D$可见线$普通线
100
AcDbVertex
100
AcDb2dVertex
 10
335.9291091413664
 20
572.5671517001826
 30
0.0
  0
VERTEX
  5
29B
330
238
100
AcDbEntity
  8
Make2D$可见线$普通线
100
AcDbVertex
100
AcDb2dVertex
 10
335.9975656437468
 20
572.5507864610935
 30
0.0
  0
VERTEX
  5
29C
330
238
100
AcDbEntity
  8
Make2D$可见线$普通线
100
AcDbVertex
100
AcDb2dVertex
 10
336.0614576220129
 20
572.4871978869744
 30
0.0
  0
VERTEX
  5
29D
330
238
100
AcDbEntity
  8
Make2D$可见线$普通线
100
AcDbVertex
100
AcDb2dVertex
 10
336.140773283197
 20
572.350239749577
 30
0.0
  0
VERTEX
  5
29E
330
238
100
AcDbEntity
  8
Make2D$可见线$普通线
100
AcDbVertex
100
AcDb2dVertex
 10
336.2207423039355
 20
572.2692359155463
 30
0.0
  0
VERTEX
  5
29F
330
238
100
AcDbEntity
  8
Make2D$可见线$普通线
100
AcDbVertex
100
AcDb2dVertex
 10
336.3632543671598
 20
572.150645280427
 30
0.0
  0
VERTEX
  5
2A0
330
238
100
AcDbEntity
  8
Make2D$可见线$普通线
100
AcDbVertex
100
AcDb2dVertex
 10
336.5389988013728
 20
572.0974568549336
 30
0.0
  0
VERTEX
  5
2A1
330
238
100
AcDbEntity
  8
Make2D$可见线$普通线
100
AcDbVertex
100
AcDb2dVertex
 10
336.6861760547249
 20
572.0827515057745
 30
0.0
  0
VERTEX
  5
2A2
330
238
100
AcDbEntity
  8
Make2D$可见线$普通线
100
AcDbVertex
100
AcDb2dVertex
 10
336.8302608095128
 20
572.1232506353789
 30
0.0
  0
VERTEX
  5
2A3
330
238
100
AcDbEntity
  8
Make2D$可见线$普通线
100
AcDbVertex
100
AcDb2dVertex
 10
337.0219182383079
 20
572.186239629794
 30
0.0
  0
VERTEX
  5
2A4
330
238
100
AcDbEntity
  8
Make2D$可见线$普通线
100
AcDbVertex
100
AcDb2dVertex
 10
337.1179193659302
 20
572.1925176472903
 30
0.0
  0
VERTEX
  5
2A5
330
238
100
AcDbEntity
  8
Make2D$可见线$普通线
100
AcDbVertex
100
AcDb2dVertex
 10
337.3219822650451
 20
572.1288491327474
 30
0.0
  0
VERTEX
  5
2A6
330
238
100
AcDbEntity
  8
Make2D$可见线$普通线
100
AcDbVertex
100
AcDb2dVertex
 10
337.4396182652666
 20
572.1362576179455
 30
0.0
  0
VERTEX
  5
2A7
330
238
100
AcDbEntity
  8
Make2D$可见线$普通线
100
AcDbVertex
100
AcDb2dVertex
 10
337.5393135068663
 20
572.1894018872355
 30
0.0
  0
VERTEX
  5
2A8
330
238
100
AcDbEntity
  8
Make2D$可见线$普通线
100
AcDbVertex
100
AcDb2dVertex
 10
337.6746571563459
 20
572.3110874932012
 30
0.0
  0
VERTEX
  5
2A9
330
238
100
AcDbEntity
  8
Make2D$可见线$普通线
100
AcDbVertex
100
AcDb2dVertex
 10
337.7643199984474
 20
572.3885342343438
 30
0.0
  0
VERTEX
  5
2AA
330
238
100
AcDbEntity
  8
Make2D$可见线$普通线
100
AcDbVertex
100
AcDb2dVertex
 10
337.8820158381986
 20
572.4173752802608
 30
0.0
  0
VERTEX
  5
2AB
330
238
100
AcDbEntity
  8
Make2D$可见线$普通线
100
AcDbVertex
100
AcDb2dVertex
 10
337.9561704970744
 20
572.3895316274054
 30
0.0
  0
VERTEX
  5
2AC
330
238
100
AcDbEntity
  8
Make2D$可见线$普通线
100
AcDbVertex
100
AcDb2dVertex
 10
338.0597013136277
 20
572.2976605745644
 30
0.0
  0
VERTEX
  5
2AD
330
238
100
AcDbEntity
  8
Make2D$可见线$普通线
100
AcDbVertex
100
AcDb2dVertex
 10
338.2312102916715
 20
572.2335938106824
 30
0.0
  0
VERTEX
  5
2AE
330
238
100
AcDbEntity
  8
Make2D$可见线$普通线
100
AcDbVertex
100
AcDb2dVertex
 10
338.4827421957697
 20
572.2648080004054
 30
0.0
  0
VERTEX
  5
2AF
330
238
100
AcDbEntity
  8
Make2D$可见线$普通线
100
AcDbVertex
100
AcDb2dVertex
 10
338.7575422246546
 20
572.3397208374085
 30
0.0
  0
VERTEX
  5
2B0
330
238
100
AcDbEntity
  8
Make2D$可见线$普通线
100
AcDbVertex
100
AcDb2dVertex
 10
339.3014641202931
 20
572.6388360895595
 30
0.0
  0
VERTEX
  5
2B1
330
238
100
AcDbEntity
  8
Make2D$可见线$普通线
100
AcDbVertex
100
AcDb2dVertex
 10
339.5655108551952
 20
572.8229549523443
 30
0.0
  0
VERTEX
  5
2B2
330
238
100
AcDbEntity
  8
Make2D$可见线$普通线
100
AcDbVertex
100
AcDb2dVertex
 10
339.857630564373
 20
572.9856773000813
 30
0.0
  0
VERTEX
  5
2B3
330
238
100
AcDbEntity
  8
Make2D$可见线$普通线
100
AcDbVertex
100
AcDb2dVertex
 10
340.1270641806876
 20
573.2121505476819
 30
0.0
  0
VERTEX
  5
2B4
330
238
100
AcDbEntity
  8
Make2D$可见线$普通线
100
AcDbVertex
100
AcDb2dVertex
 10
340.3837272713133
 20
573.4117087685675
 30
0.0
  0
VERTEX
  5
2B5
330
238
100
AcDbEntity
  8
Make2D$可见线$普通线
100
AcDbVertex
100
AcDb2dVertex
 10
340.5539270843777
 20
573.5015193138315
 30
0.0
  0
VERTEX
  5
2B6
330
238
100
AcDbEntity
  8
Make2D$可见线$普通线
100
AcDbVertex
100
AcDb2dVertex
 10
340.6263076776431
 20
573.4936866650305
 30
0.0
  0
VERTEX
  5
2B7
330
238
100
AcDbEntity
  8
Make2D$可见线$普通线
100
AcDbVertex
100
AcDb2dVertex
 10
340.6256102346313
 20
573.4082571654508
 30
0.0
  0
VERTEX
  5
2B8
330
238
100
AcDbEntity
  8
Make2D$可见线$普通线
100
AcDbVertex
100
AcDb2dVertex
 10
340.4572127038235
 20
573.2461667037092
 30
0.0
  0
VERTEX
  5
2B9
330
238
100
AcDbEntity
  8
Make2D$可见线$普通线
100
AcDbVertex
100
AcDb2dVertex
 10
340.1965609944691
 20
572.8449156126974
 30
0.0
  0
VERTEX
  5
2BA
330
238
100
AcDbEntity
  8
Make2D$可见线$普通线
100
AcDbVertex
100
AcDb2dVertex
 10
340.0958630695784
 20
572.7015897391033
 30
0.0
  0
VERTEX
  5
2BB
330
238
100
AcDbEntity
  8
Make2D$可见线$普通线
100
AcDbVertex
100
AcDb2dVertex
 10
339.994165778689
 20
572.6480065415763
 30
0.0
  0
VERTEX
  5
2BC
330
238
100
AcDbEntity
  8
Make2D$可见线$普通线
100
AcDbVertex
100
AcDb2dVertex
 10
339.8594041719427
 20
572.652290293745
 30
0.0
  0
VERTEX
  5
2BD
330
238
100
AcDbEntity
  8
Make2D$可见线$普通线
100
AcDbVertex
100
AcDb2dVertex
 10
339.7416502215129
 20
572.6432040147223
 30
0.0
  0
VERTEX
  5
2BE
330
238
100
AcDbEntity
  8
Make2D$可见线$普通线
100
AcDbVertex
100
AcDb2dVertex
 10
339.6945394884622
 20
572.5949630539634
 30
0.0
  0
VERTEX
  5
2BF
330
238
100
AcDbEntity
  8
Make2D$可见线$普通线
100
AcDbVertex
100
AcDb2dVertex
 10
339.6807397829597
 20
572.5290106084411
 30
0.0
  0
VERTEX
  5
2C0
330
238
100
AcDbEntity
  8
Make2D$可见线$普通线
100
AcDbVertex
100
AcDb2dVertex
 10
339.6952700937959
 20
572.4431150561179
 30
0.0
  0
VERTEX
  5
2C1
330
238
100
AcDbEntity
  8
Make2D$可见线$普通线
100
AcDbVertex
100
AcDb2dVertex
 10
339.7498288954978
 20
572.3572457783123
 30
0.0
  0
VERTEX
  5
2C2
330
238
100
AcDbEntity
  8
Make2D$可见线$普通线
100
AcDbVertex
100
AcDb2dVertex
 10
339.7494057088498
 20
572.2386704371002
 30
0.0
  0
VERTEX
  5
2C3
330
238
100
AcDbEntity
  8
Make2D$可见线$普通线
100
AcDbVertex
100
AcDb2dVertex
 10
339.6903949436425
 20
572.1368336074362
 30
0.0
  0
VERTEX
  5
2C4
330
238
100
AcDbEntity
  8
Make2D$可见线$普通线
100
AcDbVertex
100
AcDb2dVertex
 10
339.4342830846467
 20
571.8556330177148
 30
0.0
  0
VERTEX
  5
2C5
330
238
100
AcDbEntity
  8
Make2D$可见线$普通线
100
AcDbVertex
100
AcDb2dVertex
 10
339.2817383553226
 20
571.6192437731979
 30
0.0
  0
VERTEX
  5
2C6
330
238
100
AcDbEntity
  8
Make2D$可见线$普通线
100
AcDbVertex
100
AcDb2dVertex
 10
339.0476710583011
 20
571.3331662157365
 30
0.0
  0
VERTEX
  5
2C7
330
238
100
AcDbEntity
  8
Make2D$可见线$普通线
100
AcDbVertex
100
AcDb2dVertex
 10
338.9208130898064
 20
571.1058160532805
 30
0.0
  0
VERTEX
  5
2C8
330
238
100
AcDbEntity
  8
Make2D$可见线$普通线
100
AcDbVertex
100
AcDb2dVertex
 10
338.7353349481608
 20
570.9080841284847
 30
0.0
  0
VERTEX
  5
2C9
330
238
100
AcDbEntity
  8
Make2D$可见线$普通线
100
AcDbVertex
100
AcDb2dVertex
 10
338.5866180892678
 20
570.6521998667685
 30
0.0
  0
VERTEX
  5
2CA
330
238
100
AcDbEntity
  8
Make2D$可见线$普通线
100
AcDbVertex
100
AcDb2dVertex
 10
338.127423244825
 20
570.0578764568068
 30
0.0
  0
VERTEX
  5
2CB
330
238
100
AcDbEntity
  8
Make2D$可见线$普通线
100
AcDbVertex
100
AcDb2dVertex
 10
338.0685716613436
 20
569.9366151902312
 30
0.0
  0
VERTEX
  5
2CC
330
238
100
AcDbEntity
  8
Make2D$可见线$普通线
100
AcDbVertex
100
AcDb2dVertex
 10
337.8782828717582
 20
569.6404950073542
 30
0.0
  0
VERTEX
  5
2CD
330
238
100
AcDbEntity
  8
Make2D$可见线$普通线
100
AcDbVertex
100
AcDb2dVertex
 10
337.7939696443708
 20
569.4749990567742
 30
0.0
  0
VERTEX
  5
2CE
330
238
100
AcDbEntity
  8
Make2D$可见线$普通线
100
AcDbVertex
100
AcDb2dVertex
 10
337.6176822107916
 20
569.2674813374751
 30
0.0
  0
VERTEX
  5
2CF
330
238
100
AcDbEntity
  8
Make2D$可见线$普通线
100
AcDbVertex
100
AcDb2dVertex
 10
337.595739943923
 20
569.1847564194201
 30
0.0
  0
VERTEX
  5
2D0
330
238
100
AcDbEntity
  8
Make2D$可见线$普通线
100
AcDbVertex
100
AcDb2dVertex
 10
337.4599734492051
 20
568.9463721333028
 30
0.0
  0
VERTEX
  5
2D1
330
238
100
AcDbEntity
  8
Make2D$可见线$普通线
100
AcDbVertex
100
AcDb2dVertex
 10
337.4541170257892
 20
568.8310744470369
 30
0.0
  0
VERTEX
  5
2D2
330
238
100
AcDbEntity
  8
Make2D$可见线$普通线
100
AcDbVertex
100
AcDb2dVertex
 10
337.4156474676363
 20
568.7675433210587
 30
0.0
  0
VERTEX
  5
2D3
330
238
100
AcDbEntity
  8
Make2D$可见线$普通线
100
AcDbVertex
100
AcDb2dVertex
 10
337.3107787605622
 20
568.3961082989256
 30
0.0
  0
VERTEX
  5
2D4
330
238
100
AcDbEntity
  8
Make2D$可见线$普通线
100
AcDbVertex
100
AcDb2dVertex
 10
337.2734325145454
 20
568.2843624431996
 30
0.0
  0
VERTEX
  5
2D5
330
238
100
AcDbEntity
  8
Make2D$可见线$普通线
100
AcDbVertex
100
AcDb2dVertex
 10
337.2860020229168
 20
568.1827409496511
 30
0.0
  0
VERTEX
  5
2D6
330
238
100
AcDbEntity
  8
Make2D$可见线$普通线
100
AcDbVertex
100
AcDb2dVertex
 10
337.2819462366375
 20
568.1368630812262
 30
0.0
  0
VERTEX
  5
2D7
330
238
100
AcDbEntity
  8
Make2D$可见线$普通线
100
AcDbVertex
100
AcDb2dVertex
 10
337.3042499745679
 20
567.9488490228383
 30
0.0
  0
VERTEX
  5
2D8
330
238
100
AcDbEntity
  8
Make2D$可见线$普通线
100
AcDbVertex
100
AcDb2dVertex
 10
337.3984630325197
 20
567.7941412479232
 30
0.0
  0
VERTEX
  5
2D9
330
238
100
AcDbEntity
  8
Make2D$可见线$普通线
100
AcDbVertex
100
AcDb2dVertex
 10
337.5000848820628
 20
567.7195533793373
 30
0.0
  0
VERTEX
  5
2DA
330
238
100
AcDbEntity
  8
Make2D$可见线$普通线
100
AcDbVertex
100
AcDb2dVertex
 10
337.6299863666816
 20
567.7183763262925
 30
0.0
  0
VERTEX
  5
2DB
330
238
100
AcDbEntity
  8
Make2D$可见线$普通线
100
AcDbVertex
100
AcDb2dVertex
 10
337.7929771033309
 20
567.7791238196703
 30
0.0
  0
VERTEX
  5
2DC
330
238
100
AcDbEntity
  8
Make2D$可见线$普通线
100
AcDbVertex
100
AcDb2dVertex
 10
338.0401161003888
 20
567.9286549328076
 30
0.0
  0
VERTEX
  5
2DD
330
238
100
AcDbEntity
  8
Make2D$可见线$普通线
100
AcDbVertex
100
AcDb2dVertex
 10
338.4485566414929
 20
568.3183929873427
 30
0.0
  0
VERTEX
  5
2DE
330
238
100
AcDbEntity
  8
Make2D$可见线$普通线
100
AcDbVertex
100
AcDb2dVertex
 10
338.7825791786665
 20
568.7128580220939
 30
0.0
  0
VERTEX
  5
2DF
330
238
100
AcDbEntity
  8
Make2D$可见线$普通线
100
AcDbVertex
100
AcDb2dVertex
 10
338.8158422860176
 20
568.7857272851852
 30
0.0
  0
VERTEX
  5
2E0
330
238
100
AcDbEntity
  8
Make2D$可见线$普通线
100
AcDbVertex
100
AcDb2dVertex
 10
338.8632403517467
 20
568.8711836602896
 30
0.0
  0
VERTEX
  5
2E1
330
238
100
AcDbEntity
  8
Make2D$可见线$普通线
100
AcDbVertex
100
AcDb2dVertex
 10
339.1424169800474
 20
569.2494383986789
 30
0.0
  0
VERTEX
  5
2E2
330
238
100
AcDbEntity
  8
Make2D$可见线$普通线
100
AcDbVertex
100
AcDb2dVertex
 10
339.331628524167
 20
569.548164881101
 30
0.0
  0
VERTEX
  5
2E3
330
238
100
AcDbEntity
  8
Make2D$可见线$普通线
100
AcDbVertex
100
AcDb2dVertex
 10
339.379662104775
 20
569.6949235385106
 30
0.0
  0
VERTEX
  5
2E4
330
238
100
AcDbEntity
  8
Make2D$可见线$普通线
100
AcDbVertex
100
AcDb2dVertex
 10
339.5286111769447
 20
569.8913931893851
 30
0.0
  0
VERTEX
  5
2E5
330
238
100
AcDbEntity
  8
Make2D$可见线$普通线
100
AcDbVertex
100
AcDb2dVertex
 10
339.633819153158
 20
570.1306980258885
 30
0.0
  0
VERTEX
  5
2E6
330
238
100
AcDbEntity
  8
Make2D$可见线$普通线
100
AcDbVertex
100
AcDb2dVertex
 10
339.732313437216
 20
570.3142259185748
 30
0.0
  0
VERTEX
  5
2E7
330
238
100
AcDbEntity
  8
Make2D$可见线$普通线
100
AcDbVertex
100
AcDb2dVertex
 10
339.8097394634921
 20
570.5554210496766
 30
0.0
  0
VERTEX
  5
2E8
330
238
100
AcDbEntity
  8
Make2D$可见线$普通线
100
AcDbVertex
100
AcDb2dVertex
 10
339.908693039083
 20
570.820511858602
 30
0.0
  0
VERTEX
  5
2E9
330
238
100
AcDbEntity
  8
Make2D$可见线$普通线
100
AcDbVertex
100
AcDb2dVertex
 10
339.9512643811486
 20
570.9124961463601
 30
0.0
  0
VERTEX
  5
2EA
330
238
100
AcDbEntity
  8
Make2D$可见线$普通线
100
AcDbVertex
100
AcDb2dVertex
 10
339.972528890475
 20
571.1210133768116
 30
0.0
  0
VERTEX
  5
2EB
330
238
100
AcDbEntity
  8
Make2D$可见线$普通线
100
AcDbVertex
100
AcDb2dVertex
 10
340.0157613256388
 20
571.1748397089169
 30
0.0
  0
VERTEX
  5
2EC
330
238
100
AcDbEntity
  8
Make2D$可见线$普通线
100
AcDbVertex
100
AcDb2dVertex
 10
340.0752191632007
 20
571.4883832050417
 30
0.0
  0
VERTEX
  5
2ED
330
238
100
AcDbEntity
  8
Make2D$可见线$普通线
100
AcDbVertex
100
AcDb2dVertex
 10
340.110117017321
 20
571.7994478073073
 30
0.0
  0
VERTEX
  5
2EE
330
238
100
AcDbEntity
  8
Make2D$可见线$普通线
100
AcDbVertex
100
AcDb2dVertex
 10
340.0974916463158
 20
572.0300324814295
 30
0.0
  0
VERTEX
  5
2EF
330
238
100
AcDbEntity
  8
Make2D$可见线$普通线
100
AcDbVertex
100
AcDb2dVertex
 10
340.1039264731131
 20
572.1269150384229
 30
0.0
  0
VERTEX
  5
2F0
330
238
100
AcDbEntity
  8
Make2D$可见线$普通线
100
AcDbVertex
100
AcDb2dVertex
 10
340.1311168513517
 20
572.1673488716459
 30
0.0
  0
VERTEX
  5
2F1
330
238
100
AcDbEntity
  8
Make2D$可见线$普通线
100
AcDbVertex
100
AcDb2dVertex
 10
340.1786408893852
 20
572.1949594880471
 30
0.0
  0
VERTEX
  5
2F2
330
238
100
AcDbEntity
  8
Make2D$可见线$普通线
100
AcDbVertex
100
AcDb2dVertex
 10
340.2443046656972
 20
572.2085779574668
 30
0.0
  0
VERTEX
  5
2F3
330
238
100
AcDbEntity
  8
Make2D$可见线$普通线
100
AcDbVertex
100
AcDb2dVertex
 10
340.5242486852505
 20
572.2065768529512
 30
0.0
  0
VERTEX
  5
2F4
330
238
100
AcDbEntity
  8
Make2D$可见线$普通线
100
AcDbVertex
100
AcDb2dVertex
 10
340.8357252456224
 20
572.2556977193505
 30
0.0
  0
VERTEX
  5
2F5
330
238
100
AcDbEntity
  8
Make2D$可见线$普通线
100
AcDbVertex
100
AcDb2dVertex
 10
341.0135725899029
 20
572.3240101515354
 30
0.0
  0
VERTEX
  5
2F6
330
238
100
AcDbEntity
  8
Make2D$可见线$普通线
100
AcDbVertex
100
AcDb2dVertex
 10
341.1077615657173
 20
572.3237766212958
 30
0.0
  0
VERTEX
  5
2F7
330
238
100
AcDbEntity
  8
Make2D$可见线$普通线
100
AcDbVertex
100
AcDb2dVertex
 10
341.6851615086251
 20
572.4694779316776
 30
0.0
  0
VERTEX
  5
2F8
330
238
100
AcDbEntity
  8
Make2D$可见线$普通线
100
AcDbVertex
100
AcDb2dVertex
 10
341.7410172901708
 20
572.4597840040454
 30
0.0
  0
VERTEX
  5
2F9
330
238
100
AcDbEntity
  8
Make2D$可见线$普通线
100
AcDbVertex
100
AcDb2dVertex
 10
341.7906685968739
 20
572.4058351052629
 30
0.0
  0
VERTEX
  5
2FA
330
238
100
AcDbEntity
  8
Make2D$可见线$普通线
100
AcDbVertex
100
AcDb2dVertex
 10
341.8313203857566
 20
572.2939195575992
 30
0.0
  0
VERTEX
  5
2FB
330
238
100
AcDbEntity
  8
Make2D$可见线$普通线
100
AcDbVertex
100
AcDb2dVertex
 10
341.9755044619466
 20
572.1626306796863
 30
0.0
  0
VERTEX
  5
2FC
330
238
100
AcDbEntity
  8
Make2D$可见线$普通线
100
AcDbVertex
100
AcDb2dVertex
 10
342.3259862840202
 20
572.0739897268916
 30
0.0
  0
VERTEX
  5
2FD
330
238
100
AcDbEntity
  8
Make2D$可见线$普通线
100
AcDbVertex
100
AcDb2dVertex
 10
342.5708207646655
 20
572.0927282402223
 30
0.0
  0
VERTEX
  5
2FE
330
238
100
AcDbEntity
  8
Make2D$可见线$普通线
100
AcDbVertex
100
AcDb2dVertex
 10
342.9838812419509
 20
572.2031876869224
 30
0.0
  0
VERTEX
  5
2FF
330
238
100
AcDbEntity
  8
Make2D$可见线$普通线
100
AcDbVertex
100
AcDb2dVertex
 10
343.1387311557733
 20
572.2925700097175
 30
0.0
  0
VERTEX
  5
300
330
238
100
AcDbEntity
  8
Make2D$可见线$普通线
100
AcDbVertex
100
AcDb2dVertex
 10
343.2248767943552
 20
572.3828438393155
 30
0.0
  0
VERTEX
  5
301
330
238
100
AcDbEntity
  8
Make2D$可见线$普通线
100
AcDbVertex
100
AcDb2dVertex
 10
343.2517494180119
 20
572.4763817588253
 30
0.0
  0
VERTEX
  5
302
330
238
100
AcDbEntity
  8
Make2D$可见线$普通线
100
AcDbVertex
100
AcDb2dVertex
 10
343.2495147500731
 20
572.6674033901983
 30
0.0
  0
VERTEX
  5
303
330
238
100
AcDbEntity
  8
Make2D$可见线$普通线
100
AcDbVertex
100
AcDb2dVertex
 10
343.2680475876642
 20
572.7305229857458
 30
0.0
  0
VERTEX
  5
304
330
238
100
AcDbEntity
  8
Make2D$可见线$普通线
100
AcDbVertex
100
AcDb2dVertex
 10
343.3154391390221
 20
572.7531330564336
 30
0.0
  0
VERTEX
  5
305
330
238
100
AcDbEntity
  8
Make2D$可见线$普通线
100
AcDbVertex
100
AcDb2dVertex
 10
343.3670323191831
 20
572.7355552073641
 30
0.0
  0
VERTEX
  5
306
330
238
100
AcDbEntity
  8
Make2D$可见线$普通线
100
AcDbVertex
100
AcDb2dVertex
 10
343.5135075482657
 20
572.6799281253399
 30
0.0
  0
VERTEX
  5
307
330
238
100
AcDbEntity
  8
Make2D$可见线$普通线
100
AcDbVertex
100
AcDb2dVertex
 10
343.6889407298464
 20
572.5394291109492
 30
0.0
  0
VERTEX
  5
308
330
238
100
AcDbEntity
  8
Make2D$可见线$普通线
100
AcDbVertex
100
AcDb2dVertex
 10
343.7238928645455
 20
572.4260890326802
 30
0.0
  0
VERTEX
  5
309
330
238
100
AcDbEntity
  8
Make2D$可见线$普通线
100
AcDbVertex
100
AcDb2dVertex
 10
343.6648047605099
 20
572.2674850640401
 30
0.0
  0
VERTEX
  5
30A
330
238
100
AcDbEntity
  8
Make2D$可见线$普通线
100
AcDbVertex
100
AcDb2dVertex
 10
343.6801708502907
 20
572.1593873446758
 30
0.0
  0
VERTEX
  5
30B
330
238
100
AcDbEntity
  8
Make2D$可见线$普通线
100
AcDbVertex
100
AcDb2dVertex
 10
343.7748443910592
 20
572.101609755165
 30
0.0
  0
VERTEX
  5
30C
330
238
100
AcDbEntity
  8
Make2D$可见线$普通线
100
AcDbVertex
100
AcDb2dVertex
 10
343.916453120174
 20
572.1228771631888
 30
0.0
  0
VERTEX
  5
30D
330
238
100
AcDbEntity
  8
Make2D$可见线$普通线
100
AcDbVertex
100
AcDb2dVertex
 10
344.0387127550683
 20
572.2329629085282
 30
0.0
  0
VERTEX
  5
30E
330
238
100
AcDbEntity
  8
Make2D$可见线$普通线
100
AcDbVertex
100
AcDb2dVertex
 10
344.3875219842226
 20
572.4965534878519
 30
0.0
  0
VERTEX
  5
30F
330
238
100
AcDbEntity
  8
Make2D$可见线$普通线
100
AcDbVertex
100
AcDb2dVertex
 10
344.5529465974278
 20
572.5828141938042
 30
0.0
  0
VERTEX
  5
310
330
238
100
AcDbEntity
  8
Make2D$可见线$普通线
100
AcDbVertex
100
AcDb2dVertex
 10
344.6916093181646
 20
572.5703758671839
 30
0.0
  0
VERTEX
  5
311
330
238
100
AcDbEntity
  8
Make2D$可见线$普通线
100
AcDbVertex
100
AcDb2dVertex
 10
344.8219408489515
 20
572.4977804206472
 30
0.0
  0
VERTEX
  5
312
330
238
100
AcDbEntity
  8
Make2D$可见线$普通线
100
AcDbVertex
100
AcDb2dVertex
 10
345.1626826703055
 20
572.4127064022387
 30
0.0
  0
VERTEX
  5
313
330
238
100
AcDbEntity
  8
Make2D$可见线$普通线
100
AcDbVertex
100
AcDb2dVertex
 10
345.8902618979554
 20
572.332093514464
 30
0.0
  0
VERTEX
  5
314
330
238
100
AcDbEntity
  8
Make2D$可见线$普通线
100
AcDbVertex
100
AcDb2dVertex
 10
347.4038619325599
 20
572.3468468182889
 30
0.0
  0
VERTEX
  5
315
330
238
100
AcDbEntity
  8
Make2D$可见线$普通线
100
AcDbVertex
100
AcDb2dVertex
 10
348.3479092639398
 20
572.394887100904
 30
0.0
  0
VERTEX
  5
316
330
238
100
AcDbEntity
  8
Make2D$可见线$普通线
100
AcDbVertex
100
AcDb2dVertex
 10
348.4854307415914
 20
572.447665609046
 30
0.0
  0
VERTEX
  5
317
330
238
100
AcDbEntity
  8
Make2D$可见线$普通线
100
AcDbVertex
100
AcDb2dVertex
 10
348.5200841971716
 20
572.5106168959281
 30
0.0
  0
VERTEX
  5
318
330
238
100
AcDbEntity
  8
Make2D$可见线$普通线
100
AcDbVertex
100
AcDb2dVertex
 10
348.5110395881712
 20
572.5458004265479
 30
0.0
  0
VERTEX
  5
319
330
238
100
AcDbEntity
  8
Make2D$可见线$普通线
100
AcDbVertex
100
AcDb2dVertex
 10
348.4286400046408
 20
572.5672918300867
 30
0.0
  0
VERTEX
  5
31A
330
238
100
AcDbEntity
  8
Make2D$可见线$普通线
100
AcDbVertex
100
AcDb2dVertex
 10
348.244633802221
 20
572.5412298873694
 30
0.0
  0
VERTEX
  5
31B
330
238
100
AcDbEntity
  8
Make2D$可见线$普通线
100
AcDbVertex
100
AcDb2dVertex
 10
348.1171028984811
 20
572.4899411016692
 30
0.0
  0
VERTEX
  5
31C
330
238
100
AcDbEntity
  8
Make2D$可见线$普通线
100
AcDbVertex
100
AcDb2dVertex
 10
347.7292415322028
 20
572.51813359084
 30
0.0
  0
VERTEX
  5
31D
330
238
100
AcDbEntity
  8
Make2D$可见线$普通线
100
AcDbVertex
100
AcDb2dVertex
 10
347.2372612791102
 20
572.5059117938144
 30
0.0
  0
VERTEX
  5
31E
330
238
100
AcDbEntity
  8
Make2D$可见线$普通线
100
AcDbVertex
100
AcDb2dVertex
 10
347.0219514011526
 20
572.557434925922
 30
0.0
  0
VERTEX
  5
31F
330
238
100
AcDbEntity
  8
Make2D$可见线$普通线
100
AcDbVertex
100
AcDb2dVertex
 10
346.7927268036353
 20
572.5478851842975
 30
0.0
  0
VERTEX
  5
320
330
238
100
AcDbEntity
  8
Make2D$可见线$普通线
100
AcDbVertex
100
AcDb2dVertex
 10
346.4830690401019
 20
572.5759441900578
 30
0.0
  0
VERTEX
  5
321
330
238
100
AcDbEntity
  8
Make2D$可见线$普通线
100
AcDbVertex
100
AcDb2dVertex
 10
346.0966989881681
 20
572.546428235841
 30
0.0
  0
VERTEX
  5
322
330
238
100
AcDbEntity
  8
Make2D$可见线$普通线
100
AcDbVertex
100
AcDb2dVertex
 10
345.7102921962047
 20
572.5883385911155
 30
0.0
  0
VERTEX
  5
323
330
238
100
AcDbEntity
  8
Make2D$可见线$普通线
100
AcDbVertex
100
AcDb2dVertex
 10
345.5453419623576
 20
572.6296708881279
 30
0.0
  0
VERTEX
  5
324
330
238
100
AcDbEntity
  8
Make2D$可见线$普通线
100
AcDbVertex
100
AcDb2dVertex
 10
345.1274022736933
 20
572.7058354009741
 30
0.0
  0
VERTEX
  5
325
330
238
100
AcDbEntity
  8
Make2D$可见线$普通线
100
AcDbVertex
100
AcDb2dVertex
 10
344.8382740109619
 20
572.9286079205895
 30
0.0
  0
VERTEX
  5
326
330
238
100
AcDbEntity
  8
Make2D$可见线$普通线
100
AcDbVertex
100
AcDb2dVertex
 10
344.6551548547941
 20
572.9360470200133
 30
0.0
  0
VERTEX
  5
327
330
238
100
AcDbEntity
  8
Make2D$可见线$普通线
100
AcDbVertex
100
AcDb2dVertex
 10
344.2440818172548
 20
572.6982408121045
 30
0.0
  0
VERTEX
  5
328
330
238
100
AcDbEntity
  8
Make2D$可见线$普通线
100
AcDbVertex
100
AcDb2dVertex
 10
344.0935871267396
 20
572.6372972217903
 30
0.0
  0
VERTEX
  5
329
330
238
100
AcDbEntity
  8
Make2D$可见线$普通线
100
AcDbVertex
100
AcDb2dVertex
 10
343.9523958552064
 20
572.6786362066413
 30
0.0
  0
VERTEX
  5
32A
330
238
100
AcDbEntity
  8
Make2D$可见线$普通线
100
AcDbVertex
100
AcDb2dVertex
 10
343.7978920185187
 20
572.8499004850338
 30
0.0
  0
VERTEX
  5
32B
330
238
100
AcDbEntity
  8
Make2D$可见线$普通线
100
AcDbVertex
100
AcDb2dVertex
 10
343.6120165380694
 20
572.9425963328722
 30
0.0
  0
VERTEX
  5
32C
330
238
100
AcDbEntity
  8
Make2D$可见线$普通线
100
AcDbVertex
100
AcDb2dVertex
 10
343.3183047229482
 20
573.0570832931089
 30
0.0
  0
VERTEX
  5
32D
330
238
100
AcDbEntity
  8
Make2D$可见线$普通线
100
AcDbVertex
100
AcDb2dVertex
 10
343.2046071450268
 20
573.0767695997849
 30
0.0
  0
VERTEX
  5
32E
330
238
100
AcDbEntity
  8
Make2D$可见线$普通线
100
AcDbVertex
100
AcDb2dVertex
 10
343.1429972653909
 20
573.109156829889
 30
0.0
  0
VERTEX
  5
32F
330
238
100
AcDbEntity
  8
Make2D$可见线$普通线
100
AcDbVertex
100
AcDb2dVertex
 10
343.0162633573565
 20
573.2126604174933
 30
0.0
  0
VERTEX
  5
330
330
238
100
AcDbEntity
  8
Make2D$可见线$普通线
100
AcDbVertex
100
AcDb2dVertex
 10
342.941275648857
 20
573.2342162623497
 30
0.0
  0
VERTEX
  5
331
330
238
100
AcDbEntity
  8
Make2D$可见线$普通线
100
AcDbVertex
100
AcDb2dVertex
 10
342.7271429815793
 20
573.2846250582436
 30
0.0
  0
VERTEX
  5
332
330
238
100
AcDbEntity
  8
Make2D$可见线$普通线
100
AcDbVertex
100
AcDb2dVertex
 10
342.6487460440955
 20
573.2731390264703
 30
0.0
  0
VERTEX
  5
333
330
238
100
AcDbEntity
  8
Make2D$可见线$普通线
100
AcDbVertex
100
AcDb2dVertex
 10
342.5757252239137
 20
573.2742523125262
 30
0.0
  0
VERTEX
  5
334
330
238
100
AcDbEntity
  8
Make2D$可见线$普通线
100
AcDbVertex
100
AcDb2dVertex
 10
342.4749870420437
 20
573.2342440362535
 30
0.0
  0
VERTEX
  5
335
330
238
100
AcDbEntity
  8
Make2D$可见线$普通线
100
AcDbVertex
100
AcDb2dVertex
 10
342.3869497211427
 20
573.2205651892582
 30
0.0
  0
VERTEX
  5
336
330
238
100
AcDbEntity
  8
Make2D$可见线$普通线
100
AcDbVertex
100
AcDb2dVertex
 10
342.189010322141
 20
573.1536451052987
 30
0.0
  0
VERTEX
  5
337
330
238
100
AcDbEntity
  8
Make2D$可见线$普通线
100
AcDbVertex
100
AcDb2dVertex
 10
342.0014513565604
 20
573.0132649387854
 30
0.0
  0
VERTEX
  5
338
330
238
100
AcDbEntity
  8
Make2D$可见线$普通线
100
AcDbVertex
100
AcDb2dVertex
 10
341.8602810735563
 20
572.8461581141606
 30
0.0
  0
VERTEX
  5
339
330
238
100
AcDbEntity
  8
Make2D$可见线$普通线
100
AcDbVertex
100
AcDb2dVertex
 10
341.7229665360329
 20
572.7266045139846
 30
0.0
  0
VERTEX
  5
33A
330
238
100
AcDbEntity
  8
Make2D$可见线$普通线
100
AcDbVertex
100
AcDb2dVertex
 10
341.527612610333
 20
572.6731576402661
 30
0.0
  0
VERTEX
  5
33B
330
238
100
AcDbEntity
  8
Make2D$可见线$普通线
100
AcDbVertex
100
AcDb2dVertex
 10
341.4599001074148
 20
572.6362273485228
 30
0.0
  0
VERTEX
  5
33C
330
238
100
AcDbEntity
  8
Make2D$可见线$普通线
100
AcDbVertex
100
AcDb2dVertex
 10
341.262833992083
 20
572.6122098433813
 30
0.0
  0
VERTEX
  5
33D
330
238
100
AcDbEntity
  8
Make2D$可见线$普通线
100
AcDbVertex
100
AcDb2dVertex
 10
341.1804686574986
 20
572.5650582335627
 30
0.0
  0
VERTEX
  5
33E
330
238
100
AcDbEntity
  8
Make2D$可见线$普通线
100
AcDbVertex
100
AcDb2dVertex
 10
340.8877416214868
 20
572.5279713409911
 30
0.0
  0
VERTEX
  5
33F
330
238
100
AcDbEntity
  8
Make2D$可见线$普通线
100
AcDbVertex
100
AcDb2dVertex
 10
340.8303389789226
 20
572.497818065731
 30
0.0
  0
VERTEX
  5
340
330
238
100
AcDbEntity
  8
Make2D$可见线$普通线
100
AcDbVertex
100
AcDb2dVertex
 10
340.7435090466712
 20
572.4980528643074
 30
0.0
  0
VERTEX
  5
341
330
238
100
AcDbEntity
  8
Make2D$可见线$普通线
100
AcDbVertex
100
AcDb2dVertex
 10
340.5801912172875
 20
572.4776549410637
 30
0.0
  0
VERTEX
  5
342
330
238
100
AcDbEntity
  8
Make2D$可见线$普通线
100
AcDbVertex
100
AcDb2dVertex
 10
340.4239762361923
 20
572.4458725659739
 30
0.0
  0
VERTEX
  5
343
330
238
100
AcDbEntity
  8
Make2D$可见线$普通线
100
AcDbVertex
100
AcDb2dVertex
 10
340.3216114716033
 20
572.4802418249178
 30
0.0
  0
VERTEX
  5
344
330
238
100
AcDbEntity
  8
Make2D$可见线$普通线
100
AcDbVertex
100
AcDb2dVertex
 10
340.295812661738
 20
572.5371822828606
 30
0.0
  0
VERTEX
  5
345
330
238
100
AcDbEntity
  8
Make2D$可见线$普通线
100
AcDbVertex
100
AcDb2dVertex
 10
340.3086543987638
 20
572.6396132299641
 30
0.0
  0
VERTEX
  5
346
330
238
100
AcDbEntity
  8
Make2D$可见线$普通线
100
AcDbVertex
100
AcDb2dVertex
 10
340.3828930872257
 20
572.8007799715792
 30
0.0
  0
VERTEX
  5
347
330
238
100
AcDbEntity
  8
Make2D$可见线$普通线
100
AcDbVertex
100
AcDb2dVertex
 10
340.6157893481079
 20
573.0423686914115
 30
0.0
  0
VERTEX
  5
348
330
238
100
AcDbEntity
  8
Make2D$可见线$普通线
100
AcDbVertex
100
AcDb2dVertex
 10
340.8184018348226
 20
573.3777839144581
 30
0.0
  0
VERTEX
  5
349
330
238
100
AcDbEntity
  8
Make2D$可见线$普通线
100
AcDbVertex
100
AcDb2dVertex
 10
340.9813613308751
 20
573.528084671087
 30
0.0
  0
VERTEX
  5
34A
330
238
100
AcDbEntity
  8
Make2D$可见线$普通线
100
AcDbVertex
100
AcDb2dVertex
 10
341.1532675634687
 20
573.7989505850879
 30
0.0
  0
VERTEX
  5
34B
330
238
100
AcDbEntity
  8
Make2D$可见线$普通线
100
AcDbVertex
100
AcDb2dVertex
 10
341.3520967029339
 20
574.0471158213785
 30
0.0
  0
VERTEX
  5
34C
330
238
100
AcDbEntity
  8
Make2D$可见线$普通线
100
AcDbVertex
100
AcDb2dVertex
 10
341.5405064315171
 20
574.2569139020542
 30
0.0
  0
VERTEX
  5
34D
330
238
100
AcDbEntity
  8
Make2D$可见线$普通线
100
AcDbVertex
100
AcDb2dVertex
 10
341.7606639065059
 20
574.5693722407625
 30
0.0
  0
VERTEX
  5
34E
330
238
100
AcDbEntity
  8
Make2D$可见线$普通线
100
AcDbVertex
100
AcDb2dVertex
 10
341.9506175688536
 20
574.7447384251421
 30
0.0
  0
VERTEX
  5
34F
330
238
100
AcDbEntity
  8
Make2D$可见线$普通线
100
AcDbVertex
100
AcDb2dVertex
 10
342.2063718907905
 20
575.0041043916826
 30
0.0
  0
VERTEX
  5
350
330
238
100
AcDbEntity
  8
Make2D$可见线$普通线
100
AcDbVertex
100
AcDb2dVertex
 10
342.3839059374124
 20
575.2424444065028
 30
0.0
  0
VERTEX
  5
351
330
238
100
AcDbEntity
  8
Make2D$可见线$普通线
100
AcDbVertex
100
AcDb2dVertex
 10
342.5358920222284
 20
575.3836684711578
 30
0.0
  0
VERTEX
  5
352
330
238
100
AcDbEntity
  8
Make2D$可见线$普通线
100
AcDbVertex
100
AcDb2dVertex
 10
342.7928833763573
 20
575.6402696585658
 30
0.0
  0
VERTEX
  5
353
330
238
100
AcDbEntity
  8
Make2D$可见线$普通线
100
AcDbVertex
100
AcDb2dVertex
 10
343.1709360086941
 20
575.9904116847655
 30
0.0
  0
VERTEX
  5
354
330
238
100
AcDbEntity
  8
Make2D$可见线$普通线
100
AcDbVertex
100
AcDb2dVertex
 10
343.243754721936
 20
576.07767443184
 30
0.0
  0
VERTEX
  5
355
330
238
100
AcDbEntity
  8
Make2D$可见线$普通线
100
AcDbVertex
100
AcDb2dVertex
 10
343.3777450777523
 20
576.2186003991487
 30
0.0
  0
VERTEX
  5
356
330
238
100
AcDbEntity
  8
Make2D$可见线$普通线
100
AcDbVertex
100
AcDb2dVertex
 10
343.5151282738231
 20
576.3194015459774
 30
0.0
  0
VERTEX
  5
357
330
238
100
AcDbEntity
  8
Make2D$可见线$普通线
100
AcDbVertex
100
AcDb2dVertex
 10
343.6119852892569
 20
576.4212095042948
 30
0.0
  0
VERTEX
  5
358
330
238
100
AcDbEntity
  8
Make2D$可见线$普通线
100
AcDbVertex
100
AcDb2dVertex
 10
343.6495058793186
 20
576.5461058128369
 30
0.0
  0
VERTEX
  5
359
330
238
100
AcDbEntity
  8
Make2D$可见线$普通线
100
AcDbVertex
100
AcDb2dVertex
 10
343.6105860447202
 20
576.612025141264
 30
0.0
  0
VERTEX
  5
35A
330
238
100
AcDbEntity
  8
Make2D$可见线$普通线
100
AcDbVertex
100
AcDb2dVertex
 10
343.5510135791077
 20
576.6458235804464
 30
0.0
  0
VERTEX
  5
35B
330
238
100
AcDbEntity
  8
Make2D$可见线$普通线
100
AcDbVertex
100
AcDb2dVertex
 10
343.4568367423608
 20
576.6348251163457
 30
0.0
  0
VERTEX
  5
35C
330
238
100
AcDbEntity
  8
Make2D$可见线$普通线
100
AcDbVertex
100
AcDb2dVertex
 10
343.3301208753647
 20
576.5619949608598
 30
0.0
  0
VERTEX
  5
35D
330
238
100
AcDbEntity
  8
Make2D$可见线$普通线
100
AcDbVertex
100
AcDb2dVertex
 10
343.1622409522284
 20
576.3460237828236
 30
0.0
  0
VERTEX
  5
35E
330
238
100
AcDbEntity
  8
Make2D$可见线$普通线
100
AcDbVertex
100
AcDb2dVertex
 10
342.9139751469204
 20
576.0757112225483
 30
0.0
  0
VERTEX
  5
35F
330
238
100
AcDbEntity
  8
Make2D$可见线$普通线
100
AcDbVertex
100
AcDb2dVertex
 10
342.4369820301844
 20
575.6153410293903
 30
0.0
  0
VERTEX
  5
360
330
238
100
AcDbEntity
  8
Make2D$可见线$普通线
100
AcDbVertex
100
AcDb2dVertex
 10
342.1863589038433
 20
575.3284111058337
 30
0.0
  0
VERTEX
  5
361
330
238
100
AcDbEntity
  8
Make2D$可见线$普通线
100
AcDbVertex
100
AcDb2dVertex
 10
341.9042846245494
 20
575.0534065537843
 30
0.0
  0
VERTEX
  5
362
330
238
100
AcDbEntity
  8
Make2D$可见线$普通线
100
AcDbVertex
100
AcDb2dVertex
 10
341.6004093165985
 20
574.6895715906293
 30
0.0
  0
VERTEX
  5
363
330
238
100
AcDbEntity
  8
Make2D$可见线$普通线
100
AcDbVertex
100
AcDb2dVertex
 10
341.2673979573892
 20
574.3747840923219
 30
0.0
  0
VERTEX
  5
364
330
238
100
AcDbEntity
  8
Make2D$可见线$普通线
100
AcDbVertex
100
AcDb2dVertex
 10
341.1924050402414
 20
574.2929401871083
 30
0.0
  0
VERTEX
  5
365
330
238
100
AcDbEntity
  8
Make2D$可见线$普通线
100
AcDbVertex
100
AcDb2dVertex
 10
340.9430153756575
 20
574.0436236368621
 30
0.0
  0
VERTEX
  5
366
330
238
100
AcDbEntity
  8
Make2D$可见线$普通线
100
AcDbVertex
100
AcDb2dVertex
 10
340.6547093270703
 20
573.8338257718774
 30
0.0
  0
VERTEX
  5
367
330
238
100
AcDbEntity
  8
Make2D$可见线$普通线
100
AcDbVertex
100
AcDb2dVertex
 10
340.4029995411158
 20
573.6136931094496
 30
0.0
  0
VERTEX
  5
368
330
238
100
AcDbEntity
  8
Make2D$可见线$普通线
100
AcDbVertex
100
AcDb2dVertex
 10
340.2246288729646
 20
573.4790812010749
 30
0.0
  0
VERTEX
  5
369
330
238
100
AcDbEntity
  8
Make2D$可见线$普通线
100
AcDbVertex
100
AcDb2dVertex
 10
340.0434169047198
 20
573.3804369920608
 30
0.0
  0
VERTEX
  5
36A
330
238
100
AcDbEntity
  8
Make2D$可见线$普通线
100
AcDbVertex
100
AcDb2dVertex
 10
339.911216036793
 20
573.2807008548688
 30
0.0
  0
VERTEX
  5
36B
330
238
100
AcDbEntity
  8
Make2D$可见线$普通线
100
AcDbVertex
100
AcDb2dVertex
 10
339.7716589107519
 20
573.1499593687417
 30
0.0
  0
VERTEX
  5
36C
330
238
100
AcDbEntity
  8
Make2D$可见线$普通线
100
AcDbVertex
100
AcDb2dVertex
 10
339.6840357005381
 20
573.1209836656832
 30
0.0
  0
VERTEX
  5
36D
330
238
100
AcDbEntity
  8
Make2D$可见线$普通线
100
AcDbVertex
100
AcDb2dVertex
 10
339.5546068946642
 20
573.0429295985658
 30
0.0
  0
VERTEX
  5
36E
330
238
100
AcDbEntity
  8
Make2D$可见线$普通线
100
AcDbVertex
100
AcDb2dVertex
 10
339.2483416169164
 20
572.8399035632467
 30
0.0
  0
VERTEX
  5
36F
330
238
100
AcDbEntity
  8
Make2D$可见线$普通线
100
AcDbVertex
100
AcDb2dVertex
 10
339.0812834337157
 20
572.74781053212
 30
0.0
  0
VERTEX
  5
370
330
238
100
AcDbEntity
  8
Make2D$可见线$普通线
100
AcDbVertex
100
AcDb2dVertex
 10
338.6699295553031
 20
572.5572573534597
 30
0.0
  0
VERTEX
  5
371
330
238
100
AcDbEntity
  8
Make2D$可见线$普通线
100
AcDbVertex
100
AcDb2dVertex
 10
338.570528978935
 20
572.5363798816074
 30
0.0
  0
VERTEX
  5
372
330
238
100
AcDbEntity
  8
Make2D$可见线$普通线
100
AcDbVertex
100
AcDb2dVertex
 10
338.4319847100878
 20
572.5179569191748
 30
0.0
  0
VERTEX
  5
373
330
238
100
AcDbEntity
  8
Make2D$可见线$普通线
100
AcDbVertex
100
AcDb2dVertex
 10
338.3129886445294
 20
572.5238156933972
 30
0.0
  0
VERTEX
  5
374
330
238
100
AcDbEntity
  8
Make2D$可见线$普通线
100
AcDbVertex
100
AcDb2dVertex
 10
338.2567340338304
 20
572.5685835567732
 30
0.0
  0
VERTEX
  5
375
330
238
100
AcDbEntity
  8
Make2D$可见线$普通线
100
AcDbVertex
100
AcDb2dVertex
 10
338.2279629481867
 20
572.658796252102
 30
0.0
  0
VERTEX
  5
376
330
238
100
AcDbEntity
  8
Make2D$可见线$普通线
100
AcDbVertex
100
AcDb2dVertex
 10
338.2580037752217
 20
572.8420875574561
 30
0.0
  0
VERTEX
  5
377
330
238
100
AcDbEntity
  8
Make2D$可见线$普通线
100
AcDbVertex
100
AcDb2dVertex
 10
338.2966383872948
 20
572.909029118251
 30
0.0
  0
VERTEX
  5
378
330
238
100
AcDbEntity
  8
Make2D$可见线$普通线
100
AcDbVertex
100
AcDb2dVertex
 10
338.3179908177913
 20
573.0113379949539
 30
0.0
  0
VERTEX
  5
379
330
238
100
AcDbEntity
  8
Make2D$可见线$普通线
100
AcDbVertex
100
AcDb2dVertex
 10
338.2737626451946
 20
573.0988714845863
 30
0.0
  0
VERTEX
  5
37A
330
238
100
AcDbEntity
  8
Make2D$可见线$普通线
100
AcDbVertex
100
AcDb2dVertex
 10
338.1515475104295
 20
573.1736393956509
 30
0.0
  0
VERTEX
  5
37B
330
238
100
AcDbEntity
  8
Make2D$可见线$普通线
100
AcDbVertex
100
AcDb2dVertex
 10
338.0813011561005
 20
573.1727057794975
 30
0.0
  0
VERTEX
  5
37C
330
238
100
AcDbEntity
  8
Make2D$可见线$普通线
100
AcDbVertex
100
AcDb2dVertex
 10
337.9349639697858
 20
573.1199173737504
 30
0.0
  0
VERTEX
  5
37D
330
238
100
AcDbEntity
  8
Make2D$可见线$普通线
100
AcDbVertex
100
AcDb2dVertex
 10
337.7260233397982
 20
572.9296717076481
 30
0.0
  0
VERTEX
  5
37E
330
238
100
AcDbEntity
  8
Make2D$可见线$普通线
100
AcDbVertex
100
AcDb2dVertex
 10
337.3574053809494
 20
572.6189905660186
 30
0.0
  0
VERTEX
  5
37F
330
238
100
AcDbEntity
  8
Make2D$可见线$普通线
100
AcDbVertex
100
AcDb2dVertex
 10
337.0204822102368
 20
572.4323824499222
 30
0.0
  0
VERTEX
  5
380
330
238
100
AcDbEntity
  8
Make2D$可见线$普通线
100
AcDbVertex
100
AcDb2dVertex
 10
336.9355872497604
 20
572.4231174712901
 30
0.0
  0
VERTEX
  5
381
330
238
100
AcDbEntity
  8
Make2D$可见线$普通线
100
AcDbVertex
100
AcDb2dVertex
 10
336.8412633779165
 20
572.3712033500668
 30
0.0
  0
VERTEX
  5
382
330
238
100
AcDbEntity
  8
Make2D$可见线$普通线
100
AcDbVertex
100
AcDb2dVertex
 10
336.5884023420048
 20
572.3291759080068
 30
0.0
  0
VERTEX
  5
383
330
238
100
AcDbEntity
  8
Make2D$可见线$普通线
100
AcDbVertex
100
AcDb2dVertex
 10
336.4045372740373
 20
572.3889097439361
 30
0.0
  0
VERTEX
  5
384
330
238
100
AcDbEntity
  8
Make2D$可见线$普通线
100
AcDbVertex
100
AcDb2dVertex
 10
336.269251509723
 20
572.5436097895614
 30
0.0
  0
VERTEX
  5
385
330
238
100
AcDbEntity
  8
Make2D$可见线$普通线
100
AcDbVertex
100
AcDb2dVertex
 10
336.2459355256744
 20
572.7694818402701
 30
0.0
  0
VERTEX
  5
386
330
238
100
AcDbEntity
  8
Make2D$可见线$普通线
100
AcDbVertex
100
AcDb2dVertex
 10
336.2754007314462
 20
572.8832033158183
 30
0.0
  0
VERTEX
  5
387
330
238
100
AcDbEntity
  8
Make2D$可见线$普通线
100
AcDbVertex
100
AcDb2dVertex
 10
336.8474270794014
 20
573.4641080686603
 30
0.0
  0
VERTEX
  5
388
330
238
100
AcDbEntity
  8
Make2D$可见线$普通线
100
AcDbVertex
100
AcDb2dVertex
 10
337.0682085273124
 20
573.707715805411
 30
0.0
  0
VERTEX
  5
389
330
238
100
AcDbEntity
  8
Make2D$可见线$普通线
100
AcDbVertex
100
AcDb2dVertex
 10
337.3460038197996
 20
574.0405049984369
 30
0.0
  0
VERTEX
  5
38A
330
238
100
AcDbEntity
  8
Make2D$可见线$普通线
100
AcDbVertex
100
AcDb2dVertex
 10
337.459093384867
 20
574.2426909313085
 30
0.0
  0
VERTEX
  5
38B
330
238
100
AcDbEntity
  8
Make2D$可见线$普通线
100
AcDbVertex
100
AcDb2dVertex
 10
337.8124238466917
 20
574.6546846226674
 30
0.0
  0
VERTEX
  5
38C
330
238
100
AcDbEntity
  8
Make2D$可见线$普通线
100
AcDbVertex
100
AcDb2dVertex
 10
337.8390898632501
 20
574.7347307533208
 30
0.0
  0
VERTEX
  5
38D
330
238
100
AcDbEntity
  8
Make2D$可见线$普通线
100
AcDbVertex
100
AcDb2dVertex
 10
337.9192057905474
 20
574.8291467973459
 30
0.0
  0
VERTEX
  5
38E
330
238
100
AcDbEntity
  8
Make2D$可见线$普通线
100
AcDbVertex
100
AcDb2dVertex
 10
337.988980518997
 20
574.9380340467173
 30
0.0
  0
VERTEX
  5
38F
330
238
100
AcDbEntity
  8
Make2D$可见线$普通线
100
AcDbVertex
100
AcDb2dVertex
 10
338.2035581509406
 20
575.2143882932421
 30
0.0
  0
VERTEX
  5
390
330
238
100
AcDbEntity
  8
Make2D$可见线$普通线
100
AcDbVertex
100
AcDb2dVertex
 10
338.3270532693587
 20
575.3837186652104
 30
0.0
  0
VERTEX
  5
391
330
238
100
AcDbEntity
  8
Make2D$可见线$普通线
100
AcDbVertex
100
AcDb2dVertex
 10
338.4747972785261
 20
575.6432041031983
 30
0.0
  0
VERTEX
  5
392
330
238
100
AcDbEntity
  8
Make2D$可见线$普通线
100
AcDbVertex
100
AcDb2dVertex
 10
338.6871148482443
 20
575.8926559477458
 30
0.0
  0
VERTEX
  5
393
330
238
100
AcDbEntity
  8
Make2D$可见线$普通线
100
AcDbVertex
100
AcDb2dVertex
 10
338.8930293482939
 20
576.1887678835772
 30
0.0
  0
VERTEX
  5
394
330
238
100
AcDbEntity
  8
Make2D$可见线$普通线
100
AcDbVertex
100
AcDb2dVertex
 10
338.9220444233209
 20
576.3369688704843
 30
0.0
  0
VERTEX
  5
395
330
238
100
AcDbEntity
  8
Make2D$可见线$普通线
100
AcDbVertex
100
AcDb2dVertex
 10
338.8975663902064
 20
576.4331589200019
 30
0.0
  0
VERTEX
  5
396
330
238
100
AcDbEntity
  8
Make2D$可见线$普通线
100
AcDbVertex
100
AcDb2dVertex
 10
338.8044112385511
 20
576.4617822813394
 30
0.0
  0
VERTEX
  5
397
330
238
100
AcDbEntity
  8
Make2D$可见线$普通线
100
AcDbVertex
100
AcDb2dVertex
 10
338.6887741516136
 20
576.4285865645151
 30
0.0
  0
VERTEX
  5
398
330
238
100
AcDbEntity
  8
Make2D$可见线$普通线
100
AcDbVertex
100
AcDb2dVertex
 10
338.4810537814011
 20
576.2743349055684
 30
0.0
  0
VERTEX
  5
399
330
238
100
AcDbEntity
  8
Make2D$可见线$普通线
100
AcDbVertex
100
AcDb2dVertex
 10
337.9114991515909
 20
575.7952509249864
 30
0.0
  0
VERTEX
  5
39A
330
238
100
AcDbEntity
  8
Make2D$可见线$普通线
100
AcDbVertex
100
AcDb2dVertex
 10
337.2247959466951
 20
574.9794836755076
 30
0.0
  0
VERTEX
  5
39B
330
238
100
AcDbEntity
  8
Make2D$可见线$普通线
100
AcDbVertex
100
AcDb2dVertex
 10
337.0641356906943
 20
574.7984813885715
 30
0.0
  0
VERTEX
  5
39C
330
238
100
AcDbEntity
  8
Make2D$可见线$普通线
100
AcDbVertex
100
AcDb2dVertex
 10
336.9149557299745
 20
574.5295729641531
 30
0.0
  0
VERTEX
  5
39D
330
238
100
AcDbEntity
  8
Make2D$可见线$普通线
100
AcDbVertex
100
AcDb2dVertex
 10
336.8183151755108
 20
574.407756479657
 30
0.0
  0
VERTEX
  5
39E
330
238
100
AcDbEntity
  8
Make2D$可见线$普通线
100
AcDbVertex
100
AcDb2dVertex
 10
336.6961520468629
 20
574.1642459106343
 30
0.0
  0
VERTEX
  5
39F
330
238
100
AcDbEntity
  8
Make2D$可见线$普通线
100
AcDbVertex
100
AcDb2dVertex
 10
336.5085067180523
 20
573.916841078818
 30
0.0
  0
VERTEX
  5
3A0
330
238
100
AcDbEntity
  8
Make2D$可见线$普通线
100
AcDbVertex
100
AcDb2dVertex
 10
336.3952931433403
 20
573.6687845672853
 30
0.0
  0
VERTEX
  5
3A1
330
238
100
AcDbEntity
  8
Make2D$可见线$普通线
100
AcDbVertex
100
AcDb2dVertex
 10
336.2766656144555
 20
573.5351885556393
 30
0.0
  0
VERTEX
  5
3A2
330
238
100
AcDbEntity
  8
Make2D$可见线$普通线
100
AcDbVertex
100
AcDb2dVertex
 10
336.2543284525835
 20
573.4247631026454
 30
0.0
  0
VERTEX
  5
3A3
330
238
100
AcDbEntity
  8
Make2D$可见线$普通线
100
AcDbVertex
100
AcDb2dVertex
 10
336.1915084811878
 20
573.2976742855494
 30
0.0
  0
VERTEX
  5
3A4
330
238
100
AcDbEntity
  8
Make2D$可见线$普通线
100
AcDbVertex
100
AcDb2dVertex
 10
336.0176459204611
 20
572.9229131770666
 30
0.0
  0
VERTEX
  5
3A5
330
238
100
AcDbEntity
  8
Make2D$可见线$普通线
100
AcDbVertex
100
AcDb2dVertex
 10
335.8175406020678
 20
572.7552813773164
 30
0.0
  0
VERTEX
  5
3A6
330
238
100
AcDbEntity
  8
Make2D$可见线$普通线
100
AcDbVertex
100
AcDb2dVertex
 10
335.2652161711031
 20
572.4087956780288
 30
0.0
  0
VERTEX
  5
3A7
330
238
100
AcDbEntity
  8
Make2D$可见线$普通线
100
AcDbVertex
100
AcDb2dVertex
 10
335.0094486341539
 20
572.2719442789482
 30
0.0
  0
VERTEX
  5
3A8
330
238
100
AcDbEntity
  8
Make2D$可见线$普通线
100
AcDbVertex
100
AcDb2dVertex
 10
334.8692461221613
 20
572.216400862744
 30
0.0
  0
VERTEX
  5
3A9
330
238
100
AcDbEntity
  8
Make2D$可见线$普通线
100
AcDbVertex
100
AcDb2dVertex
 10
334.781874409878
 20
572.2026370380263
 30
0.0
  0
VERTEX
  5
3AA
330
238
100
AcDbEntity
  8
Make2D$可见线$普通线
100
AcDbVertex
100
AcDb2dVertex
 10
334.6973417642943
 20
572.1632752576521
 30
0.0
  0
VERTEX
  5
3AB
330
238
100
AcDbEntity
  8
Make2D$可见线$普通线
100
AcDbVertex
100
AcDb2dVertex
 10
334.5682874164031
 20
572.1764608228953
 30
0.0
  0
VERTEX
  5
3AC
330
238
100
AcDbEntity
  8
Make2D$可见线$普通线
100
AcDbVertex
100
AcDb2dVertex
 10
334.5070967772132
 20
572.2164964031375
 30
0.0
  0
VERTEX
  5
3AD
330
238
100
AcDbEntity
  8
Make2D$可见线$普通线
100
AcDbVertex
100
AcDb2dVertex
 10
334.5139338637163
 20
572.2750034184758
 30
0.0
  0
VERTEX
  5
3AE
330
238
100
AcDbEntity
  8
Make2D$可见线$普通线
100
AcDbVertex
100
AcDb2dVertex
 10
334.5514956981597
 20
572.3502285147404
 30
0.0
  0
VERTEX
  5
3AF
330
238
100
AcDbEntity
  8
Make2D$可见线$普通线
100
AcDbVertex
100
AcDb2dVertex
 10
334.712459753897
 20
572.4964540612082
 30
0.0
  0
VERTEX
  5
3B0
330
238
100
AcDbEntity
  8
Make2D$可见线$普通线
100
AcDbVertex
100
AcDb2dVertex
 10
334.8572386470216
 20
572.6143471903042
 30
0.0
  0
VERTEX
  5
3B1
330
238
100
AcDbEntity
  8
Make2D$可见线$普通线
100
AcDbVertex
100
AcDb2dVertex
 10
335.0742259715273
 20
572.878299053041
 30
0.0
  0
VERTEX
  5
3B2
330
238
100
AcDbEntity
  8
Make2D$可见线$普通线
100
AcDbVertex
100
AcDb2dVertex
 10
335.1978675616392
 20
573.1002189731455
 30
0.0
  0
VERTEX
  5
3B3
330
238
100
AcDbEntity
  8
Make2D$可见线$普通线
100
AcDbVertex
100
AcDb2dVertex
 10
335.2599818924259
 20
573.2913525165551
 30
0.0
  0
VERTEX
  5
3B4
330
238
100
AcDbEntity
  8
Make2D$可见线$普通线
100
AcDbVertex
100
AcDb2dVertex
 10
335.2517288611242
 20
573.3323141973299
 30
0.0
  0
VERTEX
  5
3B5
330
238
100
AcDbEntity
  8
Make2D$可见线$普通线
100
AcDbVertex
100
AcDb2dVertex
 10
335.1914441300721
 20
573.3783698413038
 30
0.0
  0
VERTEX
  5
3B6
330
238
100
AcDbEntity
  8
Make2D$可见线$普通线
100
AcDbVertex
100
AcDb2dVertex
 10
335.0983076128892
 20
573.4081892932855
 30
0.0
  0
VERTEX
  5
3B7
330
238
100
AcDbEntity
  8
Make2D$可见线$普通线
100
AcDbVertex
100
AcDb2dVertex
 10
334.9610526578147
 20
573.3779192578395
 30
0.0
  0
VERTEX
  5
3B8
330
238
100
AcDbEntity
  8
Make2D$可见线$普通线
100
AcDbVertex
100
AcDb2dVertex
 10
334.8416253926734
 20
573.3421286127425
 30
0.0
  0
VERTEX
  5
3B9
330
238
100
AcDbEntity
  8
Make2D$可见线$普通线
100
AcDbVertex
100
AcDb2dVertex
 10
334.7525918403458
 20
573.2491429266956
 30
0.0
  0
VERTEX
  5
3BA
330
238
100
AcDbEntity
  8
Make2D$可见线$普通线
100
AcDbVertex
100
AcDb2dVertex
 10
334.6461542193305
 20
573.1614431895806
 30
0.0
  0
VERTEX
  5
3BB
330
238
100
AcDbEntity
  8
Make2D$可见线$普通线
100
AcDbVertex
100
AcDb2dVertex
 10
334.590471373849
 20
573.1476985533275
 30
0.0
  0
VERTEX
  5
3BC
330
238
100
AcDbEntity
  8
Make2D$可见线$普通线
100
AcDbVertex
100
AcDb2dVertex
 10
334.5649336997856
 20
573.1653963592294
 30
0.0
  0
VERTEX
  5
3BD
330
238
100
AcDbEntity
  8
Make2D$可见线$普通线
100
AcDbVertex
100
AcDb2dVertex
 10
334.5654765693811
 20
573.2072308739093
 30
0.0
  0
VERTEX
  5
3BE
330
238
100
AcDbEntity
  8
Make2D$可见线$普通线
100
AcDbVertex
100
AcDb2dVertex
 10
334.601060754099
 20
573.243053398456
 30
0.0
  0
VERTEX
  5
3BF
330
238
100
AcDbEntity
  8
Make2D$可见线$普通线
100
AcDbVertex
100
AcDb2dVertex
 10
335.0530654682949
 20
573.8610370255426
 30
0.0
  0
VERTEX
  5
3C0
330
238
100
AcDbEntity
  8
Make2D$可见线$普通线
100
AcDbVertex
100
AcDb2dVertex
 10
335.1616177761555
 20
574.1299080782217
 30
0.0
  0
VERTEX
  5
3C1
330
238
100
AcDbEntity
  8
Make2D$可见线$普通线
100
AcDbVertex
100
AcDb2dVertex
 10
335.2168413460169
 20
574.410754864128
 30
0.0
  0
VERTEX
  5
3C2
330
238
100
AcDbEntity
  8
Make2D$可见线$普通线
100
AcDbVertex
100
AcDb2dVertex
 10
335.1918010962611
 20
574.7026646977706
 30
0.0
  0
VERTEX
  5
3C3
330
238
100
AcDbEntity
  8
Make2D$可见线$普通线
100
AcDbVertex
100
AcDb2dVertex
 10
335.0846098863919
 20
575.1437774046751
 30
0.0
  0
VERTEX
  5
3C4
330
238
100
AcDbEntity
  8
Make2D$可见线$普通线
100
AcDbVertex
100
AcDb2dVertex
 10
334.7507968703173
 20
575.7974527211056
 30
0.0
  0
VERTEX
  5
3C5
330
238
100
AcDbEntity
  8
Make2D$可见线$普通线
100
AcDbVertex
100
AcDb2dVertex
 10
334.5625050749012
 20
576.0431756846345
 30
0.0
  0
VERTEX
  5
3C6
330
238
100
AcDbEntity
  8
Make2D$可见线$普通线
100
AcDbVertex
100
AcDb2dVertex
 10
334.3448479719568
 20
576.2607272827764
 30
0.0
  0
VERTEX
  5
3C7
330
238
100
AcDbEntity
  8
Make2D$可见线$普通线
100
AcDbVertex
100
AcDb2dVertex
 10
334.0262200543279
 20
576.4891691569613
 30
0.0
  0
VERTEX
  5
3C8
330
238
100
AcDbEntity
  8
Make2D$可见线$普通线
100
AcDbVertex
100
AcDb2dVertex
 10
333.7662516071962
 20
576.6838320003328
 30
0.0
  0
VERTEX
  5
3C9
330
238
100
AcDbEntity
  8
Make2D$可见线$普通线
100
AcDbVertex
100
AcDb2dVertex
 10
333.4404470233321
 20
576.8294233621765
 30
0.0
  0
VERTEX
  5
3CA
330
238
100
AcDbEntity
  8
Make2D$可见线$普通线
100
AcDbVertex
100
AcDb2dVertex
 10
333.391794715018
 20
576.8306981593778
 30
0.0
  0
VERTEX
  5
3CB
330
238
100
AcDbEntity
  8
Make2D$可见线$普通线
100
AcDbVertex
100
AcDb2dVertex
 10
333.3171405896524
 20
576.8419011748291
 30
0.0
  0
VERTEX
  5
3CC
330
238
100
AcDbEntity
  8
Make2D$可见线$普通线
100
AcDbVertex
100
AcDb2dVertex
 10
333.218358014521
 20
576.8900323924435
 30
0.0
  0
VERTEX
  5
3CD
330
238
100
AcDbEntity
  8
Make2D$可见线$普通线
100
AcDbVertex
100
AcDb2dVertex
 10
333.1689059523344
 20
576.8904436477651
 30
0.0
  0
VERTEX
  5
3CE
330
238
100
AcDbEntity
  8
Make2D$可见线$普通线
100
AcDbVertex
100
AcDb2dVertex
 10
333.004034589012
 20
576.9546406245282
 30
0.0
  0
VERTEX
  5
3CF
330
238
100
AcDbEntity
  8
Make2D$可见线$普通线
100
AcDbVertex
100
AcDb2dVertex
 10
332.9417290040581
 20
576.9580645068681
 30
0.0
  0
VERTEX
  5
3D0
330
238
100
AcDbEntity
  8
Make2D$可见线$普通线
100
AcDbVertex
100
AcDb2dVertex
 10
332.8905229535072
 20
576.972037864272
 30
0.0
  0
VERTEX
  5
3D1
330
238
100
AcDbEntity
  8
Make2D$可见线$普通线
100
AcDbVertex
100
AcDb2dVertex
 10
332.7780770738719
 20
577.0122735842825
 30
0.0
  0
VERTEX
  5
3D2
330
238
100
AcDbEntity
  8
Make2D$可见线$普通线
100
AcDbVertex
100
AcDb2dVertex
 10
332.6978699926372
 20
577.0107775918354
 30
0.0
  0
VERTEX
  5
3D3
330
238
100
AcDbEntity
  8
Make2D$可见线$普通线
100
AcDbVertex
100
AcDb2dVertex
 10
332.3611271234965
 20
577.0593397976678
 30
0.0
  0
VERTEX
  5
3D4
330
238
100
AcDbEntity
  8
Make2D$可见线$普通线
100
AcDbVertex
100
AcDb2dVertex
 10
332.1064080889344
 20
577.0651477076128
 30
0.0
  0
VERTEX
  5
3D5
330
238
100
AcDbEntity
  8
Make2D$可见线$普通线
100
AcDbVertex
100
AcDb2dVertex
 10
331.5182004904172
 20
577.052495475544
 30
0.0
  0
VERTEX
  5
3D6
330
238
100
AcDbEntity
  8
Make2D$可见线$普通线
100
AcDbVertex
100
AcDb2dVertex
 10
331.4046067355252
 20
577.0332758855521
 30
0.0
  0
VERTEX
  5
3D7
330
238
100
AcDbEntity
  8
Make2D$可见线$普通线
100
AcDbVertex
100
AcDb2dVertex
 10
331.2328999794159
 20
577.0248066410617
 30
0.0
  0
VERTEX
  5
3D8
330
238
100
AcDbEntity
  8
Make2D$可见线$普通线
100
AcDbVertex
100
AcDb2dVertex
 10
331.0648760775666
 20
577.0014901401373
 30
0.0
  0
VERTEX
  5
3D9
330
238
100
AcDbEntity
  8
Make2D$可见线$普通线
100
AcDbVertex
100
AcDb2dVertex
 10
331.0280156498594
 20
576.979811574422
 30
0.0
  0
VERTEX
  5
3DA
330
238
100
AcDbEntity
  8
Make2D$可见线$普通线
100
AcDbVertex
100
AcDb2dVertex
 10
330.9912100099622
 20
576.9636352231405
 30
0.0
  0
VERTEX
  5
3DB
330
238
100
AcDbEntity
  8
Make2D$可见线$普通线
100
AcDbVertex
100
AcDb2dVertex
 10
330.7500199203998
 20
576.965658024528
 30
0.0
  0
VERTEX
  5
3DC
330
238
100
AcDbEntity
  8
Make2D$可见线$普通线
100
AcDbVertex
100
AcDb2dVertex
 10
330.6243097749341
 20
576.9488469895482
 30
0.0
  0
VERTEX
  5
3DD
330
238
100
AcDbEntity
  8
Make2D$可见线$普通线
100
AcDbVertex
100
AcDb2dVertex
 10
330.4801755545598
 20
576.9198229326958
 30
0.0
  0
VERTEX
  5
3DE
330
238
100
AcDbEntity
  8
Make2D$可见线$普通线
100
AcDbVertex
100
AcDb2dVertex
 10
330.4263509509933
 20
576.8859305861191
 30
0.0
  0
VERTEX
  5
3DF
330
238
100
AcDbEntity
  8
Make2D$可见线$普通线
100
AcDbVertex
100
AcDb2dVertex
 10
330.2799912818911
 20
576.8897628415582
 30
0.0
  0
VERTEX
  5
3E0
330
238
100
AcDbEntity
  8
Make2D$可见线$普通线
100
AcDbVertex
100
AcDb2dVertex
 10
330.2198765135004
 20
576.8685320842799
 30
0.0
  0
VERTEX
  5
3E1
330
238
100
AcDbEntity
  8
Make2D$可见线$普通线
100
AcDbVertex
100
AcDb2dVertex
 10
330.1662606337649
 20
576.8741664192407
 30
0.0
  0
VERTEX
  5
3E2
330
238
100
AcDbEntity
  8
Make2D$可见线$普通线
100
AcDbVertex
100
AcDb2dVertex
 10
329.9940253263155
 20
576.8426571060006
 30
0.0
  0
VERTEX
  5
3E3
330
238
100
AcDbEntity
  8
Make2D$可见线$普通线
100
AcDbVertex
100
AcDb2dVertex
 10
329.9092699135349
 20
576.8035713442879
 30
0.0
  0
VERTEX
  5
3E4
330
238
100
AcDbEntity
  8
Make2D$可见线$普通线
100
AcDbVertex
100
AcDb2dVertex
 10
329.8104660952389
 20
576.7920362435798
 30
0.0
  0
VERTEX
  5
3E5
330
238
100
AcDbEntity
  8
Make2D$可见线$普通线
100
AcDbVertex
100
AcDb2dVertex
 10
329.524038563956
 20
576.6998237302832
 30
0.0
  0
VERTEX
  5
3E6
330
238
100
AcDbEntity
  8
Make2D$可见线$普通线
100
AcDbVertex
100
AcDb2dVertex
 10
329.3196651799399
 20
576.6043073915963
 30
0.0
  0
VERTEX
  5
3E7
330
238
100
AcDbEntity
  8
Make2D$可见线$普通线
100
AcDbVertex
100
AcDb2dVertex
 10
329.1591510194959
 20
576.5030502434355
 30
0.0
  0
VERTEX
  5
3E8
330
238
100
AcDbEntity
  8
Make2D$可见线$普通线
100
AcDbVertex
100
AcDb2dVertex
 10
329.0931516625038
 20
576.4120756468596
 30
0.0
  0
VERTEX
  5
3E9
330
238
100
AcDbEntity
  8
Make2D$可见线$普通线
100
AcDbVertex
100
AcDb2dVertex
 10
329.0848576012044
 20
576.3548396637943
 30
0.0
  0
VERTEX
  5
3EA
330
238
100
AcDbEntity
  8
Make2D$可见线$普通线
100
AcDbVertex
100
AcDb2dVertex
 10
329.1117789684837
 20
576.2960146121745
 30
0.0
  0
VERTEX
  5
3EB
330
238
100
AcDbEntity
  8
Make2D$可见线$普通线
100
AcDbVertex
100
AcDb2dVertex
 10
329.3171333368194
 20
576.042864683856
 30
0.0
  0
VERTEX
  5
3EC
330
238
100
AcDbEntity
  8
Make2D$可见线$普通线
100
AcDbVertex
100
AcDb2dVertex
 10
329.4112051392655
 20
575.9960771081219
 30
0.0
  0
VERTEX
  5
3ED
330
238
100
AcDbEntity
  8
Make2D$可见线$普通线
100
AcDbVertex
100
AcDb2dVertex
 10
329.4729248234141
 20
575.9969914122711
 30
0.0
  0
VERTEX
  5
3EE
330
238
100
AcDbEntity
  8
Make2D$可见线$普通线
100
AcDbVertex
100
AcDb2dVertex
 10
329.496757588632
 20
576.0266528556118
 30
0.0
  0
SEQEND
  5
3EF
330
238
100
AcDbEntity
  8
Make2D$可见线$普通线
  0
POLYLINE
  5
3F0
330
1F
100
AcDbEntity
  8
Make2D$可见线$普通线
100
AcDb2dPolyline
 66
     1
 10
0.0
 20
0.0
 30
0.0
  0
VERTEX
  5
3F1
330
3F0
100
AcDbEntity
  8
Make2D$可见线$普通线
100
AcDbVertex
100
AcDb2dVertex
 10
321.9589662427136
 20
571.4385535006309
 30
0.0
  0
VERTEX
  5
3F2
330
3F0
100
AcDbEntity
  8
Make2D$可见线$普通线
100
AcDbVertex
100
AcDb2dVertex
 10
321.9877111965384
 20
571.55215079628
 30
0.0
  0
VERTEX
  5
3F3
330
3F0
100
AcDbEntity
  8
Make2D$可见线$普通线
100
AcDbVertex
100
AcDb2dVertex
 10
322.1305762823666
 20
571.7340687749065
 30
0.0
  0
VERTEX
  5
3F4
330
3F0
100
AcDbEntity
  8
Make2D$可见线$普通线
100
AcDbVertex
100
AcDb2dVertex
 10
322.2633252593232
 20
571.8357723399236
 30
0.0
  0
VERTEX
  5
3F5
330
3F0
100
AcDbEntity
  8
Make2D$可见线$普通线
100
AcDbVertex
100
AcDb2dVertex
 10
322.3161807121365
 20
571.7766762436854
 30
0.0
  0
VERTEX
  5
3F6
330
3F0
100
AcDbEntity
  8
Make2D$可见线$普通线
100
AcDbVertex
100
AcDb2dVertex
 10
322.27967308264
 20
571.6267906763682
 30
0.0
  0
VERTEX
  5
3F7
330
3F0
100
AcDbEntity
  8
Make2D$可见线$普通线
100
AcDbVertex
100
AcDb2dVertex
 10
322.1740191592497
 20
571.4836990953555
 30
0.0
  0
VERTEX
  5
3F8
330
3F0
100
AcDbEntity
  8
Make2D$可见线$普通线
100
AcDbVertex
100
AcDb2dVertex
 10
322.082594604606
 20
571.4043371866219
 30
0.0
  0
VERTEX
  5
3F9
330
3F0
100
AcDbEntity
  8
Make2D$可见线$普通线
100
AcDbVertex
100
AcDb2dVertex
 10
322.0226872935083
 20
571.3817149691625
 30
0.0
  0
VERTEX
  5
3FA
330
3F0
100
AcDbEntity
  8
Make2D$可见线$普通线
100
AcDbVertex
100
AcDb2dVertex
 10
321.9648313505452
 20
571.4108385935579
 30
0.0
  0
VERTEX
  5
3FB
330
3F0
100
AcDbEntity
  8
Make2D$可见线$普通线
100
AcDbVertex
100
AcDb2dVertex
 10
321.9589662427136
 20
571.4385535006309
 30
0.0
  0
SEQEND
  5
3FC
330
3F0
100
AcDbEntity
  8
Make2D$可见线$普通线
  0
POLYLINE
  5
3FD
330
1F
100
AcDbEntity
  8
Make2D$可见线$普通线
100
AcDb2dPolyline
 66
     1
 10
0.0
 20
0.0
 30
0.0
  0
VERTEX
  5
3FE
330
3FD
100
AcDbEntity
  8
Make2D$可见线$普通线
100
AcDbVertex
100
AcDb2dVertex
 10
338.306970981386
 20
575.7586460117976
 30
0.0
  0
VERTEX
  5
3FF
330
3FD
100
AcDbEntity
  8
Make2D$可见线$普通线
100
AcDbVertex
100
AcDb2dVertex
 10
338.3072766891643
 20
575.7354556184674
 30
0.0
  0
VERTEX
  5
400
330
3FD
100
AcDbEntity
  8
Make2D$可见线$普通线
100
AcDbVertex
100
AcDb2dVertex
 10
338.3037018963774
 20
575.663231957192
 30
0.0
  0
VERTEX
  5
401
330
3FD
100
AcDbEntity
  8
Make2D$可见线$普通线
100
AcDbVertex
100
AcDb2dVertex
 10
338.1169690518914
 20
575.3904815833758
 30
0.0
  0
VERTEX
  5
402
330
3FD
100
AcDbEntity
  8
Make2D$可见线$普通线
100
AcDbVertex
100
AcDb2dVertex
 10
337.8806440375957
 20
575.0302560693971
 30
0.0
  0
VERTEX
  5
403
330
3FD
100
AcDbEntity
  8
Make2D$可见线$普通线
100
AcDbVertex
100
AcDb2dVertex
 10
337.4134750595278
 20
574.4482344198335
 30
0.0
  0
VERTEX
  5
404
330
3FD
100
AcDbEntity
  8
Make2D$可见线$普通线
100
AcDbVertex
100
AcDb2dVertex
 10
337.1835906195192
 20
574.1101871870746
 30
0.0
  0
VERTEX
  5
405
330
3FD
100
AcDbEntity
  8
Make2D$可见线$普通线
100
AcDbVertex
100
AcDb2dVertex
 10
337.1025362979472
 20
574.0561393219411
 30
0.0
  0
VERTEX
  5
406
330
3FD
100
AcDbEntity
  8
Make2D$可见线$普通线
100
AcDbVertex
100
AcDb2dVertex
 10
337.0566457362784
 20
573.9664950281315
 30
0.0
  0
VERTEX
  5
407
330
3FD
100
AcDbEntity
  8
Make2D$可见线$普通线
100
AcDbVertex
100
AcDb2dVertex
 10
336.8265222686054
 20
573.7055663163954
 30
0.0
  0
VERTEX
  5
408
330
3FD
100
AcDbEntity
  8
Make2D$可见线$普通线
100
AcDbVertex
100
AcDb2dVertex
 10
336.641023455188
 20
573.5468233230716
 30
0.0
  0
VERTEX
  5
409
330
3FD
100
AcDbEntity
  8
Make2D$可见线$普通线
100
AcDbVertex
100
AcDb2dVertex
 10
336.5873972576195
 20
573.5571486123079
 30
0.0
  0
VERTEX
  5
40A
330
3FD
100
AcDbEntity
  8
Make2D$可见线$普通线
100
AcDbVertex
100
AcDb2dVertex
 10
336.5722841972841
 20
573.6587432670576
 30
0.0
  0
VERTEX
  5
40B
330
3FD
100
AcDbEntity
  8
Make2D$可见线$普通线
100
AcDbVertex
100
AcDb2dVertex
 10
336.6712979087212
 20
573.8617624123592
 30
0.0
  0
VERTEX
  5
40C
330
3FD
100
AcDbEntity
  8
Make2D$可见线$普通线
100
AcDbVertex
100
AcDb2dVertex
 10
336.7453495086504
 20
573.9406786721155
 30
0.0
  0
VERTEX
  5
40D
330
3FD
100
AcDbEntity
  8
Make2D$可见线$普通线
100
AcDbVertex
100
AcDb2dVertex
 10
336.8206565828023
 20
574.046111492781
 30
0.0
  0
VERTEX
  5
40E
330
3FD
100
AcDbEntity
  8
Make2D$可见线$普通线
100
AcDbVertex
100
AcDb2dVertex
 10
337.1627694051188
 20
574.5662664408017
 30
0.0
  0
VERTEX
  5
40F
330
3FD
100
AcDbEntity
  8
Make2D$可见线$普通线
100
AcDbVertex
100
AcDb2dVertex
 10
337.4317311522013
 20
574.930270614398
 30
0.0
  0
VERTEX
  5
410
330
3FD
100
AcDbEntity
  8
Make2D$可见线$普通线
100
AcDbVertex
100
AcDb2dVertex
 10
337.5851438570597
 20
575.0897554305483
 30
0.0
  0
VERTEX
  5
411
330
3FD
100
AcDbEntity
  8
Make2D$可见线$普通线
100
AcDbVertex
100
AcDb2dVertex
 10
337.8813834066073
 20
575.4667747842293
 30
0.0
  0
VERTEX
  5
412
330
3FD
100
AcDbEntity
  8
Make2D$可见线$普通线
100
AcDbVertex
100
AcDb2dVertex
 10
338.0096062825697
 20
575.5906286365868
 30
0.0
  0
VERTEX
  5
413
330
3FD
100
AcDbEntity
  8
Make2D$可见线$普通线
100
AcDbVertex
100
AcDb2dVertex
 10
338.0983096430898
 20
575.6938316686716
 30
0.0
  0
VERTEX
  5
414
330
3FD
100
AcDbEntity
  8
Make2D$可见线$普通线
100
AcDbVertex
100
AcDb2dVertex
 10
338.2173500553002
 20
575.756251694951
 30
0.0
  0
VERTEX
  5
415
330
3FD
100
AcDbEntity
  8
Make2D$可见线$普通线
100
AcDbVertex
100
AcDb2dVertex
 10
338.306970981386
 20
575.7586460117976
 30
0.0
  0
SEQEND
  5
416
330
3FD
100
AcDbEntity
  8
Make2D$可见线$普通线
  0
POLYLINE
  5
417
330
1F
100
AcDbEntity
  8
Make2D$可见线$普通线
100
AcDb2dPolyline
 66
     1
 10
0.0
 20
0.0
 30
0.0
  0
VERTEX
  5
418
330
417
100
AcDbEntity
  8
Make2D$可见线$普通线
100
AcDbVertex
100
AcDb2dVertex
 10
339.8570511785646
 20
571.8887123325788
 30
0.0
  0
VERTEX
  5
419
330
417
100
AcDbEntity
  8
Make2D$可见线$普通线
100
AcDbVertex
100
AcDb2dVertex
 10
339.8390346154688
 20
571.412872039879
 30
0.0
  0
VERTEX
  5
41A
330
417
100
AcDbEntity
  8
Make2D$可见线$普通线
100
AcDbVertex
100
AcDb2dVertex
 10
339.7898495568483
 20
571.3115663695288
 30
0.0
  0
VERTEX
  5
41B
330
417
100
AcDbEntity
  8
Make2D$可见线$普通线
100
AcDbVertex
100
AcDb2dVertex
 10
339.7537150521469
 20
571.0506428767595
 30
0.0
  0
VERTEX
  5
41C
330
417
100
AcDbEntity
  8
Make2D$可见线$普通线
100
AcDbVertex
100
AcDb2dVertex
 10
339.6896721044366
 20
570.8846328289231
 30
0.0
  0
VERTEX
  5
41D
330
417
100
AcDbEntity
  8
Make2D$可见线$普通线
100
AcDbVertex
100
AcDb2dVertex
 10
339.6729092181661
 20
570.7896163494725
 30
0.0
  0
VERTEX
  5
41E
330
417
100
AcDbEntity
  8
Make2D$可见线$普通线
100
AcDbVertex
100
AcDb2dVertex
 10
339.6224169961841
 20
570.5430712310788
 30
0.0
  0
VERTEX
  5
41F
330
417
100
AcDbEntity
  8
Make2D$可见线$普通线
100
AcDbVertex
100
AcDb2dVertex
 10
339.5376792691569
 20
570.402259232222
 30
0.0
  0
VERTEX
  5
420
330
417
100
AcDbEntity
  8
Make2D$可见线$普通线
100
AcDbVertex
100
AcDb2dVertex
 10
339.494779365518
 20
570.2827417965856
 30
0.0
  0
VERTEX
  5
421
330
417
100
AcDbEntity
  8
Make2D$可见线$普通线
100
AcDbVertex
100
AcDb2dVertex
 10
339.4452158683141
 20
570.1616924271514
 30
0.0
  0
VERTEX
  5
422
330
417
100
AcDbEntity
  8
Make2D$可见线$普通线
100
AcDbVertex
100
AcDb2dVertex
 10
339.3983926752534
 20
570.0763393675913
 30
0.0
  0
VERTEX
  5
423
330
417
100
AcDbEntity
  8
Make2D$可见线$普通线
100
AcDbVertex
100
AcDb2dVertex
 10
339.3459736433947
 20
569.96089586388
 30
0.0
  0
VERTEX
  5
424
330
417
100
AcDbEntity
  8
Make2D$可见线$普通线
100
AcDbVertex
100
AcDb2dVertex
 10
339.1698751186834
 20
569.6384579219043
 30
0.0
  0
VERTEX
  5
425
330
417
100
AcDbEntity
  8
Make2D$可见线$普通线
100
AcDbVertex
100
AcDb2dVertex
 10
339.1037637892336
 20
569.5686206038572
 30
0.0
  0
VERTEX
  5
426
330
417
100
AcDbEntity
  8
Make2D$可见线$普通线
100
AcDbVertex
100
AcDb2dVertex
 10
339.0027676316387
 20
569.400006666277
 30
0.0
  0
VERTEX
  5
427
330
417
100
AcDbEntity
  8
Make2D$可见线$普通线
100
AcDbVertex
100
AcDb2dVertex
 10
338.9478635339814
 20
569.2238821095117
 30
0.0
  0
VERTEX
  5
428
330
417
100
AcDbEntity
  8
Make2D$可见线$普通线
100
AcDbVertex
100
AcDb2dVertex
 10
338.826638633084
 20
569.0637929432776
 30
0.0
  0
VERTEX
  5
429
330
417
100
AcDbEntity
  8
Make2D$可见线$普通线
100
AcDbVertex
100
AcDb2dVertex
 10
338.5956268757932
 20
568.7261569707517
 30
0.0
  0
VERTEX
  5
42A
330
417
100
AcDbEntity
  8
Make2D$可见线$普通线
100
AcDbVertex
100
AcDb2dVertex
 10
338.4369907057344
 20
568.535582292374
 30
0.0
  0
VERTEX
  5
42B
330
417
100
AcDbEntity
  8
Make2D$可见线$普通线
100
AcDbVertex
100
AcDb2dVertex
 10
338.2724470221788
 20
568.3683576404035
 30
0.0
  0
VERTEX
  5
42C
330
417
100
AcDbEntity
  8
Make2D$可见线$普通线
100
AcDbVertex
100
AcDb2dVertex
 10
338.0554816535652
 20
568.2072744816763
 30
0.0
  0
VERTEX
  5
42D
330
417
100
AcDbEntity
  8
Make2D$可见线$普通线
100
AcDbVertex
100
AcDb2dVertex
 10
337.8614387347153
 20
568.0455965511992
 30
0.0
  0
VERTEX
  5
42E
330
417
100
AcDbEntity
  8
Make2D$可见线$普通线
100
AcDbVertex
100
AcDb2dVertex
 10
337.7052972018326
 20
567.9648934483973
 30
0.0
  0
VERTEX
  5
42F
330
417
100
AcDbEntity
  8
Make2D$可见线$普通线
100
AcDbVertex
100
AcDb2dVertex
 10
337.5987948719026
 20
567.9783857801259
 30
0.0
  0
VERTEX
  5
430
330
417
100
AcDbEntity
  8
Make2D$可见线$普通线
100
AcDbVertex
100
AcDb2dVertex
 10
337.5121184634214
 20
568.0306866001769
 30
0.0
  0
VERTEX
  5
431
330
417
100
AcDbEntity
  8
Make2D$可见线$普通线
100
AcDbVertex
100
AcDb2dVertex
 10
337.4995040669284
 20
568.1913629745032
 30
0.0
  0
VERTEX
  5
432
330
417
100
AcDbEntity
  8
Make2D$可见线$普通线
100
AcDbVertex
100
AcDb2dVertex
 10
337.5454671909682
 20
568.3886814576858
 30
0.0
  0
VERTEX
  5
433
330
417
100
AcDbEntity
  8
Make2D$可见线$普通线
100
AcDbVertex
100
AcDb2dVertex
 10
337.6289008942467
 20
568.7875473166897
 30
0.0
  0
VERTEX
  5
434
330
417
100
AcDbEntity
  8
Make2D$可见线$普通线
100
AcDbVertex
100
AcDb2dVertex
 10
337.6717709878479
 20
568.8631341107147
 30
0.0
  0
VERTEX
  5
435
330
417
100
AcDbEntity
  8
Make2D$可见线$普通线
100
AcDbVertex
100
AcDb2dVertex
 10
337.7498077098439
 20
569.0532574248494
 30
0.0
  0
VERTEX
  5
436
330
417
100
AcDbEntity
  8
Make2D$可见线$普通线
100
AcDbVertex
100
AcDb2dVertex
 10
337.8414298617486
 20
569.2359239030969
 30
0.0
  0
VERTEX
  5
437
330
417
100
AcDbEntity
  8
Make2D$可见线$普通线
100
AcDbVertex
100
AcDb2dVertex
 10
338.0341757960822
 20
569.5296840236595
 30
0.0
  0
VERTEX
  5
438
330
417
100
AcDbEntity
  8
Make2D$可见线$普通线
100
AcDbVertex
100
AcDb2dVertex
 10
338.3489351087989
 20
570.042881651325
 30
0.0
  0
VERTEX
  5
439
330
417
100
AcDbEntity
  8
Make2D$可见线$普通线
100
AcDbVertex
100
AcDb2dVertex
 10
338.6617844035
 20
570.4943849503763
 30
0.0
  0
VERTEX
  5
43A
330
417
100
AcDbEntity
  8
Make2D$可见线$普通线
100
AcDbVertex
100
AcDb2dVertex
 10
338.8241213501161
 20
570.6950516918641
 30
0.0
  0
VERTEX
  5
43B
330
417
100
AcDbEntity
  8
Make2D$可见线$普通线
100
AcDbVertex
100
AcDb2dVertex
 10
339.0498398408374
 20
571.0039366273847
 30
0.0
  0
VERTEX
  5
43C
330
417
100
AcDbEntity
  8
Make2D$可见线$普通线
100
AcDbVertex
100
AcDb2dVertex
 10
339.1022950659388
 20
571.0946418268907
 30
0.0
  0
VERTEX
  5
43D
330
417
100
AcDbEntity
  8
Make2D$可见线$普通线
100
AcDbVertex
100
AcDb2dVertex
 10
339.2205505326002
 20
571.2172726229093
 30
0.0
  0
VERTEX
  5
43E
330
417
100
AcDbEntity
  8
Make2D$可见线$普通线
100
AcDbVertex
100
AcDb2dVertex
 10
339.3276993831963
 20
571.3752253257027
 30
0.0
  0
VERTEX
  5
43F
330
417
100
AcDbEntity
  8
Make2D$可见线$普通线
100
AcDbVertex
100
AcDb2dVertex
 10
339.5491521078704
 20
571.6421872225025
 30
0.0
  0
VERTEX
  5
440
330
417
100
AcDbEntity
  8
Make2D$可见线$普通线
100
AcDbVertex
100
AcDb2dVertex
 10
339.598599068887
 20
571.732281825296
 30
0.0
  0
VERTEX
  5
441
330
417
100
AcDbEntity
  8
Make2D$可见线$普通线
100
AcDbVertex
100
AcDb2dVertex
 10
339.7102154414235
 20
571.8686576022236
 30
0.0
  0
VERTEX
  5
442
330
417
100
AcDbEntity
  8
Make2D$可见线$普通线
100
AcDbVertex
100
AcDb2dVertex
 10
339.7508404357773
 20
571.9115150723483
 30
0.0
  0
VERTEX
  5
443
330
417
100
AcDbEntity
  8
Make2D$可见线$普通线
100
AcDbVertex
100
AcDb2dVertex
 10
339.8156310893614
 20
571.9068698187148
 30
0.0
  0
VERTEX
  5
444
330
417
100
AcDbEntity
  8
Make2D$可见线$普通线
100
AcDbVertex
100
AcDb2dVertex
 10
339.8570511785646
 20
571.8887123325788
 30
0.0
  0
SEQEND
  5
445
330
417
100
AcDbEntity
  8
Make2D$可见线$普通线
  0
POLYLINE
  5
446
330
1F
100
AcDbEntity
  8
Make2D$可见线$普通线
100
AcDb2dPolyline
 66
     1
 10
0.0
 20
0.0
 30
0.0
  0
VERTEX
  5
447
330
446
100
AcDbEntity
  8
Make2D$可见线$普通线
100
AcDbVertex
100
AcDb2dVertex
 10
325.1650348357578
 20
572.0336231680164
 30
0.0
  0
VERTEX
  5
448
330
446
100
AcDbEntity
  8
Make2D$可见线$普通线
100
AcDbVertex
100
AcDb2dVertex
 10
325.344736741138
 20
572.1602436295278
 30
0.0
  0
VERTEX
  5
449
330
446
100
AcDbEntity
  8
Make2D$可见线$普通线
100
AcDbVertex
100
AcDb2dVertex
 10
325.4360125894589
 20
572.1427820539982
 30
0.0
  0
VERTEX
  5
44A
330
446
100
AcDbEntity
  8
Make2D$可见线$普通线
100
AcDbVertex
100
AcDb2dVertex
 10
325.4811736958717
 20
572.0618284519643
 30
0.0
  0
VERTEX
  5
44B
330
446
100
AcDbEntity
  8
Make2D$可见线$普通线
100
AcDbVertex
100
AcDb2dVertex
 10
325.4709439879654
 20
571.9810733758417
 30
0.0
  0
VERTEX
  5
44C
330
446
100
AcDbEntity
  8
Make2D$可见线$普通线
100
AcDbVertex
100
AcDb2dVertex
 10
325.3200422548687
 20
571.7596226325512
 30
0.0
  0
VERTEX
  5
44D
330
446
100
AcDbEntity
  8
Make2D$可见线$普通线
100
AcDbVertex
100
AcDb2dVertex
 10
325.1719089993336
 20
571.6736282147722
 30
0.0
  0
VERTEX
  5
44E
330
446
100
AcDbEntity
  8
Make2D$可见线$普通线
100
AcDbVertex
100
AcDb2dVertex
 10
325.0273613241228
 20
571.5733401153475
 30
0.0
  0
VERTEX
  5
44F
330
446
100
AcDbEntity
  8
Make2D$可见线$普通线
100
AcDbVertex
100
AcDb2dVertex
 10
324.9238067412221
 20
571.5447924651339
 30
0.0
  0
VERTEX
  5
450
330
446
100
AcDbEntity
  8
Make2D$可见线$普通线
100
AcDbVertex
100
AcDb2dVertex
 10
324.8612862041473
 20
571.5566480711107
 30
0.0
  0
VERTEX
  5
451
330
446
100
AcDbEntity
  8
Make2D$可见线$普通线
100
AcDbVertex
100
AcDb2dVertex
 10
324.8264438279538
 20
571.6136660699586
 30
0.0
  0
VERTEX
  5
452
330
446
100
AcDbEntity
  8
Make2D$可见线$普通线
100
AcDbVertex
100
AcDb2dVertex
 10
324.8426025317912
 20
571.6816532667892
 30
0.0
  0
VERTEX
  5
453
330
446
100
AcDbEntity
  8
Make2D$可见线$普通线
100
AcDbVertex
100
AcDb2dVertex
 10
325.0664556788098
 20
571.9387299572707
 30
0.0
  0
VERTEX
  5
454
330
446
100
AcDbEntity
  8
Make2D$可见线$普通线
100
AcDbVertex
100
AcDb2dVertex
 10
325.1650348357578
 20
572.0336231680164
 30
0.0
  0
SEQEND
  5
455
330
446
100
AcDbEntity
  8
Make2D$可见线$普通线
  0
POLYLINE
  5
456
330
1F
100
AcDbEntity
  8
Make2D$可见线$普通线
100
AcDb2dPolyline
 66
     1
 10
0.0
 20
0.0
 30
0.0
  0
VERTEX
  5
457
330
456
100
AcDbEntity
  8
Make2D$可见线$普通线
100
AcDbVertex
100
AcDb2dVertex
 10
342.6647320214734
 20
573.0468659026081
 30
0.0
  0
VERTEX
  5
458
330
456
100
AcDbEntity
  8
Make2D$可见线$普通线
100
AcDbVertex
100
AcDb2dVertex
 10
342.753812501947
 20
573.0597737075452
 30
0.0
  0
VERTEX
  5
459
330
456
100
AcDbEntity
  8
Make2D$可见线$普通线
100
AcDbVertex
100
AcDb2dVertex
 10
342.8066273283708
 20
573.0468768517612
 30
0.0
  0
VERTEX
  5
45A
330
456
100
AcDbEntity
  8
Make2D$可见线$普通线
100
AcDbVertex
100
AcDb2dVertex
 10
342.8981385411597
 20
572.9931991034694
 30
0.0
  0
VERTEX
  5
45B
330
456
100
AcDbEntity
  8
Make2D$可见线$普通线
100
AcDbVertex
100
AcDb2dVertex
 10
343.0002213642663
 20
572.9124411404284
 30
0.0
  0
VERTEX
  5
45C
330
456
100
AcDbEntity
  8
Make2D$可见线$普通线
100
AcDbVertex
100
AcDb2dVertex
 10
343.0422294461515
 20
572.7737237177141
 30
0.0
  0
VERTEX
  5
45D
330
456
100
AcDbEntity
  8
Make2D$可见线$普通线
100
AcDbVertex
100
AcDb2dVertex
 10
343.0135677508123
 20
572.5102602861642
 30
0.0
  0
VERTEX
  5
45E
330
456
100
AcDbEntity
  8
Make2D$可见线$普通线
100
AcDbVertex
100
AcDb2dVertex
 10
342.8683011245899
 20
572.3847519403259
 30
0.0
  0
VERTEX
  5
45F
330
456
100
AcDbEntity
  8
Make2D$可见线$普通线
100
AcDbVertex
100
AcDb2dVertex
 10
342.6894586034869
 20
572.3630058191472
 30
0.0
  0
VERTEX
  5
460
330
456
100
AcDbEntity
  8
Make2D$可见线$普通线
100
AcDbVertex
100
AcDb2dVertex
 10
342.573899883057
 20
572.3152059564137
 30
0.0
  0
VERTEX
  5
461
330
456
100
AcDbEntity
  8
Make2D$可见线$普通线
100
AcDbVertex
100
AcDb2dVertex
 10
342.3023411866
 20
572.2899858519645
 30
0.0
  0
VERTEX
  5
462
330
456
100
AcDbEntity
  8
Make2D$可见线$普通线
100
AcDbVertex
100
AcDb2dVertex
 10
342.0918996681891
 20
572.3571149810527
 30
0.0
  0
VERTEX
  5
463
330
456
100
AcDbEntity
  8
Make2D$可见线$普通线
100
AcDbVertex
100
AcDb2dVertex
 10
341.9923672323171
 20
572.4648287449021
 30
0.0
  0
VERTEX
  5
464
330
456
100
AcDbEntity
  8
Make2D$可见线$普通线
100
AcDbVertex
100
AcDb2dVertex
 10
341.9923740513686
 20
572.613291156797
 30
0.0
  0
VERTEX
  5
465
330
456
100
AcDbEntity
  8
Make2D$可见线$普通线
100
AcDbVertex
100
AcDb2dVertex
 10
342.1057493432054
 20
572.6798565676354
 30
0.0
  0
VERTEX
  5
466
330
456
100
AcDbEntity
  8
Make2D$可见线$普通线
100
AcDbVertex
100
AcDb2dVertex
 10
342.5384357627137
 20
572.9204740373596
 30
0.0
  0
VERTEX
  5
467
330
456
100
AcDbEntity
  8
Make2D$可见线$普通线
100
AcDbVertex
100
AcDb2dVertex
 10
342.6647320214734
 20
573.0468659026081
 30
0.0
  0
SEQEND
  5
468
330
456
100
AcDbEntity
  8
Make2D$可见线$普通线
  0
POLYLINE
  5
469
330
1F
100
AcDbEntity
  8
Make2D$可见线$普通线
100
AcDb2dPolyline
 66
     1
 10
0.0
 20
0.0
 30
0.0
  0
VERTEX
  5
46A
330
469
100
AcDbEntity
  8
Make2D$可见线$普通线
100
AcDbVertex
100
AcDb2dVertex
 10
337.9093643672994
 20
572.8203604039844
 30
0.0
  0
VERTEX
  5
46B
330
469
100
AcDbEntity
  8
Make2D$可见线$普通线
100
AcDbVertex
100
AcDb2dVertex
 10
337.9271071424582
 20
572.8220649112241
 30
0.0
  0
VERTEX
  5
46C
330
469
100
AcDbEntity
  8
Make2D$可见线$普通线
100
AcDbVertex
100
AcDb2dVertex
 10
337.921664183765
 20
572.7593401239549
 30
0.0
  0
VERTEX
  5
46D
330
469
100
AcDbEntity
  8
Make2D$可见线$普通线
100
AcDbVertex
100
AcDb2dVertex
 10
337.8466961811065
 20
572.6625238918547
 30
0.0
  0
VERTEX
  5
46E
330
469
100
AcDbEntity
  8
Make2D$可见线$普通线
100
AcDbVertex
100
AcDb2dVertex
 10
337.5385313568377
 20
572.3785844431036
 30
0.0
  0
VERTEX
  5
46F
330
469
100
AcDbEntity
  8
Make2D$可见线$普通线
100
AcDbVertex
100
AcDb2dVertex
 10
337.4453473431212
 20
572.3660062315026
 30
0.0
  0
VERTEX
  5
470
330
469
100
AcDbEntity
  8
Make2D$可见线$普通线
100
AcDbVertex
100
AcDb2dVertex
 10
337.4122365249644
 20
572.4157357879753
 30
0.0
  0
VERTEX
  5
471
330
469
100
AcDbEntity
  8
Make2D$可见线$普通线
100
AcDbVertex
100
AcDb2dVertex
 10
337.4576964430274
 20
572.5045301585571
 30
0.0
  0
VERTEX
  5
472
330
469
100
AcDbEntity
  8
Make2D$可见线$普通线
100
AcDbVertex
100
AcDb2dVertex
 10
337.628827915242
 20
572.6402123868695
 30
0.0
  0
VERTEX
  5
473
330
469
100
AcDbEntity
  8
Make2D$可见线$普通线
100
AcDbVertex
100
AcDb2dVertex
 10
337.8493445903296
 20
572.8257964344431
 30
0.0
  0
VERTEX
  5
474
330
469
100
AcDbEntity
  8
Make2D$可见线$普通线
100
AcDbVertex
100
AcDb2dVertex
 10
337.9093643672994
 20
572.8203604039844
 30
0.0
  0
SEQEND
  5
475
330
469
100
AcDbEntity
  8
Make2D$可见线$普通线
  0
POLYLINE
  5
476
330
1F
100
AcDbEntity
  8
Make2D$可见线$普通线
100
AcDb2dPolyline
 66
     1
 10
0.0
 20
0.0
 30
0.0
  0
VERTEX
  5
477
330
476
100
AcDbEntity
  8
Make2D$可见线$普通线
100
AcDbVertex
100
AcDb2dVertex
 10
334.8906285114329
 20
573.1440816715591
 30
0.0
  0
VERTEX
  5
478
330
476
100
AcDbEntity
  8
Make2D$可见线$普通线
100
AcDbVertex
100
AcDb2dVertex
 10
334.948971847205
 20
573.1525575245661
 30
0.0
  0
VERTEX
  5
479
330
476
100
AcDbEntity
  8
Make2D$可见线$普通线
100
AcDbVertex
100
AcDb2dVertex
 10
334.9620662016197
 20
573.1327864708079
 30
0.0
  0
VERTEX
  5
47A
330
476
100
AcDbEntity
  8
Make2D$可见线$普通线
100
AcDbVertex
100
AcDb2dVertex
 10
334.9553550585789
 20
573.0366959858621
 30
0.0
  0
VERTEX
  5
47B
330
476
100
AcDbEntity
  8
Make2D$可见线$普通线
100
AcDbVertex
100
AcDb2dVertex
 10
334.9257344162461
 20
572.9805042133355
 30
0.0
  0
VERTEX
  5
47C
330
476
100
AcDbEntity
  8
Make2D$可见线$普通线
100
AcDbVertex
100
AcDb2dVertex
 10
334.685947926255
 20
572.7255140412294
 30
0.0
  0
VERTEX
  5
47D
330
476
100
AcDbEntity
  8
Make2D$可见线$普通线
100
AcDbVertex
100
AcDb2dVertex
 10
334.6669378339365
 20
572.713462124297
 30
0.0
  0
VERTEX
  5
47E
330
476
100
AcDbEntity
  8
Make2D$可见线$普通线
100
AcDbVertex
100
AcDb2dVertex
 10
334.6166890302454
 20
572.7305637436436
 30
0.0
  0
VERTEX
  5
47F
330
476
100
AcDbEntity
  8
Make2D$可见线$普通线
100
AcDbVertex
100
AcDb2dVertex
 10
334.6152512001547
 20
572.7680620263195
 30
0.0
  0
VERTEX
  5
480
330
476
100
AcDbEntity
  8
Make2D$可见线$普通线
100
AcDbVertex
100
AcDb2dVertex
 10
334.6563590543902
 20
572.8636610785048
 30
0.0
  0
VERTEX
  5
481
330
476
100
AcDbEntity
  8
Make2D$可见线$普通线
100
AcDbVertex
100
AcDb2dVertex
 10
334.7927233984402
 20
573.0119751040947
 30
0.0
  0
VERTEX
  5
482
330
476
100
AcDbEntity
  8
Make2D$可见线$普通线
100
AcDbVertex
100
AcDb2dVertex
 10
334.8906285114329
 20
573.1440816715591
 30
0.0
  0
SEQEND
  5
483
330
476
100
AcDbEntity
  8
Make2D$可见线$普通线
  0
POLYLINE
  5
484
330
1F
100
AcDbEntity
  8
Make2D$可见线$普通线
100
AcDb2dPolyline
 66
     1
 10
0.0
 20
0.0
 30
0.0
  0
VERTEX
  5
485
330
484
100
AcDbEntity
  8
Make2D$可见线$普通线
100
AcDbVertex
100
AcDb2dVertex
 10
333.6314696107671
 20
572.9173237119579
 30
0.0
  0
VERTEX
  5
486
330
484
100
AcDbEntity
  8
Make2D$可见线$普通线
100
AcDbVertex
100
AcDb2dVertex
 10
333.6455661708246
 20
572.8948392840489
 30
0.0
  0
VERTEX
  5
487
330
484
100
AcDbEntity
  8
Make2D$可见线$普通线
100
AcDbVertex
100
AcDb2dVertex
 10
333.6070590833376
 20
572.8392316850453
 30
0.0
  0
VERTEX
  5
488
330
484
100
AcDbEntity
  8
Make2D$可见线$普通线
100
AcDbVertex
100
AcDb2dVertex
 10
333.1528781206384
 20
572.5518360471884
 30
0.0
  0
VERTEX
  5
489
330
484
100
AcDbEntity
  8
Make2D$可见线$普通线
100
AcDbVertex
100
AcDb2dVertex
 10
332.3982985603728
 20
572.2551096542966
 30
0.0
  0
VERTEX
  5
48A
330
484
100
AcDbEntity
  8
Make2D$可见线$普通线
100
AcDbVertex
100
AcDb2dVertex
 10
331.9750590590415
 20
572.0632162843457
 30
0.0
  0
VERTEX
  5
48B
330
484
100
AcDbEntity
  8
Make2D$可见线$普通线
100
AcDbVertex
100
AcDb2dVertex
 10
331.1893875652304
 20
571.8026667540558
 30
0.0
  0
VERTEX
  5
48C
330
484
100
AcDbEntity
  8
Make2D$可见线$普通线
100
AcDbVertex
100
AcDb2dVertex
 10
330.8405230747327
 20
571.7217584355151
 30
0.0
  0
VERTEX
  5
48D
330
484
100
AcDbEntity
  8
Make2D$可见线$普通线
100
AcDbVertex
100
AcDb2dVertex
 10
330.6883186518273
 20
571.6646459666657
 30
0.0
  0
VERTEX
  5
48E
330
484
100
AcDbEntity
  8
Make2D$可见线$普通线
100
AcDbVertex
100
AcDb2dVertex
 10
330.5029941176957
 20
571.654879743318
 30
0.0
  0
VERTEX
  5
48F
330
484
100
AcDbEntity
  8
Make2D$可见线$普通线
100
AcDbVertex
100
AcDb2dVertex
 10
330.0942480818292
 20
571.5416287582327
 30
0.0
  0
VERTEX
  5
490
330
484
100
AcDbEntity
  8
Make2D$可见线$普通线
100
AcDbVertex
100
AcDb2dVertex
 10
329.7354369393219
 20
571.4933614323804
 30
0.0
  0
VERTEX
  5
491
330
484
100
AcDbEntity
  8
Make2D$可见线$普通线
100
AcDbVertex
100
AcDb2dVertex
 10
329.4018851224723
 20
571.4874730270683
 30
0.0
  0
VERTEX
  5
492
330
484
100
AcDbEntity
  8
Make2D$可见线$普通线
100
AcDbVertex
100
AcDb2dVertex
 10
328.8910159941371
 20
571.4630740965555
 30
0.0
  0
VERTEX
  5
493
330
484
100
AcDbEntity
  8
Make2D$可见线$普通线
100
AcDbVertex
100
AcDb2dVertex
 10
328.7171521884987
 20
571.5262214053038
 30
0.0
  0
VERTEX
  5
494
330
484
100
AcDbEntity
  8
Make2D$可见线$普通线
100
AcDbVertex
100
AcDb2dVertex
 10
328.674004378322
 20
571.6164540864193
 30
0.0
  0
VERTEX
  5
495
330
484
100
AcDbEntity
  8
Make2D$可见线$普通线
100
AcDbVertex
100
AcDb2dVertex
 10
328.6799700884316
 20
571.7282579376508
 30
0.0
  0
VERTEX
  5
496
330
484
100
AcDbEntity
  8
Make2D$可见线$普通线
100
AcDbVertex
100
AcDb2dVertex
 10
328.7870515584621
 20
571.8708583400645
 30
0.0
  0
VERTEX
  5
497
330
484
100
AcDbEntity
  8
Make2D$可见线$普通线
100
AcDbVertex
100
AcDb2dVertex
 10
329.0229482196298
 20
572.0282054524727
 30
0.0
  0
VERTEX
  5
498
330
484
100
AcDbEntity
  8
Make2D$可见线$普通线
100
AcDbVertex
100
AcDb2dVertex
 10
329.4513838349236
 20
572.2691147069636
 30
0.0
  0
VERTEX
  5
499
330
484
100
AcDbEntity
  8
Make2D$可见线$普通线
100
AcDbVertex
100
AcDb2dVertex
 10
330.2359247989243
 20
572.5655616934907
 30
0.0
  0
VERTEX
  5
49A
330
484
100
AcDbEntity
  8
Make2D$可见线$普通线
100
AcDbVertex
100
AcDb2dVertex
 10
330.7062409372793
 20
572.7088128991772
 30
0.0
  0
VERTEX
  5
49B
330
484
100
AcDbEntity
  8
Make2D$可见线$普通线
100
AcDbVertex
100
AcDb2dVertex
 10
331.3448353668497
 20
572.8001692206863
 30
0.0
  0
VERTEX
  5
49C
330
484
100
AcDbEntity
  8
Make2D$可见线$普通线
100
AcDbVertex
100
AcDb2dVertex
 10
331.597999144952
 20
572.8762320169951
 30
0.0
  0
VERTEX
  5
49D
330
484
100
AcDbEntity
  8
Make2D$可见线$普通线
100
AcDbVertex
100
AcDb2dVertex
 10
332.112679609185
 20
572.9032366080457
 30
0.0
  0
VERTEX
  5
49E
330
484
100
AcDbEntity
  8
Make2D$可见线$普通线
100
AcDbVertex
100
AcDb2dVertex
 10
333.6314696107671
 20
572.9173237119579
 30
0.0
  0
SEQEND
  5
49F
330
484
100
AcDbEntity
  8
Make2D$可见线$普通线
  0
POLYLINE
  5
4A0
330
1F
100
AcDbEntity
  8
Make2D$可见线$普通线
100
AcDb2dPolyline
 66
     1
 10
0.0
 20
0.0
 30
0.0
  0
VERTEX
  5
4A1
330
4A0
100
AcDbEntity
  8
Make2D$可见线$普通线
100
AcDbVertex
100
AcDb2dVertex
 10
329.3555800615834
 20
570.5459115855031
 30
0.0
  0
VERTEX
  5
4A2
330
4A0
100
AcDbEntity
  8
Make2D$可见线$普通线
100
AcDbVertex
100
AcDb2dVertex
 10
328.8579795550224
 20
569.505943490497
 30
0.0
  0
VERTEX
  5
4A3
330
4A0
100
AcDbEntity
  8
Make2D$可见线$普通线
100
AcDbVertex
100
AcDb2dVertex
 10
329.0014723010432
 20
569.506109465212
 30
0.0
  0
VERTEX
  5
4A4
330
4A0
100
AcDbEntity
  8
Make2D$可见线$普通线
100
AcDbVertex
100
AcDb2dVertex
 10
329.1189213442706
 20
569.7708825856835
 30
0.0
  0
VERTEX
  5
4A5
330
4A0
100
AcDbEntity
  8
Make2D$可见线$普通线
100
AcDbVertex
100
AcDb2dVertex
 10
329.6270257386997
 20
569.7712985832754
 30
0.0
  0
VERTEX
  5
4A6
330
4A0
100
AcDbEntity
  8
Make2D$可见线$普通线
100
AcDbVertex
100
AcDb2dVertex
 10
329.7560448006905
 20
569.5069822616357
 30
0.0
  0
VERTEX
  5
4A7
330
4A0
100
AcDbEntity
  8
Make2D$可见线$普通线
100
AcDbVertex
100
AcDb2dVertex
 10
329.9034040402432
 20
569.5071527086335
 30
0.0
  0
VERTEX
  5
4A8
330
4A0
100
AcDbEntity
  8
Make2D$可见线$普通线
100
AcDbVertex
100
AcDb2dVertex
 10
329.3931353942051
 20
570.545905160946
 30
0.0
  0
VERTEX
  5
4A9
330
4A0
100
AcDbEntity
  8
Make2D$可见线$普通线
100
AcDbVertex
100
AcDb2dVertex
 10
329.3555800615834
 20
570.5459115855031
 30
0.0
  0
SEQEND
  5
4AA
330
4A0
100
AcDbEntity
  8
Make2D$可见线$普通线
  0
POLYLINE
  5
4AB
330
1F
100
AcDbEntity
  8
Make2D$可见线$普通线
100
AcDb2dPolyline
 66
     1
 10
0.0
 20
0.0
 30
0.0
  0
VERTEX
  5
4AC
330
4AB
100
AcDbEntity
  8
Make2D$可见线$普通线
100
AcDbVertex
100
AcDb2dVertex
 10
329.3730015046571
 20
570.2876102599464
 30
0.0
  0
VERTEX
  5
4AD
330
4AB
100
AcDbEntity
  8
Make2D$可见线$普通线
100
AcDbVertex
100
AcDb2dVertex
 10
329.1763722725078
 20
569.8773575364492
 30
0.0
  0
VERTEX
  5
4AE
330
4AB
100
AcDbEntity
  8
Make2D$可见线$普通线
100
AcDbVertex
100
AcDb2dVertex
 10
329.5748188747033
 20
569.8776295966289
 30
0.0
  0
VERTEX
  5
4AF
330
4AB
100
AcDbEntity
  8
Make2D$可见线$普通线
100
AcDbVertex
100
AcDb2dVertex
 10
329.3730015046571
 20
570.2876102599464
 30
0.0
  0
SEQEND
  5
4B0
330
4AB
100
AcDbEntity
  8
Make2D$可见线$普通线
  0
POLYLINE
  5
4B1
330
1F
100
AcDbEntity
  8
Make2D$可见线$普通线
100
AcDb2dPolyline
 66
     1
 10
0.0
 20
0.0
 30
0.0
  0
VERTEX
  5
4B2
330
4B1
100
AcDbEntity
  8
Make2D$可见线$普通线
100
AcDbVertex
100
AcDb2dVertex
 10
316.2419558544242
 20
566.3702476968947
 30
0.0
  0
VERTEX
  5
4B3
330
4B1
100
AcDbEntity
  8
Make2D$可见线$普通线
100
AcDbVertex
100
AcDb2dVertex
 10
316.534371558759
 20
566.3740651416737
 30
0.0
  0
VERTEX
  5
4B4
330
4B1
100
AcDbEntity
  8
Make2D$可见线$普通线
100
AcDbVertex
100
AcDb2dVertex
 10
316.5907168221015
 20
566.4044517268128
 30
0.0
  0
VERTEX
  5
4B5
330
4B1
100
AcDbEntity
  8
Make2D$可见线$普通线
100
AcDbVertex
100
AcDb2dVertex
 10
316.7497653314288
 20
566.5376738696586
 30
0.0
  0
VERTEX
  5
4B6
330
4B1
100
AcDbEntity
  8
Make2D$可见线$普通线
100
AcDbVertex
100
AcDb2dVertex
 10
317.4077961958497
 20
567.3205066936612
 30
0.0
  0
VERTEX
  5
4B7
330
4B1
100
AcDbEntity
  8
Make2D$可见线$普通线
100
AcDbVertex
100
AcDb2dVertex
 10
318.0320954994577
 20
568.1098249703666
 30
0.0
  0
VERTEX
  5
4B8
330
4B1
100
AcDbEntity
  8
Make2D$可见线$普通线
100
AcDbVertex
100
AcDb2dVertex
 10
318.3657006526543
 20
568.487871586804
 30
0.0
  0
VERTEX
  5
4B9
330
4B1
100
AcDbEntity
  8
Make2D$可见线$普通线
100
AcDbVertex
100
AcDb2dVertex
 10
319.2488589765131
 20
569.790495222707
 30
0.0
  0
VERTEX
  5
4BA
330
4B1
100
AcDbEntity
  8
Make2D$可见线$普通线
100
AcDbVertex
100
AcDb2dVertex
 10
319.4652659906739
 20
570.0493958632587
 30
0.0
  0
VERTEX
  5
4BB
330
4B1
100
AcDbEntity
  8
Make2D$可见线$普通线
100
AcDbVertex
100
AcDb2dVertex
 10
319.8068434459182
 20
570.4192203672076
 30
0.0
  0
VERTEX
  5
4BC
330
4B1
100
AcDbEntity
  8
Make2D$可见线$普通线
100
AcDbVertex
100
AcDb2dVertex
 10
320.19354539912
 20
570.5925500731172
 30
0.0
  0
VERTEX
  5
4BD
330
4B1
100
AcDbEntity
  8
Make2D$可见线$普通线
100
AcDbVertex
100
AcDb2dVertex
 10
320.4938123276677
 20
570.715456956015
 30
0.0
  0
VERTEX
  5
4BE
330
4B1
100
AcDbEntity
  8
Make2D$可见线$普通线
100
AcDbVertex
100
AcDb2dVertex
 10
320.7108603072452
 20
570.7552396887693
 30
0.0
  0
VERTEX
  5
4BF
330
4B1
100
AcDbEntity
  8
Make2D$可见线$普通线
100
AcDbVertex
100
AcDb2dVertex
 10
320.9377205817485
 20
570.8210346401266
 30
0.0
  0
VERTEX
  5
4C0
330
4B1
100
AcDbEntity
  8
Make2D$可见线$普通线
100
AcDbVertex
100
AcDb2dVertex
 10
321.0641878234719
 20
570.8383151087439
 30
0.0
  0
VERTEX
  5
4C1
330
4B1
100
AcDbEntity
  8
Make2D$可见线$普通线
100
AcDbVertex
100
AcDb2dVertex
 10
321.3172412787793
 20
570.905842010632
 30
0.0
  0
VERTEX
  5
4C2
330
4B1
100
AcDbEntity
  8
Make2D$可见线$普通线
100
AcDbVertex
100
AcDb2dVertex
 10
321.5442715678443
 20
570.8984781644372
 30
0.0
  0
VERTEX
  5
4C3
330
4B1
100
AcDbEntity
  8
Make2D$可见线$普通线
100
AcDbVertex
100
AcDb2dVertex
 10
321.7483110953818
 20
570.8800613092804
 30
0.0
  0
VERTEX
  5
4C4
330
4B1
100
AcDbEntity
  8
Make2D$可见线$普通线
100
AcDbVertex
100
AcDb2dVertex
 10
321.8984095213516
 20
570.9500597554245
 30
0.0
  0
VERTEX
  5
4C5
330
4B1
100
AcDbEntity
  8
Make2D$可见线$普通线
100
AcDbVertex
100
AcDb2dVertex
 10
322.2031054225349
 20
571.1972840499747
 30
0.0
  0
VERTEX
  5
4C6
330
4B1
100
AcDbEntity
  8
Make2D$可见线$普通线
100
AcDbVertex
100
AcDb2dVertex
 10
322.3161386899195
 20
571.2547447645051
 30
0.0
  0
VERTEX
  5
4C7
330
4B1
100
AcDbEntity
  8
Make2D$可见线$普通线
100
AcDbVertex
100
AcDb2dVertex
 10
322.4736728652746
 20
571.2328518171529
 30
0.0
  0
VERTEX
  5
4C8
330
4B1
100
AcDbEntity
  8
Make2D$可见线$普通线
100
AcDbVertex
100
AcDb2dVertex
 10
322.6119632042514
 20
571.2479109780046
 30
0.0
  0
VERTEX
  5
4C9
330
4B1
100
AcDbEntity
  8
Make2D$可见线$普通线
100
AcDbVertex
100
AcDb2dVertex
 10
322.756010078431
 20
571.3245321584254
 30
0.0
  0
VERTEX
  5
4CA
330
4B1
100
AcDbEntity
  8
Make2D$可见线$普通线
100
AcDbVertex
100
AcDb2dVertex
 10
323.1611829737778
 20
571.5876083035117
 30
0.0
  0
VERTEX
  5
4CB
330
4B1
100
AcDbEntity
  8
Make2D$可见线$普通线
100
AcDbVertex
100
AcDb2dVertex
 10
323.2492695313687
 20
571.5917165982403
 30
0.0
  0
VERTEX
  5
4CC
330
4B1
100
AcDbEntity
  8
Make2D$可见线$普通线
100
AcDbVertex
100
AcDb2dVertex
 10
323.2940593975309
 20
571.5548383113214
 30
0.0
  0
VERTEX
  5
4CD
330
4B1
100
AcDbEntity
  8
Make2D$可见线$普通线
100
AcDbVertex
100
AcDb2dVertex
 10
323.3568537181361
 20
571.3720903917891
 30
0.0
  0
VERTEX
  5
4CE
330
4B1
100
AcDbEntity
  8
Make2D$可见线$普通线
100
AcDbVertex
100
AcDb2dVertex
 10
323.5132031709284
 20
571.2265968430761
 30
0.0
  0
VERTEX
  5
4CF
330
4B1
100
AcDbEntity
  8
Make2D$可见线$普通线
100
AcDbVertex
100
AcDb2dVertex
 10
323.7162541735422
 20
571.1649117286156
 30
0.0
  0
VERTEX
  5
4D0
330
4B1
100
AcDbEntity
  8
Make2D$可见线$普通线
100
AcDbVertex
100
AcDb2dVertex
 10
323.8921378068874
 20
571.191780817173
 30
0.0
  0
VERTEX
  5
4D1
330
4B1
100
AcDbEntity
  8
Make2D$可见线$普通线
100
AcDbVertex
100
AcDb2dVertex
 10
324.3084778507283
 20
571.3751819041318
 30
0.0
  0
VERTEX
  5
4D2
330
4B1
100
AcDbEntity
  8
Make2D$可见线$普通线
100
AcDbVertex
100
AcDb2dVertex
 10
324.4391508906228
 20
571.406171595407
 30
0.0
  0
VERTEX
  5
4D3
330
4B1
100
AcDbEntity
  8
Make2D$可见线$普通线
100
AcDbVertex
100
AcDb2dVertex
 10
324.5477444984098
 20
571.3731596364636
 30
0.0
  0
VERTEX
  5
4D4
330
4B1
100
AcDbEntity
  8
Make2D$可见线$普通线
100
AcDbVertex
100
AcDb2dVertex
 10
324.7139088733876
 20
571.2727041187267
 30
0.0
  0
VERTEX
  5
4D5
330
4B1
100
AcDbEntity
  8
Make2D$可见线$普通线
100
AcDbVertex
100
AcDb2dVertex
 10
324.9360093077043
 20
571.2740487380482
 30
0.0
  0
VERTEX
  5
4D6
330
4B1
100
AcDbEntity
  8
Make2D$可见线$普通线
100
AcDbVertex
100
AcDb2dVertex
 10
325.1396408809927
 20
571.3471333407939
 30
0.0
  0
VERTEX
  5
4D7
330
4B1
100
AcDbEntity
  8
Make2D$可见线$普通线
100
AcDbVertex
100
AcDb2dVertex
 10
325.5883354210198
 20
571.7383717668596
 30
0.0
  0
VERTEX
  5
4D8
330
4B1
100
AcDbEntity
  8
Make2D$可见线$普通线
100
AcDbVertex
100
AcDb2dVertex
 10
325.7327813595983
 20
572.0611877028512
 30
0.0
  0
VERTEX
  5
4D9
330
4B1
100
AcDbEntity
  8
Make2D$可见线$普通线
100
AcDbVertex
100
AcDb2dVertex
 10
325.749829946249
 20
572.2308959046788
 30
0.0
  0
VERTEX
  5
4DA
330
4B1
100
AcDbEntity
  8
Make2D$可见线$普通线
100
AcDbVertex
100
AcDb2dVertex
 10
325.8673869159693
 20
572.3255567455186
 30
0.0
  0
VERTEX
  5
4DB
330
4B1
100
AcDbEntity
  8
Make2D$可见线$普通线
100
AcDbVertex
100
AcDb2dVertex
 10
326.1610471375564
 20
572.4237432657955
 30
0.0
  0
VERTEX
  5
4DC
330
4B1
100
AcDbEntity
  8
Make2D$可见线$普通线
100
AcDbVertex
100
AcDb2dVertex
 10
326.4365996350556
 20
572.5457511156077
 30
0.0
  0
VERTEX
  5
4DD
330
4B1
100
AcDbEntity
  8
Make2D$可见线$普通线
100
AcDbVertex
100
AcDb2dVertex
 10
326.5282516597443
 20
572.5205831714745
 30
0.0
  0
VERTEX
  5
4DE
330
4B1
100
AcDbEntity
  8
Make2D$可见线$普通线
100
AcDbVertex
100
AcDb2dVertex
 10
326.5486660948995
 20
572.416282760923
 30
0.0
  0
VERTEX
  5
4DF
330
4B1
100
AcDbEntity
  8
Make2D$可见线$普通线
100
AcDbVertex
100
AcDb2dVertex
 10
326.4751578723351
 20
572.2677718628779
 30
0.0
  0
VERTEX
  5
4E0
330
4B1
100
AcDbEntity
  8
Make2D$可见线$普通线
100
AcDbVertex
100
AcDb2dVertex
 10
326.340691031631
 20
572.018361037571
 30
0.0
  0
VERTEX
  5
4E1
330
4B1
100
AcDbEntity
  8
Make2D$可见线$普通线
100
AcDbVertex
100
AcDb2dVertex
 10
326.2469511506075
 20
571.7710566267538
 30
0.0
  0
VERTEX
  5
4E2
330
4B1
100
AcDbEntity
  8
Make2D$可见线$普通线
100
AcDbVertex
100
AcDb2dVertex
 10
326.2531137402183
 20
571.5637697311646
 30
0.0
  0
VERTEX
  5
4E3
330
4B1
100
AcDbEntity
  8
Make2D$可见线$普通线
100
AcDbVertex
100
AcDb2dVertex
 10
326.2822546778772
 20
571.4017432487448
 30
0.0
  0
VERTEX
  5
4E4
330
4B1
100
AcDbEntity
  8
Make2D$可见线$普通线
100
AcDbVertex
100
AcDb2dVertex
 10
326.406091762086
 20
571.2811961331553
 30
0.0
  0
VERTEX
  5
4E5
330
4B1
100
AcDbEntity
  8
Make2D$可见线$普通线
100
AcDbVertex
100
AcDb2dVertex
 10
326.6282312656554
 20
571.2280832216301
 30
0.0
  0
VERTEX
  5
4E6
330
4B1
100
AcDbEntity
  8
Make2D$可见线$普通线
100
AcDbVertex
100
AcDb2dVertex
 10
326.8105633861274
 20
571.2311137014639
 30
0.0
  0
VERTEX
  5
4E7
330
4B1
100
AcDbEntity
  8
Make2D$可见线$普通线
100
AcDbVertex
100
AcDb2dVertex
 10
326.998493136509
 20
571.3633534721669
 30
0.0
  0
VERTEX
  5
4E8
330
4B1
100
AcDbEntity
  8
Make2D$可见线$普通线
100
AcDbVertex
100
AcDb2dVertex
 10
327.3173640959338
 20
571.6704954686459
 30
0.0
  0
VERTEX
  5
4E9
330
4B1
100
AcDbEntity
  8
Make2D$可见线$普通线
100
AcDbVertex
100
AcDb2dVertex
 10
327.4816736290982
 20
572.0186653045425
 30
0.0
  0
VERTEX
  5
4EA
330
4B1
100
AcDbEntity
  8
Make2D$可见线$普通线
100
AcDbVertex
100
AcDb2dVertex
 10
327.5020766936502
 20
572.3677409673768
 30
0.0
  0
VERTEX
  5
4EB
330
4B1
100
AcDbEntity
  8
Make2D$可见线$普通线
100
AcDbVertex
100
AcDb2dVertex
 10
327.4516495738758
 20
572.4842632078628
 30
0.0
  0
VERTEX
  5
4EC
330
4B1
100
AcDbEntity
  8
Make2D$可见线$普通线
100
AcDbVertex
100
AcDb2dVertex
 10
327.3209221571566
 20
572.6672595171179
 30
0.0
  0
VERTEX
  5
4ED
330
4B1
100
AcDbEntity
  8
Make2D$可见线$普通线
100
AcDbVertex
100
AcDb2dVertex
 10
327.1962657337226
 20
572.7941320066636
 30
0.0
  0
VERTEX
  5
4EE
330
4B1
100
AcDbEntity
  8
Make2D$可见线$普通线
100
AcDbVertex
100
AcDb2dVertex
 10
327.1673132439035
 20
572.8767054745342
 30
0.0
  0
VERTEX
  5
4EF
330
4B1
100
AcDbEntity
  8
Make2D$可见线$普通线
100
AcDbVertex
100
AcDb2dVertex
 10
327.1878470153092
 20
572.9465758894643
 30
0.0
  0
VERTEX
  5
4F0
330
4B1
100
AcDbEntity
  8
Make2D$可见线$普通线
100
AcDbVertex
100
AcDb2dVertex
 10
327.2680927703867
 20
573.0463072461889
 30
0.0
  0
VERTEX
  5
4F1
330
4B1
100
AcDbEntity
  8
Make2D$可见线$普通线
100
AcDbVertex
100
AcDb2dVertex
 10
327.7267624635779
 20
573.4620687496204
 30
0.0
  0
VERTEX
  5
4F2
330
4B1
100
AcDbEntity
  8
Make2D$可见线$普通线
100
AcDbVertex
100
AcDb2dVertex
 10
328.3201017471541
 20
574.0446909385159
 30
0.0
  0
VERTEX
  5
4F3
330
4B1
100
AcDbEntity
  8
Make2D$可见线$普通线
100
AcDbVertex
100
AcDb2dVertex
 10
328.4762877221403
 20
574.235185567017
 30
0.0
  0
VERTEX
  5
4F4
330
4B1
100
AcDbEntity
  8
Make2D$可见线$普通线
100
AcDbVertex
100
AcDb2dVertex
 10
328.4814375692995
 20
574.345615128814
 30
0.0
  0
VERTEX
  5
4F5
330
4B1
100
AcDbEntity
  8
Make2D$可见线$普通线
100
AcDbVertex
100
AcDb2dVertex
 10
328.4240925848152
 20
574.3870295987981
 30
0.0
  0
VERTEX
  5
4F6
330
4B1
100
AcDbEntity
  8
Make2D$可见线$普通线
100
AcDbVertex
100
AcDb2dVertex
 10
328.3664626130971
 20
574.3915087672968
 30
0.0
  0
VERTEX
  5
4F7
330
4B1
100
AcDbEntity
  8
Make2D$可见线$普通线
100
AcDbVertex
100
AcDb2dVertex
 10
328.2627828786837
 20
574.3451326097037
 30
0.0
  0
VERTEX
  5
4F8
330
4B1
100
AcDbEntity
  8
Make2D$可见线$普通线
100
AcDbVertex
100
AcDb2dVertex
 10
327.1713369234273
 20
573.2539182085177
 30
0.0
  0
VERTEX
  5
4F9
330
4B1
100
AcDbEntity
  8
Make2D$可见线$普通线
100
AcDbVertex
100
AcDb2dVertex
 10
326.6080657095977
 20
572.833573169581
 30
0.0
  0
VERTEX
  5
4FA
330
4B1
100
AcDbEntity
  8
Make2D$可见线$普通线
100
AcDbVertex
100
AcDb2dVertex
 10
326.3523477659808
 20
572.7220096814559
 30
0.0
  0
VERTEX
  5
4FB
330
4B1
100
AcDbEntity
  8
Make2D$可见线$普通线
100
AcDbVertex
100
AcDb2dVertex
 10
326.1119723580767
 20
572.6291092099691
 30
0.0
  0
VERTEX
  5
4FC
330
4B1
100
AcDbEntity
  8
Make2D$可见线$普通线
100
AcDbVertex
100
AcDb2dVertex
 10
325.9467171830057
 20
572.6128235918511
 30
0.0
  0
VERTEX
  5
4FD
330
4B1
100
AcDbEntity
  8
Make2D$可见线$普通线
100
AcDbVertex
100
AcDb2dVertex
 10
325.8511814378434
 20
572.542507708582
 30
0.0
  0
VERTEX
  5
4FE
330
4B1
100
AcDbEntity
  8
Make2D$可见线$普通线
100
AcDbVertex
100
AcDb2dVertex
 10
325.4887596162023
 20
572.543489669273
 30
0.0
  0
VERTEX
  5
4FF
330
4B1
100
AcDbEntity
  8
Make2D$可见线$普通线
100
AcDbVertex
100
AcDb2dVertex
 10
325.3831686457126
 20
572.4854955634506
 30
0.0
  0
VERTEX
  5
500
330
4B1
100
AcDbEntity
  8
Make2D$可见线$普通线
100
AcDbVertex
100
AcDb2dVertex
 10
325.2407004785744
 20
572.3621378080879
 30
0.0
  0
VERTEX
  5
501
330
4B1
100
AcDbEntity
  8
Make2D$可见线$普通线
100
AcDbVertex
100
AcDb2dVertex
 10
324.9977540438988
 20
572.196798154167
 30
0.0
  0
VERTEX
  5
502
330
4B1
100
AcDbEntity
  8
Make2D$可见线$普通线
100
AcDbVertex
100
AcDb2dVertex
 10
324.9476360865073
 20
572.1066456038996
 30
0.0
  0
VERTEX
  5
503
330
4B1
100
AcDbEntity
  8
Make2D$可见线$普通线
100
AcDbVertex
100
AcDb2dVertex
 10
324.4910502342819
 20
571.7281707888922
 30
0.0
  0
VERTEX
  5
504
330
4B1
100
AcDbEntity
  8
Make2D$可见线$普通线
100
AcDbVertex
100
AcDb2dVertex
 10
323.9526636670513
 20
571.4302437860708
 30
0.0
  0
VERTEX
  5
505
330
4B1
100
AcDbEntity
  8
Make2D$可见线$普通线
100
AcDbVertex
100
AcDb2dVertex
 10
323.8557320824561
 20
571.4124048407865
 30
0.0
  0
VERTEX
  5
506
330
4B1
100
AcDbEntity
  8
Make2D$可见线$普通线
100
AcDbVertex
100
AcDb2dVertex
 10
323.6537084236036
 20
571.423443205565
 30
0.0
  0
VERTEX
  5
507
330
4B1
100
AcDbEntity
  8
Make2D$可见线$普通线
100
AcDbVertex
100
AcDb2dVertex
 10
323.5991864583286
 20
571.4726421470111
 30
0.0
  0
VERTEX
  5
508
330
4B1
100
AcDbEntity
  8
Make2D$可见线$普通线
100
AcDbVertex
100
AcDb2dVertex
 10
323.5671937415157
 20
571.5710411529094
 30
0.0
  0
VERTEX
  5
509
330
4B1
100
AcDbEntity
  8
Make2D$可见线$普通线
100
AcDbVertex
100
AcDb2dVertex
 10
323.5904494325895
 20
571.6857374514545
 30
0.0
  0
VERTEX
  5
50A
330
4B1
100
AcDbEntity
  8
Make2D$可见线$普通线
100
AcDbVertex
100
AcDb2dVertex
 10
323.9089490967475
 20
572.0831656672958
 30
0.0
  0
VERTEX
  5
50B
330
4B1
100
AcDbEntity
  8
Make2D$可见线$普通线
100
AcDbVertex
100
AcDb2dVertex
 10
324.1730428153508
 20
572.3048446117384
 30
0.0
  0
VERTEX
  5
50C
330
4B1
100
AcDbEntity
  8
Make2D$可见线$普通线
100
AcDbVertex
100
AcDb2dVertex
 10
324.2806615155175
 20
572.3394588675355
 30
0.0
  0
VERTEX
  5
50D
330
4B1
100
AcDbEntity
  8
Make2D$可见线$普通线
100
AcDbVertex
100
AcDb2dVertex
 10
324.3338750459494
 20
572.3197659700933
 30
0.0
  0
VERTEX
  5
50E
330
4B1
100
AcDbEntity
  8
Make2D$可见线$普通线
100
AcDbVertex
100
AcDb2dVertex
 10
324.3584023967693
 20
572.2347031892986
 30
0.0
  0
VERTEX
  5
50F
330
4B1
100
AcDbEntity
  8
Make2D$可见线$普通线
100
AcDbVertex
100
AcDb2dVertex
 10
324.3938353067825
 20
572.175173050985
 30
0.0
  0
VERTEX
  5
510
330
4B1
100
AcDbEntity
  8
Make2D$可见线$普通线
100
AcDbVertex
100
AcDb2dVertex
 10
324.5059797071187
 20
572.149464481772
 30
0.0
  0
VERTEX
  5
511
330
4B1
100
AcDbEntity
  8
Make2D$可见线$普通线
100
AcDbVertex
100
AcDb2dVertex
 10
324.5813521360355
 20
572.1985210524458
 30
0.0
  0
VERTEX
  5
512
330
4B1
100
AcDbEntity
  8
Make2D$可见线$普通线
100
AcDbVertex
100
AcDb2dVertex
 10
324.71418199112
 20
572.3528544931194
 30
0.0
  0
VERTEX
  5
513
330
4B1
100
AcDbEntity
  8
Make2D$可见线$普通线
100
AcDbVertex
100
AcDb2dVertex
 10
324.7430976809969
 20
572.4629768361083
 30
0.0
  0
VERTEX
  5
514
330
4B1
100
AcDbEntity
  8
Make2D$可见线$普通线
100
AcDbVertex
100
AcDb2dVertex
 10
324.6982348789794
 20
572.5683758668908
 30
0.0
  0
VERTEX
  5
515
330
4B1
100
AcDbEntity
  8
Make2D$可见线$普通线
100
AcDbVertex
100
AcDb2dVertex
 10
324.5868820572078
 20
572.6299643112753
 30
0.0
  0
VERTEX
  5
516
330
4B1
100
AcDbEntity
  8
Make2D$可见线$普通线
100
AcDbVertex
100
AcDb2dVertex
 10
324.4204559161972
 20
572.6156377822053
 30
0.0
  0
VERTEX
  5
517
330
4B1
100
AcDbEntity
  8
Make2D$可见线$普通线
100
AcDbVertex
100
AcDb2dVertex
 10
324.1124923863691
 20
572.5079640111421
 30
0.0
  0
VERTEX
  5
518
330
4B1
100
AcDbEntity
  8
Make2D$可见线$普通线
100
AcDbVertex
100
AcDb2dVertex
 10
323.8729640543659
 20
572.3365705262553
 30
0.0
  0
VERTEX
  5
519
330
4B1
100
AcDbEntity
  8
Make2D$可见线$普通线
100
AcDbVertex
100
AcDb2dVertex
 10
323.6075584042885
 20
572.1137160415993
 30
0.0
  0
VERTEX
  5
51A
330
4B1
100
AcDbEntity
  8
Make2D$可见线$普通线
100
AcDbVertex
100
AcDb2dVertex
 10
323.2373162928643
 20
571.8813021745505
 30
0.0
  0
VERTEX
  5
51B
330
4B1
100
AcDbEntity
  8
Make2D$可见线$普通线
100
AcDbVertex
100
AcDb2dVertex
 10
322.7506765694951
 20
571.6182008960172
 30
0.0
  0
VERTEX
  5
51C
330
4B1
100
AcDbEntity
  8
Make2D$可见线$普通线
100
AcDbVertex
100
AcDb2dVertex
 10
322.6676805797543
 20
571.6455791074613
 30
0.0
  0
VERTEX
  5
51D
330
4B1
100
AcDbEntity
  8
Make2D$可见线$普通线
100
AcDbVertex
100
AcDb2dVertex
 10
322.641443584428
 20
571.7110605267512
 30
0.0
  0
VERTEX
  5
51E
330
4B1
100
AcDbEntity
  8
Make2D$可见线$普通线
100
AcDbVertex
100
AcDb2dVertex
 10
322.6997788993102
 20
571.7819138683423
 30
0.0
  0
VERTEX
  5
51F
330
4B1
100
AcDbEntity
  8
Make2D$可见线$普通线
100
AcDbVertex
100
AcDb2dVertex
 10
322.8876618236133
 20
571.9728752973501
 30
0.0
  0
VERTEX
  5
520
330
4B1
100
AcDbEntity
  8
Make2D$可见线$普通线
100
AcDbVertex
100
AcDb2dVertex
 10
322.9292423904874
 20
572.0987369531397
 30
0.0
  0
VERTEX
  5
521
330
4B1
100
AcDbEntity
  8
Make2D$可见线$普通线
100
AcDbVertex
100
AcDb2dVertex
 10
322.892194009055
 20
572.2139895486749
 30
0.0
  0
VERTEX
  5
522
330
4B1
100
AcDbEntity
  8
Make2D$可见线$普通线
100
AcDbVertex
100
AcDb2dVertex
 10
322.79606002497
 20
572.3378052436559
 30
0.0
  0
VERTEX
  5
523
330
4B1
100
AcDbEntity
  8
Make2D$可见线$普通线
100
AcDbVertex
100
AcDb2dVertex
 10
322.6962841022394
 20
572.3380486605965
 30
0.0
  0
VERTEX
  5
524
330
4B1
100
AcDbEntity
  8
Make2D$可见线$普通线
100
AcDbVertex
100
AcDb2dVertex
 10
322.4507770702233
 20
572.2479506719112
 30
0.0
  0
VERTEX
  5
525
330
4B1
100
AcDbEntity
  8
Make2D$可见线$普通线
100
AcDbVertex
100
AcDb2dVertex
 10
322.133258408418
 20
572.0130058799019
 30
0.0
  0
VERTEX
  5
526
330
4B1
100
AcDbEntity
  8
Make2D$可见线$普通线
100
AcDbVertex
100
AcDb2dVertex
 10
321.9315330066228
 20
571.7520904525231
 30
0.0
  0
VERTEX
  5
527
330
4B1
100
AcDbEntity
  8
Make2D$可见线$普通线
100
AcDbVertex
100
AcDb2dVertex
 10
321.5635970598644
 20
571.3422808217631
 30
0.0
  0
VERTEX
  5
528
330
4B1
100
AcDbEntity
  8
Make2D$可见线$普通线
100
AcDbVertex
100
AcDb2dVertex
 10
321.4937955160225
 20
571.1768273587746
 30
0.0
  0
VERTEX
  5
529
330
4B1
100
AcDbEntity
  8
Make2D$可见线$普通线
100
AcDbVertex
100
AcDb2dVertex
 10
321.343949837751
 20
571.0988992218696
 30
0.0
  0
VERTEX
  5
52A
330
4B1
100
AcDbEntity
  8
Make2D$可见线$普通线
100
AcDbVertex
100
AcDb2dVertex
 10
321.2745021527327
 20
571.0932478208902
 30
0.0
  0
VERTEX
  5
52B
330
4B1
100
AcDbEntity
  8
Make2D$可见线$普通线
100
AcDbVertex
100
AcDb2dVertex
 10
321.1297995373054
 20
571.0362824611583
 30
0.0
  0
VERTEX
  5
52C
330
4B1
100
AcDbEntity
  8
Make2D$可见线$普通线
100
AcDbVertex
100
AcDb2dVertex
 10
320.5024057152132
 20
570.9131251690427
 30
0.0
  0
VERTEX
  5
52D
330
4B1
100
AcDbEntity
  8
Make2D$可见线$普通线
100
AcDbVertex
100
AcDb2dVertex
 10
320.306437825208
 20
570.8189887144923
 30
0.0
  0
VERTEX
  5
52E
330
4B1
100
AcDbEntity
  8
Make2D$可见线$普通线
100
AcDbVertex
100
AcDb2dVertex
 10
320.1778578873577
 20
570.7947959218804
 30
0.0
  0
VERTEX
  5
52F
330
4B1
100
AcDbEntity
  8
Make2D$可见线$普通线
100
AcDbVertex
100
AcDb2dVertex
 10
320.1020667038082
 20
570.822260647091
 30
0.0
  0
VERTEX
  5
530
330
4B1
100
AcDbEntity
  8
Make2D$可见线$普通线
100
AcDbVertex
100
AcDb2dVertex
 10
320.088428908304
 20
570.8967620985044
 30
0.0
  0
VERTEX
  5
531
330
4B1
100
AcDbEntity
  8
Make2D$可见线$普通线
100
AcDbVertex
100
AcDb2dVertex
 10
320.1322405434389
 20
571.0219235625946
 30
0.0
  0
VERTEX
  5
532
330
4B1
100
AcDbEntity
  8
Make2D$可见线$普通线
100
AcDbVertex
100
AcDb2dVertex
 10
320.4567981855578
 20
571.5415667009693
 30
0.0
  0
VERTEX
  5
533
330
4B1
100
AcDbEntity
  8
Make2D$可见线$普通线
100
AcDbVertex
100
AcDb2dVertex
 10
320.5421648521782
 20
571.6849935237484
 30
0.0
  0
VERTEX
  5
534
330
4B1
100
AcDbEntity
  8
Make2D$可见线$普通线
100
AcDbVertex
100
AcDb2dVertex
 10
320.7070998098318
 20
571.9157704925173
 30
0.0
  0
VERTEX
  5
535
330
4B1
100
AcDbEntity
  8
Make2D$可见线$普通线
100
AcDbVertex
100
AcDb2dVertex
 10
320.7871782616387
 20
572.0772888372561
 30
0.0
  0
VERTEX
  5
536
330
4B1
100
AcDbEntity
  8
Make2D$可见线$普通线
100
AcDbVertex
100
AcDb2dVertex
 10
320.9584809224561
 20
572.2674658408516
 30
0.0
  0
VERTEX
  5
537
330
4B1
100
AcDbEntity
  8
Make2D$可见线$普通线
100
AcDbVertex
100
AcDb2dVertex
 10
321.0778597889054
 20
572.4894424866031
 30
0.0
  0
VERTEX
  5
538
330
4B1
100
AcDbEntity
  8
Make2D$可见线$普通线
100
AcDbVertex
100
AcDb2dVertex
 10
321.2329442095701
 20
572.7148600401354
 30
0.0
  0
VERTEX
  5
539
330
4B1
100
AcDbEntity
  8
Make2D$可见线$普通线
100
AcDbVertex
100
AcDb2dVertex
 10
321.2773367737119
 20
572.8609777104102
 30
0.0
  0
VERTEX
  5
53A
330
4B1
100
AcDbEntity
  8
Make2D$可见线$普通线
100
AcDbVertex
100
AcDb2dVertex
 10
321.4047552183729
 20
573.0282924114149
 30
0.0
  0
VERTEX
  5
53B
330
4B1
100
AcDbEntity
  8
Make2D$可见线$普通线
100
AcDbVertex
100
AcDb2dVertex
 10
321.4900134836778
 20
573.1229902747298
 30
0.0
  0
VERTEX
  5
53C
330
4B1
100
AcDbEntity
  8
Make2D$可见线$普通线
100
AcDbVertex
100
AcDb2dVertex
 10
321.598592264178
 20
573.3264026232968
 30
0.0
  0
VERTEX
  5
53D
330
4B1
100
AcDbEntity
  8
Make2D$可见线$普通线
100
AcDbVertex
100
AcDb2dVertex
 10
321.6669789274821
 20
573.440677486687
 30
0.0
  0
VERTEX
  5
53E
330
4B1
100
AcDbEntity
  8
Make2D$可见线$普通线
100
AcDbVertex
100
AcDb2dVertex
 10
321.8697406306011
 20
573.7343476998699
 30
0.0
  0
VERTEX
  5
53F
330
4B1
100
AcDbEntity
  8
Make2D$可见线$普通线
100
AcDbVertex
100
AcDb2dVertex
 10
322.1465530271763
 20
574.1970850070547
 30
0.0
  0
VERTEX
  5
540
330
4B1
100
AcDbEntity
  8
Make2D$可见线$普通线
100
AcDbVertex
100
AcDb2dVertex
 10
322.1647408787171
 20
574.2960612622196
 30
0.0
  0
VERTEX
  5
541
330
4B1
100
AcDbEntity
  8
Make2D$可见线$普通线
100
AcDbVertex
100
AcDb2dVertex
 10
322.2426395118757
 20
574.3625476376607
 30
0.0
  0
VERTEX
  5
542
330
4B1
100
AcDbEntity
  8
Make2D$可见线$普通线
100
AcDbVertex
100
AcDb2dVertex
 10
322.3860618806046
 20
574.5903550711057
 30
0.0
  0
VERTEX
  5
543
330
4B1
100
AcDbEntity
  8
Make2D$可见线$普通线
100
AcDbVertex
100
AcDb2dVertex
 10
322.5095406187012
 20
574.7120893246338
 30
0.0
  0
VERTEX
  5
544
330
4B1
100
AcDbEntity
  8
Make2D$可见线$普通线
100
AcDbVertex
100
AcDb2dVertex
 10
322.6037125521339
 20
574.9056320860423
 30
0.0
  0
VERTEX
  5
545
330
4B1
100
AcDbEntity
  8
Make2D$可见线$普通线
100
AcDbVertex
100
AcDb2dVertex
 10
323.1822312438699
 20
575.9265495431597
 30
0.0
  0
VERTEX
  5
546
330
4B1
100
AcDbEntity
  8
Make2D$可见线$普通线
100
AcDbVertex
100
AcDb2dVertex
 10
323.2456209787024
 20
576.109375869275
 30
0.0
  0
VERTEX
  5
547
330
4B1
100
AcDbEntity
  8
Make2D$可见线$普通线
100
AcDbVertex
100
AcDb2dVertex
 10
323.2842050186351
 20
576.1847348009599
 30
0.0
  0
VERTEX
  5
548
330
4B1
100
AcDbEntity
  8
Make2D$可见线$普通线
100
AcDbVertex
100
AcDb2dVertex
 10
323.3905309341212
 20
576.5171500308627
 30
0.0
  0
VERTEX
  5
549
330
4B1
100
AcDbEntity
  8
Make2D$可见线$普通线
100
AcDbVertex
100
AcDb2dVertex
 10
323.402852579972
 20
576.6848816283909
 30
0.0
  0
VERTEX
  5
54A
330
4B1
100
AcDbEntity
  8
Make2D$可见线$普通线
100
AcDbVertex
100
AcDb2dVertex
 10
323.447909952912
 20
576.8030201618596
 30
0.0
  0
VERTEX
  5
54B
330
4B1
100
AcDbEntity
  8
Make2D$可见线$普通线
100
AcDbVertex
100
AcDb2dVertex
 10
323.4436132023607
 20
577.0319594988
 30
0.0
  0
VERTEX
  5
54C
330
4B1
100
AcDbEntity
  8
Make2D$可见线$普通线
100
AcDbVertex
100
AcDb2dVertex
 10
323.3860947266799
 20
577.1401975924815
 30
0.0
  0
VERTEX
  5
54D
330
4B1
100
AcDbEntity
  8
Make2D$可见线$普通线
100
AcDbVertex
100
AcDb2dVertex
 10
323.2697042816527
 20
577.2068678528334
 30
0.0
  0
VERTEX
  5
54E
330
4B1
100
AcDbEntity
  8
Make2D$可见线$普通线
100
AcDbVertex
100
AcDb2dVertex
 10
323.1086419843951
 20
577.2152037279722
 30
0.0
  0
VERTEX
  5
54F
330
4B1
100
AcDbEntity
  8
Make2D$可见线$普通线
100
AcDbVertex
100
AcDb2dVertex
 10
322.9911315175152
 20
577.1964410577691
 30
0.0
  0
VERTEX
  5
550
330
4B1
100
AcDbEntity
  8
Make2D$可见线$普通线
100
AcDbVertex
100
AcDb2dVertex
 10
322.9115832387552
 20
577.1536813167864
 30
0.0
  0
VERTEX
  5
551
330
4B1
100
AcDbEntity
  8
Make2D$可见线$普通线
100
AcDbVertex
100
AcDb2dVertex
 10
322.8179539683704
 20
577.1257836482357
 30
0.0
  0
VERTEX
  5
552
330
4B1
100
AcDbEntity
  8
Make2D$可见线$普通线
100
AcDbVertex
100
AcDb2dVertex
 10
322.6152648038822
 20
576.9966743029443
 30
0.0
  0
VERTEX
  5
553
330
4B1
100
AcDbEntity
  8
Make2D$可见线$普通线
100
AcDbVertex
100
AcDb2dVertex
 10
322.4760292962686
 20
576.8653955379765
 30
0.0
  0
VERTEX
  5
554
330
4B1
100
AcDbEntity
  8
Make2D$可见线$普通线
100
AcDbVertex
100
AcDb2dVertex
 10
322.3719302321639
 20
576.7632473642302
 30
0.0
  0
VERTEX
  5
555
330
4B1
100
AcDbEntity
  8
Make2D$可见线$普通线
100
AcDbVertex
100
AcDb2dVertex
 10
322.2047142254294
 20
576.6611800837468
 30
0.0
  0
VERTEX
  5
556
330
4B1
100
AcDbEntity
  8
Make2D$可见线$普通线
100
AcDbVertex
100
AcDb2dVertex
 10
321.991790189232
 20
576.4926711980464
 30
0.0
  0
VERTEX
  5
557
330
4B1
100
AcDbEntity
  8
Make2D$可见线$普通线
100
AcDbVertex
100
AcDb2dVertex
 10
321.7339203994992
 20
576.271721576268
 30
0.0
  0
VERTEX
  5
558
330
4B1
100
AcDbEntity
  8
Make2D$可见线$普通线
100
AcDbVertex
100
AcDb2dVertex
 10
321.51997879059
 20
576.1053375402406
 30
0.0
  0
VERTEX
  5
559
330
4B1
100
AcDbEntity
  8
Make2D$可见线$普通线
100
AcDbVertex
100
AcDb2dVertex
 10
321.4055807524273
 20
575.9630771361955
 30
0.0
  0
VERTEX
  5
55A
330
4B1
100
AcDbEntity
  8
Make2D$可见线$普通线
100
AcDbVertex
100
AcDb2dVertex
 10
321.2305195800754
 20
575.8236667393866
 30
0.0
  0
VERTEX
  5
55B
330
4B1
100
AcDbEntity
  8
Make2D$可见线$普通线
100
AcDbVertex
100
AcDb2dVertex
 10
321.0681816741316
 20
575.6370295450514
 30
0.0
  0
VERTEX
  5
55C
330
4B1
100
AcDbEntity
  8
Make2D$可见线$普通线
100
AcDbVertex
100
AcDb2dVertex
 10
320.855734355446
 20
575.4878946425537
 30
0.0
  0
VERTEX
  5
55D
330
4B1
100
AcDbEntity
  8
Make2D$可见线$普通线
100
AcDbVertex
100
AcDb2dVertex
 10
320.7694209473684
 20
575.3702099829206
 30
0.0
  0
VERTEX
  5
55E
330
4B1
100
AcDbEntity
  8
Make2D$可见线$普通线
100
AcDbVertex
100
AcDb2dVertex
 10
320.5777763083026
 20
575.1956724774273
 30
0.0
  0
VERTEX
  5
55F
330
4B1
100
AcDbEntity
  8
Make2D$可见线$普通线
100
AcDbVertex
100
AcDb2dVertex
 10
320.3153473893134
 20
574.9815143249671
 30
0.0
  0
VERTEX
  5
560
330
4B1
100
AcDbEntity
  8
Make2D$可见线$普通线
100
AcDbVertex
100
AcDb2dVertex
 10
320.2412871433388
 20
574.8703570741764
 30
0.0
  0
VERTEX
  5
561
330
4B1
100
AcDbEntity
  8
Make2D$可见线$普通线
100
AcDbVertex
100
AcDb2dVertex
 10
319.9341392743552
 20
574.659051324657
 30
0.0
  0
VERTEX
  5
562
330
4B1
100
AcDbEntity
  8
Make2D$可见线$普通线
100
AcDbVertex
100
AcDb2dVertex
 10
319.7163811154785
 20
574.3880915644811
 30
0.0
  0
VERTEX
  5
563
330
4B1
100
AcDbEntity
  8
Make2D$可见线$普通线
100
AcDbVertex
100
AcDb2dVertex
 10
319.6401854089497
 20
574.342258096179
 30
0.0
  0
VERTEX
  5
564
330
4B1
100
AcDbEntity
  8
Make2D$可见线$普通线
100
AcDbVertex
100
AcDb2dVertex
 10
319.3878059736168
 20
574.1317982231423
 30
0.0
  0
VERTEX
  5
565
330
4B1
100
AcDbEntity
  8
Make2D$可见线$普通线
100
AcDbVertex
100
AcDb2dVertex
 10
318.704575428348
 20
573.4372611728809
 30
0.0
  0
VERTEX
  5
566
330
4B1
100
AcDbEntity
  8
Make2D$可见线$普通线
100
AcDbVertex
100
AcDb2dVertex
 10
318.4378624930948
 20
573.2526594400716
 30
0.0
  0
VERTEX
  5
567
330
4B1
100
AcDbEntity
  8
Make2D$可见线$普通线
100
AcDbVertex
100
AcDb2dVertex
 10
317.8930087655722
 20
572.7631197736396
 30
0.0
  0
VERTEX
  5
568
330
4B1
100
AcDbEntity
  8
Make2D$可见线$普通线
100
AcDbVertex
100
AcDb2dVertex
 10
317.7110235473208
 20
572.5813603053432
 30
0.0
  0
VERTEX
  5
569
330
4B1
100
AcDbEntity
  8
Make2D$可见线$普通线
100
AcDbVertex
100
AcDb2dVertex
 10
317.4586865305994
 20
572.3879891652391
 30
0.0
  0
VERTEX
  5
56A
330
4B1
100
AcDbEntity
  8
Make2D$可见线$普通线
100
AcDbVertex
100
AcDb2dVertex
 10
317.3090018947399
 20
572.218906794404
 30
0.0
  0
VERTEX
  5
56B
330
4B1
100
AcDbEntity
  8
Make2D$可见线$普通线
100
AcDbVertex
100
AcDb2dVertex
 10
317.1745999606871
 20
572.1074284393749
 30
0.0
  0
VERTEX
  5
56C
330
4B1
100
AcDbEntity
  8
Make2D$可见线$普通线
100
AcDbVertex
100
AcDb2dVertex
 10
317.1150777312772
 20
571.9959147363666
 30
0.0
  0
VERTEX
  5
56D
330
4B1
100
AcDbEntity
  8
Make2D$可见线$普通线
100
AcDbVertex
100
AcDb2dVertex
 10
316.9145089142082
 20
571.8215814634812
 30
0.0
  0
VERTEX
  5
56E
330
4B1
100
AcDbEntity
  8
Make2D$可见线$普通线
100
AcDbVertex
100
AcDb2dVertex
 10
316.69453910596
 20
571.5085510432208
 30
0.0
  0
VERTEX
  5
56F
330
4B1
100
AcDbEntity
  8
Make2D$可见线$普通线
100
AcDbVertex
100
AcDb2dVertex
 10
316.5629333783111
 20
571.3103784421431
 30
0.0
  0
VERTEX
  5
570
330
4B1
100
AcDbEntity
  8
Make2D$可见线$普通线
100
AcDbVertex
100
AcDb2dVertex
 10
316.5704553804513
 20
571.2188441510461
 30
0.0
  0
VERTEX
  5
571
330
4B1
100
AcDbEntity
  8
Make2D$可见线$普通线
100
AcDbVertex
100
AcDb2dVertex
 10
316.6172929396755
 20
571.1161952228284
 30
0.0
  0
VERTEX
  5
572
330
4B1
100
AcDbEntity
  8
Make2D$可见线$普通线
100
AcDbVertex
100
AcDb2dVertex
 10
316.7359103259652
 20
571.0490124061395
 30
0.0
  0
VERTEX
  5
573
330
4B1
100
AcDbEntity
  8
Make2D$可见线$普通线
100
AcDbVertex
100
AcDb2dVertex
 10
316.8776886582177
 20
571.0564882397264
 30
0.0
  0
VERTEX
  5
574
330
4B1
100
AcDbEntity
  8
Make2D$可见线$普通线
100
AcDbVertex
100
AcDb2dVertex
 10
317.0405923732851
 20
571.1857464204152
 30
0.0
  0
VERTEX
  5
575
330
4B1
100
AcDbEntity
  8
Make2D$可见线$普通线
100
AcDbVertex
100
AcDb2dVertex
 10
317.0606123005588
 20
571.4035719705214
 30
0.0
  0
VERTEX
  5
576
330
4B1
100
AcDbEntity
  8
Make2D$可见线$普通线
100
AcDbVertex
100
AcDb2dVertex
 10
317.1252856484002
 20
571.5963927438861
 30
0.0
  0
VERTEX
  5
577
330
4B1
100
AcDbEntity
  8
Make2D$可见线$普通线
100
AcDbVertex
100
AcDb2dVertex
 10
317.9933130354896
 20
572.5863261169862
 30
0.0
  0
VERTEX
  5
578
330
4B1
100
AcDbEntity
  8
Make2D$可见线$普通线
100
AcDbVertex
100
AcDb2dVertex
 10
318.3256606919897
 20
572.9201082798504
 30
0.0
  0
VERTEX
  5
579
330
4B1
100
AcDbEntity
  8
Make2D$可见线$普通线
100
AcDbVertex
100
AcDb2dVertex
 10
318.5605806693399
 20
573.1041777072604
 30
0.0
  0
VERTEX
  5
57A
330
4B1
100
AcDbEntity
  8
Make2D$可见线$普通线
100
AcDbVertex
100
AcDb2dVertex
 10
318.704309575487
 20
573.250637128081
 30
0.0
  0
VERTEX
  5
57B
330
4B1
100
AcDbEntity
  8
Make2D$可见线$普通线
100
AcDbVertex
100
AcDb2dVertex
 10
318.8778822889684
 20
573.376576175696
 30
0.0
  0
VERTEX
  5
57C
330
4B1
100
AcDbEntity
  8
Make2D$可见线$普通线
100
AcDbVertex
100
AcDb2dVertex
 10
319.1295453508949
 20
573.6085977301582
 30
0.0
  0
VERTEX
  5
57D
330
4B1
100
AcDbEntity
  8
Make2D$可见线$普通线
100
AcDbVertex
100
AcDb2dVertex
 10
319.8029146621409
 20
574.2946945852451
 30
0.0
  0
VERTEX
  5
57E
330
4B1
100
AcDbEntity
  8
Make2D$可见线$普通线
100
AcDbVertex
100
AcDb2dVertex
 10
320.6212631791788
 20
575.0815761149662
 30
0.0
  0
VERTEX
  5
57F
330
4B1
100
AcDbEntity
  8
Make2D$可见线$普通线
100
AcDbVertex
100
AcDb2dVertex
 10
321.0227740844752
 20
575.4191520652477
 30
0.0
  0
VERTEX
  5
580
330
4B1
100
AcDbEntity
  8
Make2D$可见线$普通线
100
AcDbVertex
100
AcDb2dVertex
 10
322.2639589580518
 20
576.5355019384779
 30
0.0
  0
VERTEX
  5
581
330
4B1
100
AcDbEntity
  8
Make2D$可见线$普通线
100
AcDbVertex
100
AcDb2dVertex
 10
322.4555481547428
 20
576.6764193946447
 30
0.0
  0
VERTEX
  5
582
330
4B1
100
AcDbEntity
  8
Make2D$可见线$普通线
100
AcDbVertex
100
AcDb2dVertex
 10
322.6056318115311
 20
576.771443537765
 30
0.0
  0
VERTEX
  5
583
330
4B1
100
AcDbEntity
  8
Make2D$可见线$普通线
100
AcDbVertex
100
AcDb2dVertex
 10
322.7441825000202
 20
576.871637045107
 30
0.0
  0
VERTEX
  5
584
330
4B1
100
AcDbEntity
  8
Make2D$可见线$普通线
100
AcDbVertex
100
AcDb2dVertex
 10
322.9969560221458
 20
576.9968639422493
 30
0.0
  0
VERTEX
  5
585
330
4B1
100
AcDbEntity
  8
Make2D$可见线$普通线
100
AcDbVertex
100
AcDb2dVertex
 10
323.1084048348876
 20
576.9909391219117
 30
0.0
  0
VERTEX
  5
586
330
4B1
100
AcDbEntity
  8
Make2D$可见线$普通线
100
AcDbVertex
100
AcDb2dVertex
 10
323.179961142469
 20
576.9238536024967
 30
0.0
  0
VERTEX
  5
587
330
4B1
100
AcDbEntity
  8
Make2D$可见线$普通线
100
AcDbVertex
100
AcDb2dVertex
 10
323.1918707285096
 20
576.6220771206247
 30
0.0
  0
VERTEX
  5
588
330
4B1
100
AcDbEntity
  8
Make2D$可见线$普通线
100
AcDbVertex
100
AcDb2dVertex
 10
323.1526038607881
 20
576.5098861731932
 30
0.0
  0
VERTEX
  5
589
330
4B1
100
AcDbEntity
  8
Make2D$可见线$普通线
100
AcDbVertex
100
AcDb2dVertex
 10
323.1413990698741
 20
576.4380516029726
 30
0.0
  0
VERTEX
  5
58A
330
4B1
100
AcDbEntity
  8
Make2D$可见线$普通线
100
AcDbVertex
100
AcDb2dVertex
 10
323.0699359825626
 20
576.3046560085548
 30
0.0
  0
VERTEX
  5
58B
330
4B1
100
AcDbEntity
  8
Make2D$可见线$普通线
100
AcDbVertex
100
AcDb2dVertex
 10
323.0328008652851
 20
576.1650096210033
 30
0.0
  0
VERTEX
  5
58C
330
4B1
100
AcDbEntity
  8
Make2D$可见线$普通线
100
AcDbVertex
100
AcDb2dVertex
 10
322.9526218116516
 20
576.0172985485142
 30
0.0
  0
VERTEX
  5
58D
330
4B1
100
AcDbEntity
  8
Make2D$可见线$普通线
100
AcDbVertex
100
AcDb2dVertex
 10
322.8619165192063
 20
575.7555789182807
 30
0.0
  0
VERTEX
  5
58E
330
4B1
100
AcDbEntity
  8
Make2D$可见线$普通线
100
AcDbVertex
100
AcDb2dVertex
 10
322.7359162063141
 20
575.5777224568994
 30
0.0
  0
VERTEX
  5
58F
330
4B1
100
AcDbEntity
  8
Make2D$可见线$普通线
100
AcDbVertex
100
AcDb2dVertex
 10
322.5844547420936
 20
575.3115033742288
 30
0.0
  0
VERTEX
  5
590
330
4B1
100
AcDbEntity
  8
Make2D$可见线$普通线
100
AcDbVertex
100
AcDb2dVertex
 10
322.4930986091591
 20
575.1870644581406
 30
0.0
  0
VERTEX
  5
591
330
4B1
100
AcDbEntity
  8
Make2D$可见线$普通线
100
AcDbVertex
100
AcDb2dVertex
 10
322.3285970485252
 20
574.8684060972134
 30
0.0
  0
VERTEX
  5
592
330
4B1
100
AcDbEntity
  8
Make2D$可见线$普通线
100
AcDbVertex
100
AcDb2dVertex
 10
322.1681501613168
 20
574.6988584203654
 30
0.0
  0
VERTEX
  5
593
330
4B1
100
AcDbEntity
  8
Make2D$可见线$普通线
100
AcDbVertex
100
AcDb2dVertex
 10
322.1368880081272
 20
574.581818869164
 30
0.0
  0
VERTEX
  5
594
330
4B1
100
AcDbEntity
  8
Make2D$可见线$普通线
100
AcDbVertex
100
AcDb2dVertex
 10
321.635264161745
 20
573.8012168497706
 30
0.0
  0
VERTEX
  5
595
330
4B1
100
AcDbEntity
  8
Make2D$可见线$普通线
100
AcDbVertex
100
AcDb2dVertex
 10
321.5477868962503
 20
573.6014088658162
 30
0.0
  0
VERTEX
  5
596
330
4B1
100
AcDbEntity
  8
Make2D$可见线$普通线
100
AcDbVertex
100
AcDb2dVertex
 10
321.2668273028362
 20
573.2159308729679
 30
0.0
  0
VERTEX
  5
597
330
4B1
100
AcDbEntity
  8
Make2D$可见线$普通线
100
AcDbVertex
100
AcDb2dVertex
 10
321.1809271133176
 20
573.0398472737528
 30
0.0
  0
VERTEX
  5
598
330
4B1
100
AcDbEntity
  8
Make2D$可见线$普通线
100
AcDbVertex
100
AcDb2dVertex
 10
321.002788602415
 20
572.8164523359094
 30
0.0
  0
VERTEX
  5
599
330
4B1
100
AcDbEntity
  8
Make2D$可见线$普通线
100
AcDbVertex
100
AcDb2dVertex
 10
320.8516334247263
 20
572.5080617259152
 30
0.0
  0
VERTEX
  5
59A
330
4B1
100
AcDbEntity
  8
Make2D$可见线$普通线
100
AcDbVertex
100
AcDb2dVertex
 10
320.5988960511978
 20
572.1159238905012
 30
0.0
  0
VERTEX
  5
59B
330
4B1
100
AcDbEntity
  8
Make2D$可见线$普通线
100
AcDbVertex
100
AcDb2dVertex
 10
320.4586516335257
 20
571.9826362146446
 30
0.0
  0
VERTEX
  5
59C
330
4B1
100
AcDbEntity
  8
Make2D$可见线$普通线
100
AcDbVertex
100
AcDb2dVertex
 10
319.6258575320982
 20
570.5591177470696
 30
0.0
  0
VERTEX
  5
59D
330
4B1
100
AcDbEntity
  8
Make2D$可见线$普通线
100
AcDbVertex
100
AcDb2dVertex
 10
318.6362516356203
 20
569.9448077681386
 30
0.0
  0
VERTEX
  5
59E
330
4B1
100
AcDbEntity
  8
Make2D$可见线$普通线
100
AcDbVertex
100
AcDb2dVertex
 10
317.526766176294
 20
569.0156718645068
 30
0.0
  0
VERTEX
  5
59F
330
4B1
100
AcDbEntity
  8
Make2D$可见线$普通线
100
AcDbVertex
100
AcDb2dVertex
 10
317.1694877394149
 20
568.5773956969805
 30
0.0
  0
VERTEX
  5
5A0
330
4B1
100
AcDbEntity
  8
Make2D$可见线$普通线
100
AcDbVertex
100
AcDb2dVertex
 10
316.9140033744176
 20
568.2967435920423
 30
0.0
  0
VERTEX
  5
5A1
330
4B1
100
AcDbEntity
  8
Make2D$可见线$普通线
100
AcDbVertex
100
AcDb2dVertex
 10
316.8792314291495
 20
568.1830584461248
 30
0.0
  0
VERTEX
  5
5A2
330
4B1
100
AcDbEntity
  8
Make2D$可见线$普通线
100
AcDbVertex
100
AcDb2dVertex
 10
316.4541629335216
 20
567.4615574289974
 30
0.0
  0
VERTEX
  5
5A3
330
4B1
100
AcDbEntity
  8
Make2D$可见线$普通线
100
AcDbVertex
100
AcDb2dVertex
 10
316.4525089719989
 20
567.3751596353574
 30
0.0
  0
VERTEX
  5
5A4
330
4B1
100
AcDbEntity
  8
Make2D$可见线$普通线
100
AcDbVertex
100
AcDb2dVertex
 10
316.3571189516474
 20
567.1941994723959
 30
0.0
  0
VERTEX
  5
5A5
330
4B1
100
AcDbEntity
  8
Make2D$可见线$普通线
100
AcDbVertex
100
AcDb2dVertex
 10
316.217481252532
 20
566.6518093996297
 30
0.0
  0
VERTEX
  5
5A6
330
4B1
100
AcDbEntity
  8
Make2D$可见线$普通线
100
AcDbVertex
100
AcDb2dVertex
 10
316.2426109651265
 20
566.4975756970684
 30
0.0
  0
VERTEX
  5
5A7
330
4B1
100
AcDbEntity
  8
Make2D$可见线$普通线
100
AcDbVertex
100
AcDb2dVertex
 10
316.305231188443
 20
566.4129596958927
 30
0.0
  0
VERTEX
  5
5A8
330
4B1
100
AcDbEntity
  8
Make2D$可见线$普通线
100
AcDbVertex
100
AcDb2dVertex
 10
316.3749369895875
 20
566.3784182669351
 30
0.0
  0
SEQEND
  5
5A9
330
4B1
100
AcDbEntity
  8
Make2D$可见线$普通线
  0
POLYLINE
  5
5AA
330
1F
100
AcDbEntity
  8
Make2D$可见线$普通线
100
AcDb2dPolyline
 66
     1
 10
0.0
 20
0.0
 30
0.0
  0
VERTEX
  5
5AB
330
5AA
100
AcDbEntity
  8
Make2D$可见线$普通线
100
AcDbVertex
100
AcDb2dVertex
 10
326.8161566002974
 20
572.4608963932986
 30
0.0
  0
VERTEX
  5
5AC
330
5AA
100
AcDbEntity
  8
Make2D$可见线$普通线
100
AcDbVertex
100
AcDb2dVertex
 10
326.9329097986813
 20
572.5472588586813
 30
0.0
  0
VERTEX
  5
5AD
330
5AA
100
AcDbEntity
  8
Make2D$可见线$普通线
100
AcDbVertex
100
AcDb2dVertex
 10
327.1354944809257
 20
572.5261128794226
 30
0.0
  0
VERTEX
  5
5AE
330
5AA
100
AcDbEntity
  8
Make2D$可见线$普通线
100
AcDbVertex
100
AcDb2dVertex
 10
327.2546577611163
 20
572.3937674238238
 30
0.0
  0
VERTEX
  5
5AF
330
5AA
100
AcDbEntity
  8
Make2D$可见线$普通线
100
AcDbVertex
100
AcDb2dVertex
 10
327.2730957369654
 20
572.2339393639436
 30
0.0
  0
VERTEX
  5
5B0
330
5AA
100
AcDbEntity
  8
Make2D$可见线$普通线
100
AcDbVertex
100
AcDb2dVertex
 10
327.2491551093224
 20
571.9767527160659
 30
0.0
  0
VERTEX
  5
5B1
330
5AA
100
AcDbEntity
  8
Make2D$可见线$普通线
100
AcDbVertex
100
AcDb2dVertex
 10
327.1267520755194
 20
571.7493130002096
 30
0.0
  0
VERTEX
  5
5B2
330
5AA
100
AcDbEntity
  8
Make2D$可见线$普通线
100
AcDbVertex
100
AcDb2dVertex
 10
326.8572711296057
 20
571.5427593463021
 30
0.0
  0
VERTEX
  5
5B3
330
5AA
100
AcDbEntity
  8
Make2D$可见线$普通线
100
AcDbVertex
100
AcDb2dVertex
 10
326.6962608062499
 20
571.4626165767531
 30
0.0
  0
VERTEX
  5
5B4
330
5AA
100
AcDbEntity
  8
Make2D$可见线$普通线
100
AcDbVertex
100
AcDb2dVertex
 10
326.5880708032619
 20
571.4903113648879
 30
0.0
  0
VERTEX
  5
5B5
330
5AA
100
AcDbEntity
  8
Make2D$可见线$普通线
100
AcDbVertex
100
AcDb2dVertex
 10
326.5322362613288
 20
571.5321950260316
 30
0.0
  0
VERTEX
  5
5B6
330
5AA
100
AcDbEntity
  8
Make2D$可见线$普通线
100
AcDbVertex
100
AcDb2dVertex
 10
326.5041962818084
 20
571.6336408073207
 30
0.0
  0
VERTEX
  5
5B7
330
5AA
100
AcDbEntity
  8
Make2D$可见线$普通线
100
AcDbVertex
100
AcDb2dVertex
 10
326.5003101313699
 20
571.8299518301517
 30
0.0
  0
VERTEX
  5
5B8
330
5AA
100
AcDbEntity
  8
Make2D$可见线$普通线
100
AcDbVertex
100
AcDb2dVertex
 10
326.6186571185347
 20
572.1018999083061
 30
0.0
  0
VERTEX
  5
5B9
330
5AA
100
AcDbEntity
  8
Make2D$可见线$普通线
100
AcDbVertex
100
AcDb2dVertex
 10
326.7518769638906
 20
572.3854520783034
 30
0.0
  0
VERTEX
  5
5BA
330
5AA
100
AcDbEntity
  8
Make2D$可见线$普通线
100
AcDbVertex
100
AcDb2dVertex
 10
326.8161566002974
 20
572.4608963932986
 30
0.0
  0
SEQEND
  5
5BB
330
5AA
100
AcDbEntity
  8
Make2D$可见线$普通线
  0
POLYLINE
  5
5BC
330
1F
100
AcDbEntity
  8
Make2D$可见线$普通线
100
AcDb2dPolyline
 66
     1
 10
0.0
 20
0.0
 30
0.0
  0
VERTEX
  5
5BD
330
5BC
100
AcDbEntity
  8
Make2D$可见线$普通线
100
AcDbVertex
100
AcDb2dVertex
 10
318.873696808966
 20
569.7780586821485
 30
0.0
  0
VERTEX
  5
5BE
330
5BC
100
AcDbEntity
  8
Make2D$可见线$普通线
100
AcDbVertex
100
AcDb2dVertex
 10
318.9094069983815
 20
569.7635061623268
 30
0.0
  0
VERTEX
  5
5BF
330
5BC
100
AcDbEntity
  8
Make2D$可见线$普通线
100
AcDbVertex
100
AcDb2dVertex
 10
318.9139414765936
 20
569.7016514238335
 30
0.0
  0
VERTEX
  5
5C0
330
5BC
100
AcDbEntity
  8
Make2D$可见线$普通线
100
AcDbVertex
100
AcDb2dVertex
 10
318.8972416991732
 20
569.6925421082933
 30
0.0
  0
VERTEX
  5
5C1
330
5BC
100
AcDbEntity
  8
Make2D$可见线$普通线
100
AcDbVertex
100
AcDb2dVertex
 10
318.8427746110691
 20
569.6221891762116
 30
0.0
  0
VERTEX
  5
5C2
330
5BC
100
AcDbEntity
  8
Make2D$可见线$普通线
100
AcDbVertex
100
AcDb2dVertex
 10
318.8519397933153
 20
569.5647264093485
 30
0.0
  0
VERTEX
  5
5C3
330
5BC
100
AcDbEntity
  8
Make2D$可见线$普通线
100
AcDbVertex
100
AcDb2dVertex
 10
318.5591037560237
 20
569.1776006783577
 30
0.0
  0
VERTEX
  5
5C4
330
5BC
100
AcDbEntity
  8
Make2D$可见线$普通线
100
AcDbVertex
100
AcDb2dVertex
 10
318.4761975780037
 20
569.0309046413506
 30
0.0
  0
VERTEX
  5
5C5
330
5BC
100
AcDbEntity
  8
Make2D$可见线$普通线
100
AcDbVertex
100
AcDb2dVertex
 10
318.3336855231303
 20
568.8232830562041
 30
0.0
  0
VERTEX
  5
5C6
330
5BC
100
AcDbEntity
  8
Make2D$可见线$普通线
100
AcDbVertex
100
AcDb2dVertex
 10
318.2775780807536
 20
568.7381089836174
 30
0.0
  0
VERTEX
  5
5C7
330
5BC
100
AcDbEntity
  8
Make2D$可见线$普通线
100
AcDbVertex
100
AcDb2dVertex
 10
318.0521536218884
 20
568.5027082831203
 30
0.0
  0
VERTEX
  5
5C8
330
5BC
100
AcDbEntity
  8
Make2D$可见线$普通线
100
AcDbVertex
100
AcDb2dVertex
 10
317.9727279017342
 20
568.3584969597671
 30
0.0
  0
VERTEX
  5
5C9
330
5BC
100
AcDbEntity
  8
Make2D$可见线$普通线
100
AcDbVertex
100
AcDb2dVertex
 10
317.7939429987761
 20
568.1748183703806
 30
0.0
  0
VERTEX
  5
5CA
330
5BC
100
AcDbEntity
  8
Make2D$可见线$普通线
100
AcDbVertex
100
AcDb2dVertex
 10
317.6914497794501
 20
567.9821308125404
 30
0.0
  0
VERTEX
  5
5CB
330
5BC
100
AcDbEntity
  8
Make2D$可见线$普通线
100
AcDbVertex
100
AcDb2dVertex
 10
317.618009605097
 20
567.9288772075607
 30
0.0
  0
VERTEX
  5
5CC
330
5BC
100
AcDbEntity
  8
Make2D$可见线$普通线
100
AcDbVertex
100
AcDb2dVertex
 10
317.5162779784409
 20
567.768203760821
 30
0.0
  0
VERTEX
  5
5CD
330
5BC
100
AcDbEntity
  8
Make2D$可见线$普通线
100
AcDbVertex
100
AcDb2dVertex
 10
316.9280670126716
 20
567.0935028261424
 30
0.0
  0
VERTEX
  5
5CE
330
5BC
100
AcDbEntity
  8
Make2D$可见线$普通线
100
AcDbVertex
100
AcDb2dVertex
 10
316.7713382154541
 20
566.8834777492671
 30
0.0
  0
VERTEX
  5
5CF
330
5BC
100
AcDbEntity
  8
Make2D$可见线$普通线
100
AcDbVertex
100
AcDb2dVertex
 10
316.6716168220221
 20
566.793246186934
 30
0.0
  0
VERTEX
  5
5D0
330
5BC
100
AcDbEntity
  8
Make2D$可见线$普通线
100
AcDbVertex
100
AcDb2dVertex
 10
316.5819947312343
 20
566.7841867510031
 30
0.0
  0
VERTEX
  5
5D1
330
5BC
100
AcDbEntity
  8
Make2D$可见线$普通线
100
AcDbVertex
100
AcDb2dVertex
 10
316.5116680346079
 20
566.8033334030947
 30
0.0
  0
VERTEX
  5
5D2
330
5BC
100
AcDbEntity
  8
Make2D$可见线$普通线
100
AcDbVertex
100
AcDb2dVertex
 10
316.500668567328
 20
566.8476382362587
 30
0.0
  0
VERTEX
  5
5D3
330
5BC
100
AcDbEntity
  8
Make2D$可见线$普通线
100
AcDbVertex
100
AcDb2dVertex
 10
316.5252208756111
 20
566.9642692692303
 30
0.0
  0
VERTEX
  5
5D4
330
5BC
100
AcDbEntity
  8
Make2D$可见线$普通线
100
AcDbVertex
100
AcDb2dVertex
 10
316.6062127963364
 20
567.1142082425246
 30
0.0
  0
VERTEX
  5
5D5
330
5BC
100
AcDbEntity
  8
Make2D$可见线$普通线
100
AcDbVertex
100
AcDb2dVertex
 10
316.6078104312981
 20
567.3016040703576
 30
0.0
  0
VERTEX
  5
5D6
330
5BC
100
AcDbEntity
  8
Make2D$可见线$普通线
100
AcDbVertex
100
AcDb2dVertex
 10
316.6817449871442
 20
567.4145323727357
 30
0.0
  0
VERTEX
  5
5D7
330
5BC
100
AcDbEntity
  8
Make2D$可见线$普通线
100
AcDbVertex
100
AcDb2dVertex
 10
316.7575320804234
 20
567.5903388902599
 30
0.0
  0
VERTEX
  5
5D8
330
5BC
100
AcDbEntity
  8
Make2D$可见线$普通线
100
AcDbVertex
100
AcDb2dVertex
 10
317.009218063236
 20
568.0530698767197
 30
0.0
  0
VERTEX
  5
5D9
330
5BC
100
AcDbEntity
  8
Make2D$可见线$普通线
100
AcDbVertex
100
AcDb2dVertex
 10
317.111839085874
 20
568.1691757428083
 30
0.0
  0
VERTEX
  5
5DA
330
5BC
100
AcDbEntity
  8
Make2D$可见线$普通线
100
AcDbVertex
100
AcDb2dVertex
 10
317.2185467509765
 20
568.3221654009053
 30
0.0
  0
VERTEX
  5
5DB
330
5BC
100
AcDbEntity
  8
Make2D$可见线$普通线
100
AcDbVertex
100
AcDb2dVertex
 10
317.7380469441287
 20
568.9180059769999
 30
0.0
  0
VERTEX
  5
5DC
330
5BC
100
AcDbEntity
  8
Make2D$可见线$普通线
100
AcDbVertex
100
AcDb2dVertex
 10
318.0841515788193
 20
569.257369156677
 30
0.0
  0
VERTEX
  5
5DD
330
5BC
100
AcDbEntity
  8
Make2D$可见线$普通线
100
AcDbVertex
100
AcDb2dVertex
 10
318.4320715759344
 20
569.51697132093
 30
0.0
  0
VERTEX
  5
5DE
330
5BC
100
AcDbEntity
  8
Make2D$可见线$普通线
100
AcDbVertex
100
AcDb2dVertex
 10
318.6293966500382
 20
569.6847711745276
 30
0.0
  0
VERTEX
  5
5DF
330
5BC
100
AcDbEntity
  8
Make2D$可见线$普通线
100
AcDbVertex
100
AcDb2dVertex
 10
318.7726665378328
 20
569.7483522644761
 30
0.0
  0
VERTEX
  5
5E0
330
5BC
100
AcDbEntity
  8
Make2D$可见线$普通线
100
AcDbVertex
100
AcDb2dVertex
 10
318.8012958782469
 20
569.7794119407444
 30
0.0
  0
VERTEX
  5
5E1
330
5BC
100
AcDbEntity
  8
Make2D$可见线$普通线
100
AcDbVertex
100
AcDb2dVertex
 10
318.873696808966
 20
569.7780586821485
 30
0.0
  0
SEQEND
  5
5E2
330
5BC
100
AcDbEntity
  8
Make2D$可见线$普通线
  0
POLYLINE
  5
5E3
330
1F
100
AcDbEntity
  8
Make2D$可见线$普通线
100
AcDb2dPolyline
 66
     1
 10
0.0
 20
0.0
 30
0.0
  0
VERTEX
  5
5E4
330
5E3
100
AcDbEntity
  8
Make2D$可见线$普通线
100
AcDbVertex
100
AcDb2dVertex
 10
336.3470995153908
 20
595.3911420239981
 30
0.0
 42
0.1164216231840818
  0
VERTEX
  5
5E5
330
5E3
100
AcDbEntity
  8
Make2D$可见线$普通线
100
AcDbVertex
100
AcDb2dVertex
 10
336.0884994130162
 20
595.9166903789632
 30
0.0
 42
0.1083754014177168
  0
VERTEX
  5
5E6
330
5E3
100
AcDbEntity
  8
Make2D$可见线$普通线
100
AcDbVertex
100
AcDb2dVertex
 10
335.1977733335127
 20
596.5947145222125
 30
0.0
 42
0.111581801178022
  0
VERTEX
  5
5E7
330
5E3
100
AcDbEntity
  8
Make2D$可见线$普通线
100
AcDbVertex
100
AcDb2dVertex
 10
332.3693462087665
 20
597.1805009598394
 30
0.0
 42
0.1115818011778869
  0
VERTEX
  5
5E8
330
5E3
100
AcDbEntity
  8
Make2D$可见线$普通线
100
AcDbVertex
100
AcDb2dVertex
 10
329.5409190840203
 20
596.5947145222125
 30
0.0
  0
VERTEX
  5
5E9
330
5E3
100
AcDbEntity
  8
Make2D$可见线$普通线
100
AcDbVertex
100
AcDb2dVertex
 10
329.4777775581122
 20
596.564358927725
 30
0.0
  0
VERTEX
  5
5EA
330
5E3
100
AcDbEntity
  8
Make2D$可见线$普通线
100
AcDbVertex
100
AcDb2dVertex
 10
329.4153149446004
 20
596.5322374031307
 30
0.0
  0
VERTEX
  5
5EB
330
5E3
100
AcDbEntity
  8
Make2D$可见线$普通线
100
AcDbVertex
100
AcDb2dVertex
 10
329.3536045448507
 20
596.4983725749156
 30
0.0
  0
VERTEX
  5
5EC
330
5E3
100
AcDbEntity
  8
Make2D$可见线$普通线
100
AcDbVertex
100
AcDb2dVertex
 10
329.292718652346
 20
596.4627910962123
 30
0.0
  0
VERTEX
  5
5ED
330
5E3
100
AcDbEntity
  8
Make2D$可见线$普通线
100
AcDbVertex
100
AcDb2dVertex
 10
329.2327282776234
 20
596.4255235897117
 30
0.0
  0
VERTEX
  5
5EE
330
5E3
100
AcDbEntity
  8
Make2D$可见线$普通线
100
AcDbVertex
100
AcDb2dVertex
 10
329.1737028772419
 20
596.3866045681053
 30
0.0
  0
VERTEX
  5
5EF
330
5E3
100
AcDbEntity
  8
Make2D$可见线$普通线
100
AcDbVertex
100
AcDb2dVertex
 10
329.1157100889172
 20
596.3460723324157
 30
0.0
  0
VERTEX
  5
5F0
330
5E3
100
AcDbEntity
  8
Make2D$可见线$普通线
100
AcDbVertex
100
AcDb2dVertex
 10
329.0588154749208
 20
596.3039688487975
 30
0.0
  0
VERTEX
  5
5F1
330
5E3
100
AcDbEntity
  8
Make2D$可见线$普通线
100
AcDbVertex
100
AcDb2dVertex
 10
329.0030822757731
 20
596.2603396046218
 30
0.0
  0
VERTEX
  5
5F2
330
5E3
100
AcDbEntity
  8
Make2D$可见线$普通线
100
AcDbVertex
100
AcDb2dVertex
 10
328.9485711761677
 20
596.2152334448706
 30
0.0
  0
VERTEX
  5
5F3
330
5E3
100
AcDbEntity
  8
Make2D$可见线$普通线
100
AcDbVertex
100
AcDb2dVertex
 10
328.8953400849443
 20
596.1687023900774
 30
0.0
  0
VERTEX
  5
5F4
330
5E3
100
AcDbEntity
  8
Make2D$可见线$普通线
100
AcDbVertex
100
AcDb2dVertex
 10
328.8434439307818
 20
596.1208014372344
 30
0.0
  0
VERTEX
  5
5F5
330
5E3
100
AcDbEntity
  8
Make2D$可见线$普通线
100
AcDbVertex
100
AcDb2dVertex
 10
328.7929344751206
 20
596.0715883452608
 30
0.0
  0
VERTEX
  5
5F6
330
5E3
100
AcDbEntity
  8
Make2D$可见线$普通线
100
AcDbVertex
100
AcDb2dVertex
 10
328.7438601436351
 20
596.0211234067729
 30
0.0
  0
VERTEX
  5
5F7
330
5E3
100
AcDbEntity
  8
Make2D$可见线$普通线
100
AcDbVertex
100
AcDb2dVertex
 10
328.6962658773799
 20
595.9694692080221
 30
0.0
  0
VERTEX
  5
5F8
330
5E3
100
AcDbEntity
  8
Make2D$可见线$普通线
100
AcDbVertex
100
AcDb2dVertex
 10
328.6501930045168
 20
595.9166903789632
 30
0.0
  0
VERTEX
  5
5F9
330
5E3
100
AcDbEntity
  8
Make2D$可见线$普通线
100
AcDbVertex
100
AcDb2dVertex
 10
328.6273019332804
 20
595.8880730008239
 30
0.0
  0
VERTEX
  5
5FA
330
5E3
100
AcDbEntity
  8
Make2D$可见线$普通线
100
AcDbVertex
100
AcDb2dVertex
 10
328.6051792826211
 20
595.8587227585425
 30
0.0
  0
VERTEX
  5
5FB
330
5E3
100
AcDbEntity
  8
Make2D$可见线$普通线
100
AcDbVertex
100
AcDb2dVertex
 10
328.583859283653
 20
595.8286706885776
 30
0.0
  0
VERTEX
  5
5FC
330
5E3
100
AcDbEntity
  8
Make2D$可见线$普通线
100
AcDbVertex
100
AcDb2dVertex
 10
328.5633744835654
 20
595.7979499166477
 30
0.0
  0
VERTEX
  5
5FD
330
5E3
100
AcDbEntity
  8
Make2D$可见线$普通线
100
AcDbVertex
100
AcDb2dVertex
 10
328.5437555886578
 20
595.7665955421317
 30
0.0
  0
VERTEX
  5
5FE
330
5E3
100
AcDbEntity
  8
Make2D$可见线$普通线
100
AcDbVertex
100
AcDb2dVertex
 10
328.5250313170564
 20
595.734644508493
 30
0.0
  0
VERTEX
  5
5FF
330
5E3
100
AcDbEntity
  8
Make2D$可见线$普通线
100
AcDbVertex
100
AcDb2dVertex
 10
328.507228262546
 20
595.7021354606884
 30
0.0
  0
VERTEX
  5
600
330
5E3
100
AcDbEntity
  8
Make2D$可见线$普通线
100
AcDbVertex
100
AcDb2dVertex
 10
328.4903707708466
 20
595.6691085906957
 30
0.0
  0
VERTEX
  5
601
330
5E3
100
AcDbEntity
  8
Make2D$可见线$普通线
100
AcDbVertex
100
AcDb2dVertex
 10
328.4744808295206
 20
595.6356054724442
 30
0.0
  0
VERTEX
  5
602
330
5E3
100
AcDbEntity
  8
Make2D$可见线$普通线
100
AcDbVertex
100
AcDb2dVertex
 10
328.4595779725531
 20
595.601668887565
 30
0.0
  0
VERTEX
  5
603
330
5E3
100
AcDbEntity
  8
Make2D$可见线$普通线
100
AcDbVertex
100
AcDb2dVertex
 10
328.4456792004681
 20
595.5673426434925
 30
0.0
  0
VERTEX
  5
604
330
5E3
100
AcDbEntity
  8
Make2D$可见线$普通线
100
AcDbVertex
100
AcDb2dVertex
 10
328.4327989166704
 20
595.5326713855405
 30
0.0
  0
VERTEX
  5
605
330
5E3
100
AcDbEntity
  8
Make2D$可见线$普通线
100
AcDbVertex
100
AcDb2dVertex
 10
328.4209488804984
 20
595.4977004046373
 30
0.0
  0
VERTEX
  5
606
330
5E3
100
AcDbEntity
  8
Make2D$可见线$普通线
100
AcDbVertex
100
AcDb2dVertex
 10
328.4101381772833
 20
595.4624754424491
 30
0.0
  0
VERTEX
  5
607
330
5E3
100
AcDbEntity
  8
Make2D$可见线$普通线
100
AcDbVertex
100
AcDb2dVertex
 10
328.4003732055004
 20
595.4270424956306
 30
0.0
  0
VERTEX
  5
608
330
5E3
100
AcDbEntity
  8
Make2D$可见线$普通线
100
AcDbVertex
100
AcDb2dVertex
 10
328.3916576809029
 20
595.3914476209305
 30
0.0
  0
SEQEND
  5
609
330
5E3
100
AcDbEntity
  8
Make2D$可见线$普通线
  0
POLYLINE
  5
60A
330
1F
100
AcDbEntity
  8
Make2D$可见线$普通线
100
AcDb2dPolyline
 66
     1
 10
0.0
 20
0.0
 30
0.0
  0
VERTEX
  5
60B
330
60A
100
AcDbEntity
  8
Make2D$可见线$普通线
100
AcDbVertex
100
AcDb2dVertex
 10
354.4030414234491
 20
627.3569248856655
 30
0.0
  0
VERTEX
  5
60C
330
60A
100
AcDbEntity
  8
Make2D$可见线$普通线
100
AcDbVertex
100
AcDb2dVertex
 10
354.4030414234488
 20
591.2454256815986
 30
0.0
 42
0.1412304758509042
  0
VERTEX
  5
60D
330
60A
100
AcDbEntity
  8
Make2D$可见线$普通线
100
AcDbVertex
100
AcDb2dVertex
 10
356.0933837115932
 20
585.3862215292727
 30
0.0
 42
-0.2886364397276909
  0
VERTEX
  5
60E
330
60A
100
AcDbEntity
  8
Make2D$可见线$普通线
100
AcDbVertex
100
AcDb2dVertex
 10
356.0933837115911
 20
555.5231144849309
 30
0.0
 42
0.1412304420245967
  0
VERTEX
  5
60F
330
60A
100
AcDbEntity
  8
Make2D$可见线$普通线
100
AcDbVertex
100
AcDb2dVertex
 10
354.4030414229682
 20
549.6639103326102
 30
0.0
  0
VERTEX
  5
610
330
60A
100
AcDbEntity
  8
Make2D$可见线$普通线
100
AcDbVertex
100
AcDb2dVertex
 10
354.4030414234476
 20
460.547961311357
 30
0.0
  0
SEQEND
  5
611
330
60A
100
AcDbEntity
  8
Make2D$可见线$普通线
  0
ENDSEC
  0
SECTION
  2
OBJECTS
  0
DICTIONARY
  5
C
330
0
100
AcDbDictionary
281
     1
  3
ACAD_GROUP
350
D
  3
ACAD_LAYOUT
350
1A
  3
ACAD_MATERIAL
350
3B
  3
ACAD_MLEADERSTYLE
350
63C
  3
ACAD_MLINESTYLE
350
17
  3
ACAD_PLOTSETTINGS
350
19
  3
ACAD_PLOTSTYLENAME
350
E
  3
ACAD_SCALELIST
350
3F
  3
ACAD_TABLESTYLE
350
63B
  3
ACAD_VISUALSTYLE
350
2A
  3
AcDbVariableDictionary
350
612
  0
DICTIONARY
  5
D
102
{ACAD_REACTORS
330
C
102
}
330
C
100
AcDbDictionary
281
     1
  0
DICTIONARY
  5
1A
102
{ACAD_REACTORS
330
C
102
}
330
C
100
AcDbDictionary
281
     1
  3
Layout1
350
1E
  3
Layout2
350
26
  3
Model
350
22
  0
DICTIONARY
  5
3B
102
{ACAD_REACTORS
330
C
102
}
330
C
100
AcDbDictionary
281
     1
  3
ByBlock
350
3D
  3
ByLayer
350
3C
  3
Global
350
3E
  0
DICTIONARY
  5
63C
102
{ACAD_REACTORS
330
C
102
}
330
C
100
AcDbDictionary
281
     1
  0
DICTIONARY
  5
17
102
{ACAD_REACTORS
330
C
102
}
330
C
100
AcDbDictionary
281
     1
  3
Standard
350
18
  0
DICTIONARY
  5
19
102
{ACAD_REACTORS
330
C
102
}
330
C
100
AcDbDictionary
281
     1
  0
ACDBDICTIONARYWDFLT
  5
E
102
{ACAD_REACTORS
330
C
102
}
330
C
100
AcDbDictionary
281
     1
  3
Normal
350
F
100
AcDbDictionaryWithDefault
340
F
  0
DICTIONARY
  5
3F
102
{ACAD_REACTORS
330
C
102
}
330
C
100
AcDbDictionary
281
     1
  3
A0
350
40
  3
A1
350
41
  3
A2
350
42
  3
A3
350
43
  3
A4
350
44
  3
A5
350
45
  3
A6
350
46
  3
A7
350
47
  3
A8
350
48
  3
A9
350
49
  3
B0
350
4A
  3
B1
350
4B
  3
B2
350
4C
  3
B3
350
4D
  3
B4
350
4E
  3
B5
350
4F
  3
B6
350
50
  3
B7
350
51
  3
B8
350
52
  3
B9
350
53
  3
C0
350
54
  3
C1
350
55
  3
C2
350
56
  3
C3
350
57
  3
C4
350
58
  3
C5
350
59
  3
C6
350
5A
  3
C7
350
5B
  3
C8
350
5C
  3
C9
350
5D
  3
D0
350
5E
  3
D1
350
5F
  3
D2
350
60
  0
DICTIONARY
  5
63B
102
{ACAD_REACTORS
330
C
102
}
330
C
100
AcDbDictionary
281
     1
  0
DICTIONARY
  5
2A
102
{ACAD_REACTORS
330
C
102
}
330
C
100
AcDbDictionary
281
     1
  3
2dWireframe
350
2F
  3
3D Hidden
350
31
  3
3dWireframe
350
30
  3
Basic
350
32
  3
Brighten
350
36
  3
ColorChange
350
3A
  3
Conceptual
350
34
  3
Dim
350
35
  3
Facepattern
350
39
  3
Flat
350
2B
  3
FlatWithEdges
350
2C
  3
Gouraud
350
2D
  3
GouraudWithEdges
350
2E
  3
Linepattern
350
38
  3
Realistic
350
33
  3
Thicken
350
37
  0
DICTIONARY
  5
612
102
{ACAD_REACTORS
330
C
102
}
330
C
100
AcDbDictionary
281
     1
  3
CANNOSCALE
350
613
  3
MSLTSCALE
350
614
  0
LAYOUT
  5
1E
102
{ACAD_REACTORS
330
1A
102
}
330
1A
100
AcDbPlotSettings
  1

  2
none_device
  4

  6

 40
0.0
 41
0.0
 42
0.0
 43
0.0
 44
0.0
 45
0.0
 46
0.0
 47
0.0
 48
0.0
 49
0.0
140
0.0
141
0.0
142
1.0
143
1.0
 70
   688
 72
     0
 73
     0
 74
     5
  7

 75
    16
 76
     0
 77
     2
 78
   300
147
1.0
148
0.0
149
0.0
100
AcDbLayout
  1
Layout1
 70
     1
 71
     1
 10
0.0
 20
0.0
 11
12.0
 21
9.0
 12
0.0
 22
0.0
 32
0.0
 14
1.000000000000000E+20
 24
1.000000000000000E+20
 34
1.000000000000000E+20
 15
-1.000000000000000E+20
 25
-1.000000000000000E+20
 35
-1.000000000000000E+20
146
0.0
 13
0.0
 23
0.0
 33
0.0
 16
1.0
 26
0.0
 36
0.0
 17
0.0
 27
1.0
 37
0.0
 76
     0
330
1B
  0
LAYOUT
  5
26
102
{ACAD_REACTORS
330
1A
102
}
330
1A
100
AcDbPlotSettings
  1

  2
none_device
  4

  6

 40
0.0
 41
0.0
 42
0.0
 43
0.0
 44
0.0
 45
0.0
 46
0.0
 47
0.0
 48
0.0
 49
0.0
140
0.0
141
0.0
142
1.0
143
1.0
 70
   688
 72
     0
 73
     0
 74
     5
  7

 75
    16
 76
     0
 77
     2
 78
   300
147
1.0
148
0.0
149
0.0
100
AcDbLayout
  1
Layout2
 70
     1
 71
     2
 10
0.0
 20
0.0
 11
0.0
 21
0.0
 12
0.0
 22
0.0
 32
0.0
 14
0.0
 24
0.0
 34
0.0
 15
0.0
 25
0.0
 35
0.0
146
0.0
 13
0.0
 23
0.0
 33
0.0
 16
1.0
 26
0.0
 36
0.0
 17
0.0
 27
1.0
 37
0.0
 76
     0
330
23
  0
LAYOUT
  5
22
102
{ACAD_REACTORS
330
1A
102
}
330
1A
100
AcDbPlotSettings
  1

  2
none_device
  4
Letter_(8.50_x_11.00_Inches)
  6

 40
6.35
 41
6.35
 42
6.35000508
 43
6.35000508
 44
215.9
 45
279.4
 46
0.0
 47
0.0
 48
0.0
 49
0.0
140
0.0
141
0.0
142
1.0
143
1.0
 70
  1712
 72
     0
 73
     0
 74
     0
  7

 75
     0
 76
     0
 77
     2
 78
   300
147
1.0
148
0.0
149
0.0
100
AcDbLayout
  1
Model
 70
     1
 71
     0
 10
0.0
 20
0.0
 11
12.0
 21
9.0
 12
0.0
 22
0.0
 32
0.0
 14
274.9161210101253
 24
459.0
 34
0.0
 15
389.8210072071478
 25
628.9048861970225
 35
0.0
146
0.0
 13
0.0
 23
0.0
 33
0.0
 16
1.0
 26
0.0
 36
0.0
 17
0.0
 27
1.0
 37
0.0
 76
     0
330
1F
331
29
  0
MATERIAL
  5
3D
102
{ACAD_REACTORS
330
3B
102
}
102
{ACAD_XDICTIONARY
360
637
102
}
330
3B
100
AcDbMaterial
  1
ByBlock
  0
MATERIAL
  5
3C
102
{ACAD_REACTORS
330
3B
102
}
102
{ACAD_XDICTIONARY
360
635
102
}
330
3B
100
AcDbMaterial
  1
ByLayer
  0
MATERIAL
  5
3E
102
{ACAD_REACTORS
330
3B
102
}
102
{ACAD_XDICTIONARY
360
639
102
}
330
3B
100
AcDbMaterial
  1
Global
  0
MLINESTYLE
  5
18
102
{ACAD_REACTORS
330
17
102
}
330
17
100
AcDbMlineStyle
  2
Standard
 70
     0
  3

 62
   256
 51
90.0
 52
90.0
 71
     2
 49
0.5
 62
   256
  6
BYLAYER
 49
-0.5
 62
   256
  6
BYLAYER
  0
ACDBPLACEHOLDER
  5
F
102
{ACAD_REACTORS
330
E
102
}
330
E
  0
SCALE
  5
40
102
{ACAD_REACTORS
330
3F
102
}
330
3F
100
AcDbScale
 70
     0
300
1:1
140
1.0
141
1.0
290
     1
  0
SCALE
  5
41
102
{ACAD_REACTORS
330
3F
102
}
330
3F
100
AcDbScale
 70
     0
300
1:2
140
1.0
141
2.0
290
     0
  0
SCALE
  5
42
102
{ACAD_REACTORS
330
3F
102
}
330
3F
100
AcDbScale
 70
     0
300
1:4
140
1.0
141
4.0
290
     0
  0
SCALE
  5
43
102
{ACAD_REACTORS
330
3F
102
}
330
3F
100
AcDbScale
 70
     0
300
1:5
140
1.0
141
5.0
290
     0
  0
SCALE
  5
44
102
{ACAD_REACTORS
330
3F
102
}
330
3F
100
AcDbScale
 70
     0
300
1:8
140
1.0
141
8.0
290
     0
  0
SCALE
  5
45
102
{ACAD_REACTORS
330
3F
102
}
330
3F
100
AcDbScale
 70
     0
300
1:10
140
1.0
141
10.0
290
     0
  0
SCALE
  5
46
102
{ACAD_REACTORS
330
3F
102
}
330
3F
100
AcDbScale
 70
     0
300
1:16
140
1.0
141
16.0
290
     0
  0
SCALE
  5
47
102
{ACAD_REACTORS
330
3F
102
}
330
3F
100
AcDbScale
 70
     0
300
1:20
140
1.0
141
20.0
290
     0
  0
SCALE
  5
48
102
{ACAD_REACTORS
330
3F
102
}
330
3F
100
AcDbScale
 70
     0
300
1:30
140
1.0
141
30.0
290
     0
  0
SCALE
  5
49
102
{ACAD_REACTORS
330
3F
102
}
330
3F
100
AcDbScale
 70
     0
300
1:40
140
1.0
141
40.0
290
     0
  0
SCALE
  5
4A
102
{ACAD_REACTORS
330
3F
102
}
330
3F
100
AcDbScale
 70
     0
300
1:50
140
1.0
141
50.0
290
     0
  0
SCALE
  5
4B
102
{ACAD_REACTORS
330
3F
102
}
330
3F
100
AcDbScale
 70
     0
300
1:100
140
1.0
141
100.0
290
     0
  0
SCALE
  5
4C
102
{ACAD_REACTORS
330
3F
102
}
330
3F
100
AcDbScale
 70
     0
300
2:1
140
2.0
141
1.0
290
     0
  0
SCALE
  5
4D
102
{ACAD_REACTORS
330
3F
102
}
330
3F
100
AcDbScale
 70
     0
300
4:1
140
4.0
141
1.0
290
     0
  0
SCALE
  5
4E
102
{ACAD_REACTORS
330
3F
102
}
330
3F
100
AcDbScale
 70
     0
300
8:1
140
8.0
141
1.0
290
     0
  0
SCALE
  5
4F
102
{ACAD_REACTORS
330
3F
102
}
330
3F
100
AcDbScale
 70
     0
300
10:1
140
10.0
141
1.0
290
     0
  0
SCALE
  5
50
102
{ACAD_REACTORS
330
3F
102
}
330
3F
100
AcDbScale
 70
     0
300
100:1
140
100.0
141
1.0
290
     0
  0
SCALE
  5
51
102
{ACAD_REACTORS
330
3F
102
}
330
3F
100
AcDbScale
 70
     0
300
1/128" = 1'-0"
140
0.0078125
141
12.0
290
     0
  0
SCALE
  5
52
102
{ACAD_REACTORS
330
3F
102
}
330
3F
100
AcDbScale
 70
     0
300
1/64" = 1'-0"
140
0.015625
141
12.0
290
     0
  0
SCALE
  5
53
102
{ACAD_REACTORS
330
3F
102
}
330
3F
100
AcDbScale
 70
     0
300
1/32" = 1'-0"
140
0.03125
141
12.0
290
     0
  0
SCALE
  5
54
102
{ACAD_REACTORS
330
3F
102
}
330
3F
100
AcDbScale
 70
     0
300
1/16" = 1'-0"
140
0.0625
141
12.0
290
     0
  0
SCALE
  5
55
102
{ACAD_REACTORS
330
3F
102
}
330
3F
100
AcDbScale
 70
     0
300
3/32" = 1'-0"
140
0.09375
141
12.0
290
     0
  0
SCALE
  5
56
102
{ACAD_REACTORS
330
3F
102
}
330
3F
100
AcDbScale
 70
     0
300
1/8" = 1'-0"
140
0.125
141
12.0
290
     0
  0
SCALE
  5
57
102
{ACAD_REACTORS
330
3F
102
}
330
3F
100
AcDbScale
 70
     0
300
3/16" = 1'-0"
140
0.1875
141
12.0
290
     0
  0
SCALE
  5
58
102
{ACAD_REACTORS
330
3F
102
}
330
3F
100
AcDbScale
 70
     0
300
1/4" = 1'-0"
140
0.25
141
12.0
290
     0
  0
SCALE
  5
59
102
{ACAD_REACTORS
330
3F
102
}
330
3F
100
AcDbScale
 70
     0
300
3/8" = 1'-0"
140
0.375
141
12.0
290
     0
  0
SCALE
  5
5A
102
{ACAD_REACTORS
330
3F
102
}
330
3F
100
AcDbScale
 70
     0
300
1/2" = 1'-0"
140
0.5
141
12.0
290
     0
  0
SCALE
  5
5B
102
{ACAD_REACTORS
330
3F
102
}
330
3F
100
AcDbScale
 70
     0
300
3/4" = 1'-0"
140
0.75
141
12.0
290
     0
  0
SCALE
  5
5C
102
{ACAD_REACTORS
330
3F
102
}
330
3F
100
AcDbScale
 70
     0
300
1" = 1'-0"
140
1.0
141
12.0
290
     0
  0
SCALE
  5
5D
102
{ACAD_REACTORS
330
3F
102
}
330
3F
100
AcDbScale
 70
     0
300
1-1/2" = 1'-0"
140
1.5
141
12.0
290
     0
  0
SCALE
  5
5E
102
{ACAD_REACTORS
330
3F
102
}
330
3F
100
AcDbScale
 70
     0
300
3" = 1'-0"
140
3.0
141
12.0
290
     0
  0
SCALE
  5
5F
102
{ACAD_REACTORS
330
3F
102
}
330
3F
100
AcDbScale
 70
     0
300
6" = 1'-0"
140
6.0
141
12.0
290
     0
  0
SCALE
  5
60
102
{ACAD_REACTORS
330
3F
102
}
330
3F
100
AcDbScale
 70
     0
300
1'-0" = 1'-0"
140
12.0
141
12.0
290
     0
  0
VISUALSTYLE
  5
2F
102
{ACAD_REACTORS
330
2A
102
}
102
{ACAD_XDICTIONARY
360
61D
102
}
330
2A
100
AcDbVisualStyle
  2
2dWireframe
 70
     4
 71
     0
 72
     2
 73
     0
 90
        0
 40
0.6
 41
30.0
 62
     5
 63
     7
421
 16777215
 74
     1
 91
        4
 64
     7
 65
   257
 75
     1
175
     1
 42
1.0
 92
        0
 66
   257
 43
1.0
 76
     1
 77
     6
 78
     2
 67
     7
 79
     5
170
     0
171
     0
290
     0
174
     0
 93
        1
 44
0.0
173
     0
291
     0
 45
0.0
1001
ACAD
1000
AcDbSavedByObjectVersion
1070
     0
  0
VISUALSTYLE
  5
31
102
{ACAD_REACTORS
330
2A
102
}
102
{ACAD_XDICTIONARY
360
621
102
}
330
2A
100
AcDbVisualStyle
  2
3D Hidden
 70
     6
 71
     1
 72
     2
 73
     2
 90
        0
 40
0.6
 41
30.0
 62
     5
 63
     7
421
 16777215
 74
     2
 91
        2
 64
     7
 65
   257
 75
     2
175
     1
 42
40.0
 92
        0
 66
   257
 43
1.0
 76
     1
 77
     6
 78
     2
 67
     7
 79
     3
170
     0
171
     0
290
     0
174
     0
 93
        1
 44
0.0
173
     0
291
     0
 45
0.0
1001
ACAD
1000
AcDbSavedByObjectVersion
1070
     0
  0
VISUALSTYLE
  5
30
102
{ACAD_REACTORS
330
2A
102
}
102
{ACAD_XDICTIONARY
360
61F
102
}
330
2A
100
AcDbVisualStyle
  2
3dWireframe
 70
     5
 71
     0
 72
     2
 73
     0
 90
        0
 40
0.6
 41
30.0
 62
     5
 63
     7
421
 16777215
 74
     1
 91
        4
 64
     7
 65
   257
 75
     1
175
     1
 42
1.0
 92
        0
 66
   257
 43
1.0
 76
     1
 77
     6
 78
     2
 67
     7
 79
     5
170
     0
171
     0
290
     0
174
     0
 93
        1
 44
0.0
173
     0
291
     0
 45
0.0
1001
ACAD
1000
AcDbSavedByObjectVersion
1070
     0
  0
VISUALSTYLE
  5
32
102
{ACAD_REACTORS
330
2A
102
}
102
{ACAD_XDICTIONARY
360
623
102
}
330
2A
100
AcDbVisualStyle
  2
Basic
 70
     7
 71
     1
 72
     0
 73
     1
 90
        0
 40
0.6
 41
30.0
 62
     5
 63
     7
421
 16777215
 74
     0
 91
        4
 64
     7
 65
   257
 75
     1
175
     1
 42
1.0
 92
        8
 66
     7
 43
1.0
 76
     1
 77
     6
 78
     2
 67
     7
 79
     5
170
     0
171
     0
290
     0
174
     0
 93
        1
 44
0.0
173
     0
291
     1
 45
0.0
1001
ACAD
1000
AcDbSavedByObjectVersion
1070
     0
  0
VISUALSTYLE
  5
36
102
{ACAD_REACTORS
330
2A
102
}
102
{ACAD_XDICTIONARY
360
62B
102
}
330
2A
100
AcDbVisualStyle
  2
Brighten
 70
    12
 71
     2
 72
     2
 73
     0
 90
        0
 40
0.6
 41
30.0
 62
     5
 63
     7
421
 16777215
 74
     1
 91
        4
 64
     7
 65
   257
 75
     1
175
     1
 42
1.0
 92
        8
 66
     7
 43
1.0
 76
     1
 77
     6
 78
     2
 67
     7
 79
     5
170
     0
171
     0
290
     0
174
     0
 93
        1
 44
50.0
173
     0
291
     1
 45
0.0
1001
ACAD
1000
AcDbSavedByObjectVersion
1070
     0
  0
VISUALSTYLE
  5
3A
102
{ACAD_REACTORS
330
2A
102
}
102
{ACAD_XDICTIONARY
360
633
102
}
330
2A
100
AcDbVisualStyle
  2
ColorChange
 70
    16
 71
     2
 72
     2
 73
     3
 90
        0
 40
0.6
 41
30.0
 62
     5
 63
     8
421
  8421504
 74
     1
 91
        4
 64
     7
 65
   257
 75
     1
175
     1
 42
1.0
 92
        8
 66
     8
424
  8421504
 43
1.0
 76
     1
 77
     6
 78
     2
 67
     7
 79
     5
170
     0
171
     0
290
     0
174
     0
 93
        1
 44
0.0
173
     0
291
     1
 45
0.0
1001
ACAD
1000
AcDbSavedByObjectVersion
1070
     0
  0
VISUALSTYLE
  5
34
102
{ACAD_REACTORS
330
2A
102
}
102
{ACAD_XDICTIONARY
360
627
102
}
330
2A
100
AcDbVisualStyle
  2
Conceptual
 70
     9
 71
     3
 72
     2
 73
     0
 90
        0
 40
0.6
 41
30.0
 62
     5
 63
     7
421
 16777215
 74
     2
 91
        2
 64
     7
 65
   257
 75
     1
175
     1
 42
40.0
 92
        8
 66
     7
 43
1.0
 76
     1
 77
     6
 78
     2
 67
     7
 79
     3
170
     0
171
     0
290
     0
174
     0
 93
        1
 44
0.0
173
     0
291
     0
 45
0.0
1001
ACAD
1000
AcDbSavedByObjectVersion
1070
     0
  0
VISUALSTYLE
  5
35
102
{ACAD_REACTORS
330
2A
102
}
102
{ACAD_XDICTIONARY
360
629
102
}
330
2A
100
AcDbVisualStyle
  2
Dim
 70
    11
 71
     2
 72
     2
 73
     0
 90
        0
 40
0.6
 41
30.0
 62
     5
 63
     7
421
 16777215
 74
     1
 91
        4
 64
     7
 65
   257
 75
     1
175
     1
 42
1.0
 92
        8
 66
     7
 43
1.0
 76
     1
 77
     6
 78
     2
 67
     7
 79
     5
170
     0
171
     0
290
     0
174
     0
 93
        1
 44
-50.0
173
     0
291
     1
 45
0.0
1001
ACAD
1000
AcDbSavedByObjectVersion
1070
     0
  0
VISUALSTYLE
  5
39
102
{ACAD_REACTORS
330
2A
102
}
102
{ACAD_XDICTIONARY
360
631
102
}
330
2A
100
AcDbVisualStyle
  2
Facepattern
 70
    15
 71
     2
 72
     2
 73
     0
 90
        0
 40
0.6
 41
30.0
 62
     5
 63
     7
421
 16777215
 74
     1
 91
        4
 64
     7
 65
   257
 75
     1
175
     1
 42
1.0
 92
        8
 66
     7
 43
1.0
 76
     1
 77
     6
 78
     2
 67
     7
 79
     5
170
     0
171
     0
290
     0
174
     0
 93
        1
 44
0.0
173
     0
291
     1
 45
0.0
1001
ACAD
1000
AcDbSavedByObjectVersion
1070
     0
  0
VISUALSTYLE
  5
2B
102
{ACAD_REACTORS
330
2A
102
}
102
{ACAD_XDICTIONARY
360
615
102
}
330
2A
100
AcDbVisualStyle
  2
Flat
 70
     0
 71
     2
 72
     1
 73
     1
 90
        2
 40
0.6
 41
30.0
 62
     5
 63
     7
421
 16777215
 74
     0
 91
        4
 64
     7
 65
   257
 75
     1
175
     1
 42
1.0
 92
        8
 66
     7
 43
1.0
 76
     1
 77
     6
 78
     2
 67
     7
 79
     5
170
     0
171
     0
290
     0
174
     0
 93
       13
 44
0.0
173
     0
291
     1
 45
0.0
1001
ACAD
1000
AcDbSavedByObjectVersion
1070
     0
  0
VISUALSTYLE
  5
2C
102
{ACAD_REACTORS
330
2A
102
}
102
{ACAD_XDICTIONARY
360
617
102
}
330
2A
100
AcDbVisualStyle
  2
FlatWithEdges
 70
     1
 71
     2
 72
     1
 73
     1
 90
        2
 40
0.6
 41
30.0
 62
     5
 63
     7
421
 16777215
 74
     1
 91
        4
 64
     7
 65
   257
 75
     1
175
     1
 42
1.0
 92
        0
 66
   257
 43
1.0
 76
     1
 77
     6
 78
     2
 67
     7
 79
     5
170
     0
171
     0
290
     0
174
     0
 93
       13
 44
0.0
173
     0
291
     1
 45
0.0
1001
ACAD
1000
AcDbSavedByObjectVersion
1070
     0
  0
VISUALSTYLE
  5
2D
102
{ACAD_REACTORS
330
2A
102
}
102
{ACAD_XDICTIONARY
360
619
102
}
330
2A
100
AcDbVisualStyle
  2
Gouraud
 70
     2
 71
     2
 72
     2
 73
     1
 90
        2
 40
0.6
 41
30.0
 62
     5
 63
     7
421
 16777215
 74
     0
 91
        4
 64
     7
 65
   257
 75
     1
175
     1
 42
1.0
 92
        0
 66
     7
 43
1.0
 76
     1
 77
     6
 78
     2
 67
     7
 79
     5
170
     0
171
     0
290
     0
174
     0
 93
       13
 44
0.0
173
     0
291
     1
 45
0.0
1001
ACAD
1000
AcDbSavedByObjectVersion
1070
     0
  0
VISUALSTYLE
  5
2E
102
{ACAD_REACTORS
330
2A
102
}
102
{ACAD_XDICTIONARY
360
61B
102
}
330
2A
100
AcDbVisualStyle
  2
GouraudWithEdges
 70
     3
 71
     2
 72
     2
 73
     1
 90
        2
 40
0.6
 41
30.0
 62
     5
 63
     7
421
 16777215
 74
     1
 91
        4
 64
     7
 65
   257
 75
     1
175
     1
 42
1.0
 92
        0
 66
   257
 43
1.0
 76
     1
 77
     6
 78
     2
 67
     7
 79
     5
170
     0
171
     0
290
     0
174
     0
 93
       13
 44
0.0
173
     0
291
     1
 45
0.0
1001
ACAD
1000
AcDbSavedByObjectVersion
1070
     0
  0
VISUALSTYLE
  5
38
102
{ACAD_REACTORS
330
2A
102
}
102
{ACAD_XDICTIONARY
360
62F
102
}
330
2A
100
AcDbVisualStyle
  2
Linepattern
 70
    14
 71
     2
 72
     2
 73
     0
 90
        0
 40
0.6
 41
30.0
 62
     5
 63
     7
421
 16777215
 74
     1
 91
        4
 64
     7
 65
   257
 75
     7
175
     7
 42
1.0
 92
        8
 66
     7
 43
1.0
 76
     1
 77
     6
 78
     2
 67
     7
 79
     5
170
     0
171
     0
290
     0
174
     0
 93
        1
 44
0.0
173
     0
291
     1
 45
0.0
1001
ACAD
1000
AcDbSavedByObjectVersion
1070
     0
  0
VISUALSTYLE
  5
33
102
{ACAD_REACTORS
330
2A
102
}
102
{ACAD_XDICTIONARY
360
625
102
}
330
2A
100
AcDbVisualStyle
  2
Realistic
 70
     8
 71
     2
 72
     3
 73
     0
 90
        2
 40
0.6
 41
30.0
 62
     5
 63
     7
421
 16777215
 74
     0
 91
        0
 64
     7
 65
   257
 75
     1
175
     1
 42
1.0
 92
        8
 66
   257
 43
1.0
 76
     1
 77
     6
 78
     2
 67
     7
 79
     3
170
     0
171
     0
290
     0
174
     0
 93
       13
 44
0.0
173
     0
291
     0
 45
0.0
1001
ACAD
1000
AcDbSavedByObjectVersion
1070
     0
  0
VISUALSTYLE
  5
37
102
{ACAD_REACTORS
330
2A
102
}
102
{ACAD_XDICTIONARY
360
62D
102
}
330
2A
100
AcDbVisualStyle
  2
Thicken
 70
    13
 71
     2
 72
     2
 73
     0
 90
        0
 40
0.6
 41
30.0
 62
     5
 63
     7
421
 16777215
 74
     1
 91
        4
 64
     7
 65
   257
 75
     1
175
     1
 42
1.0
 92
       12
 66
     7
 43
1.0
 76
     1
 77
     6
 78
     2
 67
     7
 79
     5
170
     0
171
     0
290
     0
174
     0
 93
        1
 44
0.0
173
     0
291
     1
 45
0.0
1001
ACAD
1000
AcDbSavedByObjectVersion
1070
     0
  0
DICTIONARYVAR
  5
613
102
{ACAD_REACTORS
330
612
102
}
330
612
100
DictionaryVariables
280
     0
  1
1:1
  0
DICTIONARYVAR
  5
614
102
{ACAD_REACTORS
330
612
102
}
330
612
100
DictionaryVariables
280
     0
  1
1
  0
DICTIONARY
  5
637
330
3D
100
AcDbDictionary
280
     1
281
     1
  3
ACAD_XREC_ROUNDTRIP
360
638
  0
DICTIONARY
  5
635
330
3C
100
AcDbDictionary
280
     1
281
     1
  3
ACAD_XREC_ROUNDTRIP
360
636
  0
DICTIONARY
  5
639
330
3E
100
AcDbDictionary
280
     1
281
     1
  3
ACAD_XREC_ROUNDTRIP
360
63A
  0
DICTIONARY
  5
61D
330
2F
100
AcDbDictionary
280
     1
281
     1
  3
ACAD_XREC_ROUNDTRIP
360
61E
  0
DICTIONARY
  5
621
330
31
100
AcDbDictionary
280
     1
281
     1
  3
ACAD_XREC_ROUNDTRIP
360
622
  0
DICTIONARY
  5
61F
330
30
100
AcDbDictionary
280
     1
281
     1
  3
ACAD_XREC_ROUNDTRIP
360
620
  0
DICTIONARY
  5
623
330
32
100
AcDbDictionary
280
     1
281
     1
  3
ACAD_XREC_ROUNDTRIP
360
624
  0
DICTIONARY
  5
62B
330
36
100
AcDbDictionary
280
     1
281
     1
  3
ACAD_XREC_ROUNDTRIP
360
62C
  0
DICTIONARY
  5
633
330
3A
100
AcDbDictionary
280
     1
281
     1
  3
ACAD_XREC_ROUNDTRIP
360
634
  0
DICTIONARY
  5
627
330
34
100
AcDbDictionary
280
     1
281
     1
  3
ACAD_XREC_ROUNDTRIP
360
628
  0
DICTIONARY
  5
629
330
35
100
AcDbDictionary
280
     1
281
     1
  3
ACAD_XREC_ROUNDTRIP
360
62A
  0
DICTIONARY
  5
631
330
39
100
AcDbDictionary
280
     1
281
     1
  3
ACAD_XREC_ROUNDTRIP
360
632
  0
DICTIONARY
  5
615
330
2B
100
AcDbDictionary
280
     1
281
     1
  3
ACAD_XREC_ROUNDTRIP
360
616
  0
DICTIONARY
  5
617
330
2C
100
AcDbDictionary
280
     1
281
     1
  3
ACAD_XREC_ROUNDTRIP
360
618
  0
DICTIONARY
  5
619
330
2D
100
AcDbDictionary
280
     1
281
     1
  3
ACAD_XREC_ROUNDTRIP
360
61A
  0
DICTIONARY
  5
61B
330
2E
100
AcDbDictionary
280
     1
281
     1
  3
ACAD_XREC_ROUNDTRIP
360
61C
  0
DICTIONARY
  5
62F
330
38
100
AcDbDictionary
280
     1
281
     1
  3
ACAD_XREC_ROUNDTRIP
360
630
  0
DICTIONARY
  5
625
330
33
100
AcDbDictionary
280
     1
281
     1
  3
ACAD_XREC_ROUNDTRIP
360
626
  0
DICTIONARY
  5
62D
330
37
100
AcDbDictionary
280
     1
281
     1
  3
ACAD_XREC_ROUNDTRIP
360
62E
  0
XRECORD
  5
638
102
{ACAD_REACTORS
330
637
102
}
330
637
100
AcDbXrecord
280
     1
102
MATERIAL
148
0.0
149
0.0
149
0.0
 93
        0
 94
      127
282
     0
 72
     1
 77
     1
171
     1
175
     1
179
     1
273
     0
  0
XRECORD
  5
636
102
{ACAD_REACTORS
330
635
102
}
330
635
100
AcDbXrecord
280
     1
102
MATERIAL
148
0.0
149
0.0
149
0.0
 93
        0
 94
      127
282
     0
 72
     1
 77
     1
171
     1
175
     1
179
     1
273
     0
  0
XRECORD
  5
63A
102
{ACAD_REACTORS
330
639
102
}
330
639
100
AcDbXrecord
280
     1
102
MATERIAL
148
0.0
149
0.0
149
0.0
 93
        0
 94
      127
282
     0
 72
     1
 77
     1
171
     1
175
     1
179
     1
273
     0
  0
XRECORD
  5
61E
102
{ACAD_REACTORS
330
61D
102
}
330
61D
100
AcDbXrecord
280
     1
102
RTVSPropertyOp0
 70
     1
102
RTVSPropertyOp1
 70
     1
102
RTVSPropertyOp2
 70
     1
102
RTVSPropertyOp3
 70
     1
102
RTVSPropertyOp4
 70
     1
102
RTVSPropertyOp5
 70
     1
102
RTVSPropertyOp6
 70
     1
102
RTVSPropertyOp7
 70
     1
102
RTVSPropertyOp8
 70
     1
102
RTVSPropertyOp9
 70
     1
102
RTVSPropertyOp10
 70
     1
102
RTVSPropertyOp11
 70
     1
102
RTVSPropertyOp12
 70
     1
102
RTVSPropertyOp13
 70
     1
102
RTVSPropertyOp14
 70
     1
102
RTVSPropertyOp15
 70
     1
102
RTVSPropertyOp16
 70
     1
102
RTVSPropertyOp17
 70
     1
102
RTVSPropertyOp18
 70
     1
102
RTVSPropertyOp19
 70
     1
102
RTVSPropertyOp20
 70
     1
102
RTVSPropertyOp21
 70
     1
102
RTVSPropertyOp22
 70
     1
102
RTVSPropertyOp23
 70
     1
102
RTVSPropertyOp24
 70
     1
102
RTVSPropertyOp25
 70
     1
102
RTVSPropertyOp26
 70
     1
102
RTVSPropertyOp27
 70
     1
102
RTVSPropertyOp28
 70
     1
102
RTVSPropertyOp29
 70
     1
102
RTVSPropertyOp30
 70
     1
102
RTVSPropertyOp31
 70
     1
102
RTVSPropertyOp32
 70
     1
102
RTVSPropertyOp33
 70
     1
102
RTVSPropertyOp34
 70
     1
102
RTVSPropertyOp35
 70
     1
102
RTVSPropertyOp36
 70
     1
102
RTVSPropertyOp37
 70
     1
102
RTVSPropertyOp38
 70
     1
102
RTVSPropertyOp39
 70
     1
102
RTVSPropertyOp40
 70
     1
102
RTVSPropertyOp41
 70
     1
102
RTVSPropertyOp42
 70
     1
102
RTVSPropertyOp43
 70
     1
102
RTVSPropertyOp44
 70
     1
102
RTVSPropertyOp45
 70
     1
102
RTVSPropertyOp46
 70
     1
102
RTVSPropertyOp47
 70
     1
102
RTVSPropertyOp48
 70
     1
102
RTVSPropertyOp49
 70
     1
102
RTVSPropertyOp50
 70
     1
102
RTVSPropertyOp51
 70
     0
102
RTVSPropertyOp52
 70
     0
102
RTVSPropertyOp53
 70
     1
102
RTVSPropertyOp54
 70
     1
102
RTVSPropertyOp55
 70
     1
102
RTVSPropertyOp56
 70
     1
102
RTVSPropertyOp57
 70
     1
102
RTVSPost2010Prop28
280
     1
102
RTVSPost2010PropOp28
 70
     1
102
RTVSPost2010Prop29
280
     1
102
RTVSPost2010PropOp29
 70
     1
102
RTVSPost2010Prop30
280
     0
102
RTVSPost2010PropOp30
 70
     1
102
RTVSPost2010Prop31
280
     0
102
RTVSPost2010PropOp31
 70
     1
102
RTVSPost2010Prop32
280
     0
102
RTVSPost2010PropOp32
 70
     1
102
RTVSPost2010Prop33
280
     0
102
RTVSPost2010PropOp33
 70
     1
102
RTVSPost2010Prop34
280
     0
102
RTVSPost2010PropOp34
 70
     1
102
RTVSPost2010Prop35
280
     0
102
RTVSPost2010PropOp35
 70
     1
102
RTVSPost2010Prop36
280
     0
102
RTVSPost2010PropOp36
 70
     1
102
RTVSPost2010Prop37
 90
       50
102
RTVSPost2010PropOp37
 70
     1
102
RTVSPost2010Prop38
140
0.0
102
RTVSPost2010PropOp38
 70
     1
102
RTVSPost2010Prop39
140
1.0
102
RTVSPost2010PropOp39
 70
     1
102
RTVSPost2010Prop40
 90
        0
102
RTVSPost2010PropOp40
 70
     1
102
RTVSPost2010Prop41ColorIndex
 90
       18
102
RTVSPost2010Prop41ColorRGB
 90
        0
102
RTVSPost2010PropOp41
 70
     1
102
RTVSPost2010Prop42
 90
       50
102
RTVSPost2010PropOp42
 70
     1
102
RTVSPost2010Prop43
 90
        3
102
RTVSPost2010PropOp43
 70
     1
102
RTVSPost2010Prop44ColorIndex
 90
        5
102
RTVSPost2010Prop44ColorRGB
 90
      255
102
RTVSPost2010PropOp44
 70
     1
102
RTVSPost2010Prop45
280
     0
102
RTVSPost2010PropOp45
 70
     1
102
RTVSPost2010Prop46
 90
       50
102
RTVSPost2010PropOp46
 70
     1
102
RTVSPost2010Prop47
 90
       50
102
RTVSPost2010PropOp47
 70
     1
102
RTVSPost2010Prop48
 90
       50
102
RTVSPost2010PropOp48
 70
     1
102
RTVSPost2010Prop49
280
     0
102
RTVSPost2010PropOp49
 70
     1
102
RTVSPost2010Prop50
 90
       50
102
RTVSPost2010PropOp50
 70
     1
102
RTVSPost2010Prop51ColorIndex
 90
      256
102
RTVSPost2010Prop51ColorRGB
 90
-16777216
102
RTVSPost2010PropOp51
 70
     0
102
RTVSPost2010Prop52
140
1.0
102
RTVSPost2010PropOp52
 70
     0
102
RTVSPost2010Prop53
 90
        2
102
RTVSPost2010PropOp53
 70
     1
102
RTVSPost2010Prop54
  1
strokes_ogs.tif
102
RTVSPost2010PropOp54
 70
     1
102
RTVSPost2010Prop55
280
     0
102
RTVSPost2010PropOp55
 70
     1
102
RTVSPost2010Prop56
140
1.0
102
RTVSPost2010PropOp56
 70
     1
102
RTVSPost2010Prop57
140
1.0
102
RTVSPost2010PropOp57
 70
     1
  0
XRECORD
  5
622
102
{ACAD_REACTORS
330
621
102
}
330
621
100
AcDbXrecord
280
     1
102
RTVSPropertyOp0
 70
     1
102
RTVSPropertyOp1
 70
     1
102
RTVSPropertyOp2
 70
     1
102
RTVSPropertyOp3
 70
     1
102
RTVSPropertyOp4
 70
     1
102
RTVSPropertyOp5
 70
     1
102
RTVSPropertyOp6
 70
     1
102
RTVSPropertyOp7
 70
     1
102
RTVSPropertyOp8
 70
     1
102
RTVSPropertyOp9
 70
     1
102
RTVSPropertyOp10
 70
     1
102
RTVSPropertyOp11
 70
     1
102
RTVSPropertyOp12
 70
     1
102
RTVSPropertyOp13
 70
     1
102
RTVSPropertyOp14
 70
     1
102
RTVSPropertyOp15
 70
     1
102
RTVSPropertyOp16
 70
     1
102
RTVSPropertyOp17
 70
     1
102
RTVSPropertyOp18
 70
     1
102
RTVSPropertyOp19
 70
     1
102
RTVSPropertyOp20
 70
     1
102
RTVSPropertyOp21
 70
     1
102
RTVSPropertyOp22
 70
     1
102
RTVSPropertyOp23
 70
     1
102
RTVSPropertyOp24
 70
     1
102
RTVSPropertyOp25
 70
     1
102
RTVSPropertyOp26
 70
     1
102
RTVSPropertyOp27
 70
     1
102
RTVSPropertyOp28
 70
     1
102
RTVSPropertyOp29
 70
     1
102
RTVSPropertyOp30
 70
     1
102
RTVSPropertyOp31
 70
     1
102
RTVSPropertyOp32
 70
     1
102
RTVSPropertyOp33
 70
     1
102
RTVSPropertyOp34
 70
     1
102
RTVSPropertyOp35
 70
     1
102
RTVSPropertyOp36
 70
     1
102
RTVSPropertyOp37
 70
     1
102
RTVSPropertyOp38
 70
     1
102
RTVSPropertyOp39
 70
     1
102
RTVSPropertyOp40
 70
     1
102
RTVSPropertyOp41
 70
     1
102
RTVSPropertyOp42
 70
     1
102
RTVSPropertyOp43
 70
     1
102
RTVSPropertyOp44
 70
     1
102
RTVSPropertyOp45
 70
     1
102
RTVSPropertyOp46
 70
     1
102
RTVSPropertyOp47
 70
     1
102
RTVSPropertyOp48
 70
     1
102
RTVSPropertyOp49
 70
     1
102
RTVSPropertyOp50
 70
     1
102
RTVSPropertyOp51
 70
     0
102
RTVSPropertyOp52
 70
     0
102
RTVSPropertyOp53
 70
     1
102
RTVSPropertyOp54
 70
     1
102
RTVSPropertyOp55
 70
     1
102
RTVSPropertyOp56
 70
     1
102
RTVSPropertyOp57
 70
     1
102
RTVSPost2010Prop28
280
     0
102
RTVSPost2010PropOp28
 70
     1
102
RTVSPost2010Prop29
280
     1
102
RTVSPost2010PropOp29
 70
     1
102
RTVSPost2010Prop30
280
     1
102
RTVSPost2010PropOp30
 70
     1
102
RTVSPost2010Prop31
280
     0
102
RTVSPost2010PropOp31
 70
     1
102
RTVSPost2010Prop32
280
     0
102
RTVSPost2010PropOp32
 70
     1
102
RTVSPost2010Prop33
280
     0
102
RTVSPost2010PropOp33
 70
     1
102
RTVSPost2010Prop34
280
     0
102
RTVSPost2010PropOp34
 70
     1
102
RTVSPost2010Prop35
280
     0
102
RTVSPost2010PropOp35
 70
     1
102
RTVSPost2010Prop36
280
     0
102
RTVSPost2010PropOp36
 70
     1
102
RTVSPost2010Prop37
 90
       50
102
RTVSPost2010PropOp37
 70
     1
102
RTVSPost2010Prop38
140
0.0
102
RTVSPost2010PropOp38
 70
     1
102
RTVSPost2010Prop39
140
1.0
102
RTVSPost2010PropOp39
 70
     1
102
RTVSPost2010Prop40
 90
        0
102
RTVSPost2010PropOp40
 70
     1
102
RTVSPost2010Prop41ColorIndex
 90
       18
102
RTVSPost2010Prop41ColorRGB
 90
        0
102
RTVSPost2010PropOp41
 70
     1
102
RTVSPost2010Prop42
 90
       50
102
RTVSPost2010PropOp42
 70
     1
102
RTVSPost2010Prop43
 90
        3
102
RTVSPost2010PropOp43
 70
     1
102
RTVSPost2010Prop44ColorIndex
 90
        5
102
RTVSPost2010Prop44ColorRGB
 90
      255
102
RTVSPost2010PropOp44
 70
     1
102
RTVSPost2010Prop45
280
     0
102
RTVSPost2010PropOp45
 70
     1
102
RTVSPost2010Prop46
 90
       50
102
RTVSPost2010PropOp46
 70
     1
102
RTVSPost2010Prop47
 90
       50
102
RTVSPost2010PropOp47
 70
     1
102
RTVSPost2010Prop48
 90
       50
102
RTVSPost2010PropOp48
 70
     1
102
RTVSPost2010Prop49
280
     0
102
RTVSPost2010PropOp49
 70
     1
102
RTVSPost2010Prop50
 90
       50
102
RTVSPost2010PropOp50
 70
     1
102
RTVSPost2010Prop51ColorIndex
 90
      256
102
RTVSPost2010Prop51ColorRGB
 90
-16777216
102
RTVSPost2010PropOp51
 70
     0
102
RTVSPost2010Prop52
140
1.0
102
RTVSPost2010PropOp52
 70
     0
102
RTVSPost2010Prop53
 90
        2
102
RTVSPost2010PropOp53
 70
     1
102
RTVSPost2010Prop54
  1
strokes_ogs.tif
102
RTVSPost2010PropOp54
 70
     1
102
RTVSPost2010Prop55
280
     0
102
RTVSPost2010PropOp55
 70
     1
102
RTVSPost2010Prop56
140
1.0
102
RTVSPost2010PropOp56
 70
     1
102
RTVSPost2010Prop57
140
1.0
102
RTVSPost2010PropOp57
 70
     1
  0
XRECORD
  5
620
102
{ACAD_REACTORS
330
61F
102
}
330
61F
100
AcDbXrecord
280
     1
102
RTVSPropertyOp0
 70
     1
102
RTVSPropertyOp1
 70
     1
102
RTVSPropertyOp2
 70
     1
102
RTVSPropertyOp3
 70
     1
102
RTVSPropertyOp4
 70
     1
102
RTVSPropertyOp5
 70
     1
102
RTVSPropertyOp6
 70
     1
102
RTVSPropertyOp7
 70
     1
102
RTVSPropertyOp8
 70
     1
102
RTVSPropertyOp9
 70
     1
102
RTVSPropertyOp10
 70
     1
102
RTVSPropertyOp11
 70
     1
102
RTVSPropertyOp12
 70
     1
102
RTVSPropertyOp13
 70
     1
102
RTVSPropertyOp14
 70
     1
102
RTVSPropertyOp15
 70
     1
102
RTVSPropertyOp16
 70
     1
102
RTVSPropertyOp17
 70
     1
102
RTVSPropertyOp18
 70
     1
102
RTVSPropertyOp19
 70
     1
102
RTVSPropertyOp20
 70
     1
102
RTVSPropertyOp21
 70
     1
102
RTVSPropertyOp22
 70
     1
102
RTVSPropertyOp23
 70
     1
102
RTVSPropertyOp24
 70
     1
102
RTVSPropertyOp25
 70
     1
102
RTVSPropertyOp26
 70
     1
102
RTVSPropertyOp27
 70
     1
102
RTVSPropertyOp28
 70
     1
102
RTVSPropertyOp29
 70
     1
102
RTVSPropertyOp30
 70
     1
102
RTVSPropertyOp31
 70
     1
102
RTVSPropertyOp32
 70
     1
102
RTVSPropertyOp33
 70
     1
102
RTVSPropertyOp34
 70
     1
102
RTVSPropertyOp35
 70
     1
102
RTVSPropertyOp36
 70
     1
102
RTVSPropertyOp37
 70
     1
102
RTVSPropertyOp38
 70
     1
102
RTVSPropertyOp39
 70
     1
102
RTVSPropertyOp40
 70
     1
102
RTVSPropertyOp41
 70
     1
102
RTVSPropertyOp42
 70
     1
102
RTVSPropertyOp43
 70
     1
102
RTVSPropertyOp44
 70
     1
102
RTVSPropertyOp45
 70
     1
102
RTVSPropertyOp46
 70
     1
102
RTVSPropertyOp47
 70
     1
102
RTVSPropertyOp48
 70
     1
102
RTVSPropertyOp49
 70
     1
102
RTVSPropertyOp50
 70
     1
102
RTVSPropertyOp51
 70
     0
102
RTVSPropertyOp52
 70
     0
102
RTVSPropertyOp53
 70
     1
102
RTVSPropertyOp54
 70
     1
102
RTVSPropertyOp55
 70
     1
102
RTVSPropertyOp56
 70
     1
102
RTVSPropertyOp57
 70
     1
102
RTVSPost2010Prop28
280
     0
102
RTVSPost2010PropOp28
 70
     1
102
RTVSPost2010Prop29
280
     1
102
RTVSPost2010PropOp29
 70
     1
102
RTVSPost2010Prop30
280
     1
102
RTVSPost2010PropOp30
 70
     1
102
RTVSPost2010Prop31
280
     0
102
RTVSPost2010PropOp31
 70
     1
102
RTVSPost2010Prop32
280
     0
102
RTVSPost2010PropOp32
 70
     1
102
RTVSPost2010Prop33
280
     0
102
RTVSPost2010PropOp33
 70
     1
102
RTVSPost2010Prop34
280
     0
102
RTVSPost2010PropOp34
 70
     1
102
RTVSPost2010Prop35
280
     0
102
RTVSPost2010PropOp35
 70
     1
102
RTVSPost2010Prop36
280
     0
102
RTVSPost2010PropOp36
 70
     1
102
RTVSPost2010Prop37
 90
       50
102
RTVSPost2010PropOp37
 70
     1
102
RTVSPost2010Prop38
140
0.0
102
RTVSPost2010PropOp38
 70
     1
102
RTVSPost2010Prop39
140
1.0
102
RTVSPost2010PropOp39
 70
     1
102
RTVSPost2010Prop40
 90
        0
102
RTVSPost2010PropOp40
 70
     1
102
RTVSPost2010Prop41ColorIndex
 90
       18
102
RTVSPost2010Prop41ColorRGB
 90
        0
102
RTVSPost2010PropOp41
 70
     1
102
RTVSPost2010Prop42
 90
       50
102
RTVSPost2010PropOp42
 70
     1
102
RTVSPost2010Prop43
 90
        3
102
RTVSPost2010PropOp43
 70
     1
102
RTVSPost2010Prop44ColorIndex
 90
        5
102
RTVSPost2010Prop44ColorRGB
 90
      255
102
RTVSPost2010PropOp44
 70
     1
102
RTVSPost2010Prop45
280
     0
102
RTVSPost2010PropOp45
 70
     1
102
RTVSPost2010Prop46
 90
       50
102
RTVSPost2010PropOp46
 70
     1
102
RTVSPost2010Prop47
 90
       50
102
RTVSPost2010PropOp47
 70
     1
102
RTVSPost2010Prop48
 90
       50
102
RTVSPost2010PropOp48
 70
     1
102
RTVSPost2010Prop49
280
     0
102
RTVSPost2010PropOp49
 70
     1
102
RTVSPost2010Prop50
 90
       50
102
RTVSPost2010PropOp50
 70
     1
102
RTVSPost2010Prop51ColorIndex
 90
      256
102
RTVSPost2010Prop51ColorRGB
 90
-16777216
102
RTVSPost2010PropOp51
 70
     0
102
RTVSPost2010Prop52
140
1.0
102
RTVSPost2010PropOp52
 70
     0
102
RTVSPost2010Prop53
 90
        2
102
RTVSPost2010PropOp53
 70
     1
102
RTVSPost2010Prop54
  1
strokes_ogs.tif
102
RTVSPost2010PropOp54
 70
     1
102
RTVSPost2010Prop55
280
     0
102
RTVSPost2010PropOp55
 70
     1
102
RTVSPost2010Prop56
140
1.0
102
RTVSPost2010PropOp56
 70
     1
102
RTVSPost2010Prop57
140
1.0
102
RTVSPost2010PropOp57
 70
     1
  0
XRECORD
  5
624
102
{ACAD_REACTORS
330
623
102
}
330
623
100
AcDbXrecord
280
     1
102
RTVSPropertyOp0
 70
     1
102
RTVSPropertyOp1
 70
     1
102
RTVSPropertyOp2
 70
     1
102
RTVSPropertyOp3
 70
     1
102
RTVSPropertyOp4
 70
     1
102
RTVSPropertyOp5
 70
     1
102
RTVSPropertyOp6
 70
     1
102
RTVSPropertyOp7
 70
     1
102
RTVSPropertyOp8
 70
     1
102
RTVSPropertyOp9
 70
     1
102
RTVSPropertyOp10
 70
     1
102
RTVSPropertyOp11
 70
     1
102
RTVSPropertyOp12
 70
     1
102
RTVSPropertyOp13
 70
     1
102
RTVSPropertyOp14
 70
     1
102
RTVSPropertyOp15
 70
     1
102
RTVSPropertyOp16
 70
     1
102
RTVSPropertyOp17
 70
     1
102
RTVSPropertyOp18
 70
     1
102
RTVSPropertyOp19
 70
     1
102
RTVSPropertyOp20
 70
     1
102
RTVSPropertyOp21
 70
     1
102
RTVSPropertyOp22
 70
     1
102
RTVSPropertyOp23
 70
     1
102
RTVSPropertyOp24
 70
     1
102
RTVSPropertyOp25
 70
     1
102
RTVSPropertyOp26
 70
     1
102
RTVSPropertyOp27
 70
     1
102
RTVSPropertyOp28
 70
     1
102
RTVSPropertyOp29
 70
     1
102
RTVSPropertyOp30
 70
     1
102
RTVSPropertyOp31
 70
     1
102
RTVSPropertyOp32
 70
     1
102
RTVSPropertyOp33
 70
     1
102
RTVSPropertyOp34
 70
     1
102
RTVSPropertyOp35
 70
     1
102
RTVSPropertyOp36
 70
     1
102
RTVSPropertyOp37
 70
     1
102
RTVSPropertyOp38
 70
     1
102
RTVSPropertyOp39
 70
     1
102
RTVSPropertyOp40
 70
     1
102
RTVSPropertyOp41
 70
     1
102
RTVSPropertyOp42
 70
     1
102
RTVSPropertyOp43
 70
     1
102
RTVSPropertyOp44
 70
     1
102
RTVSPropertyOp45
 70
     1
102
RTVSPropertyOp46
 70
     1
102
RTVSPropertyOp47
 70
     1
102
RTVSPropertyOp48
 70
     1
102
RTVSPropertyOp49
 70
     1
102
RTVSPropertyOp50
 70
     1
102
RTVSPropertyOp51
 70
     0
102
RTVSPropertyOp52
 70
     0
102
RTVSPropertyOp53
 70
     1
102
RTVSPropertyOp54
 70
     1
102
RTVSPropertyOp55
 70
     1
102
RTVSPropertyOp56
 70
     1
102
RTVSPropertyOp57
 70
     1
102
RTVSPost2010Prop28
280
     0
102
RTVSPost2010PropOp28
 70
     1
102
RTVSPost2010Prop29
280
     1
102
RTVSPost2010PropOp29
 70
     1
102
RTVSPost2010Prop30
280
     1
102
RTVSPost2010PropOp30
 70
     1
102
RTVSPost2010Prop31
280
     0
102
RTVSPost2010PropOp31
 70
     1
102
RTVSPost2010Prop32
280
     0
102
RTVSPost2010PropOp32
 70
     1
102
RTVSPost2010Prop33
280
     0
102
RTVSPost2010PropOp33
 70
     1
102
RTVSPost2010Prop34
280
     0
102
RTVSPost2010PropOp34
 70
     1
102
RTVSPost2010Prop35
280
     0
102
RTVSPost2010PropOp35
 70
     1
102
RTVSPost2010Prop36
280
     0
102
RTVSPost2010PropOp36
 70
     1
102
RTVSPost2010Prop37
 90
       50
102
RTVSPost2010PropOp37
 70
     1
102
RTVSPost2010Prop38
140
0.0
102
RTVSPost2010PropOp38
 70
     1
102
RTVSPost2010Prop39
140
1.0
102
RTVSPost2010PropOp39
 70
     1
102
RTVSPost2010Prop40
 90
        0
102
RTVSPost2010PropOp40
 70
     1
102
RTVSPost2010Prop41ColorIndex
 90
       18
102
RTVSPost2010Prop41ColorRGB
 90
        0
102
RTVSPost2010PropOp41
 70
     1
102
RTVSPost2010Prop42
 90
       50
102
RTVSPost2010PropOp42
 70
     1
102
RTVSPost2010Prop43
 90
        3
102
RTVSPost2010PropOp43
 70
     1
102
RTVSPost2010Prop44ColorIndex
 90
        5
102
RTVSPost2010Prop44ColorRGB
 90
      255
102
RTVSPost2010PropOp44
 70
     1
102
RTVSPost2010Prop45
280
     0
102
RTVSPost2010PropOp45
 70
     1
102
RTVSPost2010Prop46
 90
       50
102
RTVSPost2010PropOp46
 70
     1
102
RTVSPost2010Prop47
 90
       50
102
RTVSPost2010PropOp47
 70
     1
102
RTVSPost2010Prop48
 90
       50
102
RTVSPost2010PropOp48
 70
     1
102
RTVSPost2010Prop49
280
     0
102
RTVSPost2010PropOp49
 70
     1
102
RTVSPost2010Prop50
 90
       50
102
RTVSPost2010PropOp50
 70
     1
102
RTVSPost2010Prop51ColorIndex
 90
      256
102
RTVSPost2010Prop51ColorRGB
 90
-16777216
102
RTVSPost2010PropOp51
 70
     0
102
RTVSPost2010Prop52
140
1.0
102
RTVSPost2010PropOp52
 70
     0
102
RTVSPost2010Prop53
 90
        2
102
RTVSPost2010PropOp53
 70
     1
102
RTVSPost2010Prop54
  1
strokes_ogs.tif
102
RTVSPost2010PropOp54
 70
     1
102
RTVSPost2010Prop55
280
     0
102
RTVSPost2010PropOp55
 70
     1
102
RTVSPost2010Prop56
140
1.0
102
RTVSPost2010PropOp56
 70
     1
102
RTVSPost2010Prop57
140
1.0
102
RTVSPost2010PropOp57
 70
     1
  0
XRECORD
  5
62C
102
{ACAD_REACTORS
330
62B
102
}
330
62B
100
AcDbXrecord
280
     1
102
RTVSPropertyOp0
 70
     1
102
RTVSPropertyOp1
 70
     1
102
RTVSPropertyOp2
 70
     1
102
RTVSPropertyOp3
 70
     1
102
RTVSPropertyOp4
 70
     1
102
RTVSPropertyOp5
 70
     1
102
RTVSPropertyOp6
 70
     1
102
RTVSPropertyOp7
 70
     1
102
RTVSPropertyOp8
 70
     1
102
RTVSPropertyOp9
 70
     1
102
RTVSPropertyOp10
 70
     1
102
RTVSPropertyOp11
 70
     1
102
RTVSPropertyOp12
 70
     1
102
RTVSPropertyOp13
 70
     1
102
RTVSPropertyOp14
 70
     1
102
RTVSPropertyOp15
 70
     1
102
RTVSPropertyOp16
 70
     1
102
RTVSPropertyOp17
 70
     1
102
RTVSPropertyOp18
 70
     1
102
RTVSPropertyOp19
 70
     1
102
RTVSPropertyOp20
 70
     1
102
RTVSPropertyOp21
 70
     1
102
RTVSPropertyOp22
 70
     1
102
RTVSPropertyOp23
 70
     1
102
RTVSPropertyOp24
 70
     1
102
RTVSPropertyOp25
 70
     1
102
RTVSPropertyOp26
 70
     1
102
RTVSPropertyOp27
 70
     1
102
RTVSPropertyOp28
 70
     1
102
RTVSPropertyOp29
 70
     1
102
RTVSPropertyOp30
 70
     1
102
RTVSPropertyOp31
 70
     1
102
RTVSPropertyOp32
 70
     1
102
RTVSPropertyOp33
 70
     1
102
RTVSPropertyOp34
 70
     1
102
RTVSPropertyOp35
 70
     1
102
RTVSPropertyOp36
 70
     1
102
RTVSPropertyOp37
 70
     1
102
RTVSPropertyOp38
 70
     1
102
RTVSPropertyOp39
 70
     1
102
RTVSPropertyOp40
 70
     1
102
RTVSPropertyOp41
 70
     1
102
RTVSPropertyOp42
 70
     1
102
RTVSPropertyOp43
 70
     1
102
RTVSPropertyOp44
 70
     1
102
RTVSPropertyOp45
 70
     1
102
RTVSPropertyOp46
 70
     1
102
RTVSPropertyOp47
 70
     1
102
RTVSPropertyOp48
 70
     1
102
RTVSPropertyOp49
 70
     1
102
RTVSPropertyOp50
 70
     1
102
RTVSPropertyOp51
 70
     0
102
RTVSPropertyOp52
 70
     0
102
RTVSPropertyOp53
 70
     1
102
RTVSPropertyOp54
 70
     1
102
RTVSPropertyOp55
 70
     1
102
RTVSPropertyOp56
 70
     1
102
RTVSPropertyOp57
 70
     1
102
RTVSPost2010Prop28
280
     0
102
RTVSPost2010PropOp28
 70
     1
102
RTVSPost2010Prop29
280
     1
102
RTVSPost2010PropOp29
 70
     1
102
RTVSPost2010Prop30
280
     1
102
RTVSPost2010PropOp30
 70
     1
102
RTVSPost2010Prop31
280
     0
102
RTVSPost2010PropOp31
 70
     1
102
RTVSPost2010Prop32
280
     0
102
RTVSPost2010PropOp32
 70
     1
102
RTVSPost2010Prop33
280
     0
102
RTVSPost2010PropOp33
 70
     1
102
RTVSPost2010Prop34
280
     0
102
RTVSPost2010PropOp34
 70
     1
102
RTVSPost2010Prop35
280
     0
102
RTVSPost2010PropOp35
 70
     1
102
RTVSPost2010Prop36
280
     0
102
RTVSPost2010PropOp36
 70
     1
102
RTVSPost2010Prop37
 90
       50
102
RTVSPost2010PropOp37
 70
     1
102
RTVSPost2010Prop38
140
0.0
102
RTVSPost2010PropOp38
 70
     1
102
RTVSPost2010Prop39
140
1.0
102
RTVSPost2010PropOp39
 70
     1
102
RTVSPost2010Prop40
 90
        0
102
RTVSPost2010PropOp40
 70
     1
102
RTVSPost2010Prop41ColorIndex
 90
       18
102
RTVSPost2010Prop41ColorRGB
 90
        0
102
RTVSPost2010PropOp41
 70
     1
102
RTVSPost2010Prop42
 90
       50
102
RTVSPost2010PropOp42
 70
     1
102
RTVSPost2010Prop43
 90
        3
102
RTVSPost2010PropOp43
 70
     1
102
RTVSPost2010Prop44ColorIndex
 90
        5
102
RTVSPost2010Prop44ColorRGB
 90
      255
102
RTVSPost2010PropOp44
 70
     1
102
RTVSPost2010Prop45
280
     0
102
RTVSPost2010PropOp45
 70
     1
102
RTVSPost2010Prop46
 90
       50
102
RTVSPost2010PropOp46
 70
     1
102
RTVSPost2010Prop47
 90
       50
102
RTVSPost2010PropOp47
 70
     1
102
RTVSPost2010Prop48
 90
       50
102
RTVSPost2010PropOp48
 70
     1
102
RTVSPost2010Prop49
280
     0
102
RTVSPost2010PropOp49
 70
     1
102
RTVSPost2010Prop50
 90
       50
102
RTVSPost2010PropOp50
 70
     1
102
RTVSPost2010Prop51ColorIndex
 90
      256
102
RTVSPost2010Prop51ColorRGB
 90
-16777216
102
RTVSPost2010PropOp51
 70
     0
102
RTVSPost2010Prop52
140
1.0
102
RTVSPost2010PropOp52
 70
     0
102
RTVSPost2010Prop53
 90
        2
102
RTVSPost2010PropOp53
 70
     1
102
RTVSPost2010Prop54
  1
strokes_ogs.tif
102
RTVSPost2010PropOp54
 70
     1
102
RTVSPost2010Prop55
280
     0
102
RTVSPost2010PropOp55
 70
     1
102
RTVSPost2010Prop56
140
1.0
102
RTVSPost2010PropOp56
 70
     1
102
RTVSPost2010Prop57
140
1.0
102
RTVSPost2010PropOp57
 70
     1
  0
XRECORD
  5
634
102
{ACAD_REACTORS
330
633
102
}
330
633
100
AcDbXrecord
280
     1
102
RTVSPropertyOp0
 70
     1
102
RTVSPropertyOp1
 70
     1
102
RTVSPropertyOp2
 70
     1
102
RTVSPropertyOp3
 70
     1
102
RTVSPropertyOp4
 70
     1
102
RTVSPropertyOp5
 70
     1
102
RTVSPropertyOp6
 70
     1
102
RTVSPropertyOp7
 70
     1
102
RTVSPropertyOp8
 70
     1
102
RTVSPropertyOp9
 70
     1
102
RTVSPropertyOp10
 70
     1
102
RTVSPropertyOp11
 70
     1
102
RTVSPropertyOp12
 70
     1
102
RTVSPropertyOp13
 70
     1
102
RTVSPropertyOp14
 70
     1
102
RTVSPropertyOp15
 70
     1
102
RTVSPropertyOp16
 70
     1
102
RTVSPropertyOp17
 70
     1
102
RTVSPropertyOp18
 70
     1
102
RTVSPropertyOp19
 70
     1
102
RTVSPropertyOp20
 70
     1
102
RTVSPropertyOp21
 70
     1
102
RTVSPropertyOp22
 70
     1
102
RTVSPropertyOp23
 70
     1
102
RTVSPropertyOp24
 70
     1
102
RTVSPropertyOp25
 70
     1
102
RTVSPropertyOp26
 70
     1
102
RTVSPropertyOp27
 70
     1
102
RTVSPropertyOp28
 70
     1
102
RTVSPropertyOp29
 70
     1
102
RTVSPropertyOp30
 70
     1
102
RTVSPropertyOp31
 70
     1
102
RTVSPropertyOp32
 70
     1
102
RTVSPropertyOp33
 70
     1
102
RTVSPropertyOp34
 70
     1
102
RTVSPropertyOp35
 70
     1
102
RTVSPropertyOp36
 70
     1
102
RTVSPropertyOp37
 70
     1
102
RTVSPropertyOp38
 70
     1
102
RTVSPropertyOp39
 70
     1
102
RTVSPropertyOp40
 70
     1
102
RTVSPropertyOp41
 70
     1
102
RTVSPropertyOp42
 70
     1
102
RTVSPropertyOp43
 70
     1
102
RTVSPropertyOp44
 70
     1
102
RTVSPropertyOp45
 70
     1
102
RTVSPropertyOp46
 70
     1
102
RTVSPropertyOp47
 70
     1
102
RTVSPropertyOp48
 70
     1
102
RTVSPropertyOp49
 70
     1
102
RTVSPropertyOp50
 70
     1
102
RTVSPropertyOp51
 70
     0
102
RTVSPropertyOp52
 70
     0
102
RTVSPropertyOp53
 70
     1
102
RTVSPropertyOp54
 70
     1
102
RTVSPropertyOp55
 70
     1
102
RTVSPropertyOp56
 70
     1
102
RTVSPropertyOp57
 70
     1
102
RTVSPost2010Prop28
280
     0
102
RTVSPost2010PropOp28
 70
     1
102
RTVSPost2010Prop29
280
     1
102
RTVSPost2010PropOp29
 70
     1
102
RTVSPost2010Prop30
280
     1
102
RTVSPost2010PropOp30
 70
     1
102
RTVSPost2010Prop31
280
     0
102
RTVSPost2010PropOp31
 70
     1
102
RTVSPost2010Prop32
280
     0
102
RTVSPost2010PropOp32
 70
     1
102
RTVSPost2010Prop33
280
     0
102
RTVSPost2010PropOp33
 70
     1
102
RTVSPost2010Prop34
280
     0
102
RTVSPost2010PropOp34
 70
     1
102
RTVSPost2010Prop35
280
     0
102
RTVSPost2010PropOp35
 70
     1
102
RTVSPost2010Prop36
280
     0
102
RTVSPost2010PropOp36
 70
     1
102
RTVSPost2010Prop37
 90
       50
102
RTVSPost2010PropOp37
 70
     1
102
RTVSPost2010Prop38
140
0.0
102
RTVSPost2010PropOp38
 70
     1
102
RTVSPost2010Prop39
140
1.0
102
RTVSPost2010PropOp39
 70
     1
102
RTVSPost2010Prop40
 90
        0
102
RTVSPost2010PropOp40
 70
     1
102
RTVSPost2010Prop41ColorIndex
 90
       18
102
RTVSPost2010Prop41ColorRGB
 90
        0
102
RTVSPost2010PropOp41
 70
     1
102
RTVSPost2010Prop42
 90
       50
102
RTVSPost2010PropOp42
 70
     1
102
RTVSPost2010Prop43
 90
        3
102
RTVSPost2010PropOp43
 70
     1
102
RTVSPost2010Prop44ColorIndex
 90
        5
102
RTVSPost2010Prop44ColorRGB
 90
      255
102
RTVSPost2010PropOp44
 70
     1
102
RTVSPost2010Prop45
280
     0
102
RTVSPost2010PropOp45
 70
     1
102
RTVSPost2010Prop46
 90
       50
102
RTVSPost2010PropOp46
 70
     1
102
RTVSPost2010Prop47
 90
       50
102
RTVSPost2010PropOp47
 70
     1
102
RTVSPost2010Prop48
 90
       50
102
RTVSPost2010PropOp48
 70
     1
102
RTVSPost2010Prop49
280
     0
102
RTVSPost2010PropOp49
 70
     1
102
RTVSPost2010Prop50
 90
       50
102
RTVSPost2010PropOp50
 70
     1
102
RTVSPost2010Prop51ColorIndex
 90
      256
102
RTVSPost2010Prop51ColorRGB
 90
-16777216
102
RTVSPost2010PropOp51
 70
     0
102
RTVSPost2010Prop52
140
1.0
102
RTVSPost2010PropOp52
 70
     0
102
RTVSPost2010Prop53
 90
        2
102
RTVSPost2010PropOp53
 70
     1
102
RTVSPost2010Prop54
  1
strokes_ogs.tif
102
RTVSPost2010PropOp54
 70
     1
102
RTVSPost2010Prop55
280
     0
102
RTVSPost2010PropOp55
 70
     1
102
RTVSPost2010Prop56
140
1.0
102
RTVSPost2010PropOp56
 70
     1
102
RTVSPost2010Prop57
140
1.0
102
RTVSPost2010PropOp57
 70
     1
  0
XRECORD
  5
628
102
{ACAD_REACTORS
330
627
102
}
330
627
100
AcDbXrecord
280
     1
102
RTVSPropertyOp0
 70
     1
102
RTVSPropertyOp1
 70
     1
102
RTVSPropertyOp2
 70
     1
102
RTVSPropertyOp3
 70
     1
102
RTVSPropertyOp4
 70
     1
102
RTVSPropertyOp5
 70
     1
102
RTVSPropertyOp6
 70
     1
102
RTVSPropertyOp7
 70
     1
102
RTVSPropertyOp8
 70
     1
102
RTVSPropertyOp9
 70
     1
102
RTVSPropertyOp10
 70
     1
102
RTVSPropertyOp11
 70
     1
102
RTVSPropertyOp12
 70
     1
102
RTVSPropertyOp13
 70
     1
102
RTVSPropertyOp14
 70
     1
102
RTVSPropertyOp15
 70
     1
102
RTVSPropertyOp16
 70
     1
102
RTVSPropertyOp17
 70
     1
102
RTVSPropertyOp18
 70
     1
102
RTVSPropertyOp19
 70
     1
102
RTVSPropertyOp20
 70
     1
102
RTVSPropertyOp21
 70
     1
102
RTVSPropertyOp22
 70
     1
102
RTVSPropertyOp23
 70
     1
102
RTVSPropertyOp24
 70
     1
102
RTVSPropertyOp25
 70
     1
102
RTVSPropertyOp26
 70
     1
102
RTVSPropertyOp27
 70
     1
102
RTVSPropertyOp28
 70
     1
102
RTVSPropertyOp29
 70
     1
102
RTVSPropertyOp30
 70
     1
102
RTVSPropertyOp31
 70
     1
102
RTVSPropertyOp32
 70
     1
102
RTVSPropertyOp33
 70
     1
102
RTVSPropertyOp34
 70
     1
102
RTVSPropertyOp35
 70
     1
102
RTVSPropertyOp36
 70
     1
102
RTVSPropertyOp37
 70
     1
102
RTVSPropertyOp38
 70
     1
102
RTVSPropertyOp39
 70
     1
102
RTVSPropertyOp40
 70
     1
102
RTVSPropertyOp41
 70
     1
102
RTVSPropertyOp42
 70
     1
102
RTVSPropertyOp43
 70
     1
102
RTVSPropertyOp44
 70
     1
102
RTVSPropertyOp45
 70
     1
102
RTVSPropertyOp46
 70
     1
102
RTVSPropertyOp47
 70
     1
102
RTVSPropertyOp48
 70
     1
102
RTVSPropertyOp49
 70
     1
102
RTVSPropertyOp50
 70
     1
102
RTVSPropertyOp51
 70
     0
102
RTVSPropertyOp52
 70
     0
102
RTVSPropertyOp53
 70
     1
102
RTVSPropertyOp54
 70
     1
102
RTVSPropertyOp55
 70
     1
102
RTVSPropertyOp56
 70
     1
102
RTVSPropertyOp57
 70
     1
102
RTVSPost2010Prop28
280
     0
102
RTVSPost2010PropOp28
 70
     1
102
RTVSPost2010Prop29
280
     1
102
RTVSPost2010PropOp29
 70
     1
102
RTVSPost2010Prop30
280
     1
102
RTVSPost2010PropOp30
 70
     1
102
RTVSPost2010Prop31
280
     0
102
RTVSPost2010PropOp31
 70
     1
102
RTVSPost2010Prop32
280
     0
102
RTVSPost2010PropOp32
 70
     1
102
RTVSPost2010Prop33
280
     0
102
RTVSPost2010PropOp33
 70
     1
102
RTVSPost2010Prop34
280
     0
102
RTVSPost2010PropOp34
 70
     1
102
RTVSPost2010Prop35
280
     0
102
RTVSPost2010PropOp35
 70
     1
102
RTVSPost2010Prop36
280
     0
102
RTVSPost2010PropOp36
 70
     1
102
RTVSPost2010Prop37
 90
       50
102
RTVSPost2010PropOp37
 70
     1
102
RTVSPost2010Prop38
140
0.0
102
RTVSPost2010PropOp38
 70
     1
102
RTVSPost2010Prop39
140
1.0
102
RTVSPost2010PropOp39
 70
     1
102
RTVSPost2010Prop40
 90
        0
102
RTVSPost2010PropOp40
 70
     1
102
RTVSPost2010Prop41ColorIndex
 90
       18
102
RTVSPost2010Prop41ColorRGB
 90
        0
102
RTVSPost2010PropOp41
 70
     1
102
RTVSPost2010Prop42
 90
       50
102
RTVSPost2010PropOp42
 70
     1
102
RTVSPost2010Prop43
 90
        3
102
RTVSPost2010PropOp43
 70
     1
102
RTVSPost2010Prop44ColorIndex
 90
        5
102
RTVSPost2010Prop44ColorRGB
 90
      255
102
RTVSPost2010PropOp44
 70
     1
102
RTVSPost2010Prop45
280
     0
102
RTVSPost2010PropOp45
 70
     1
102
RTVSPost2010Prop46
 90
       50
102
RTVSPost2010PropOp46
 70
     1
102
RTVSPost2010Prop47
 90
       50
102
RTVSPost2010PropOp47
 70
     1
102
RTVSPost2010Prop48
 90
       50
102
RTVSPost2010PropOp48
 70
     1
102
RTVSPost2010Prop49
280
     0
102
RTVSPost2010PropOp49
 70
     1
102
RTVSPost2010Prop50
 90
       50
102
RTVSPost2010PropOp50
 70
     1
102
RTVSPost2010Prop51ColorIndex
 90
      256
102
RTVSPost2010Prop51ColorRGB
 90
-16777216
102
RTVSPost2010PropOp51
 70
     0
102
RTVSPost2010Prop52
140
1.0
102
RTVSPost2010PropOp52
 70
     0
102
RTVSPost2010Prop53
 90
        2
102
RTVSPost2010PropOp53
 70
     1
102
RTVSPost2010Prop54
  1
strokes_ogs.tif
102
RTVSPost2010PropOp54
 70
     1
102
RTVSPost2010Prop55
280
     0
102
RTVSPost2010PropOp55
 70
     1
102
RTVSPost2010Prop56
140
1.0
102
RTVSPost2010PropOp56
 70
     1
102
RTVSPost2010Prop57
140
1.0
102
RTVSPost2010PropOp57
 70
     1
  0
XRECORD
  5
62A
102
{ACAD_REACTORS
330
629
102
}
330
629
100
AcDbXrecord
280
     1
102
RTVSPropertyOp0
 70
     1
102
RTVSPropertyOp1
 70
     1
102
RTVSPropertyOp2
 70
     1
102
RTVSPropertyOp3
 70
     1
102
RTVSPropertyOp4
 70
     1
102
RTVSPropertyOp5
 70
     1
102
RTVSPropertyOp6
 70
     1
102
RTVSPropertyOp7
 70
     1
102
RTVSPropertyOp8
 70
     1
102
RTVSPropertyOp9
 70
     1
102
RTVSPropertyOp10
 70
     1
102
RTVSPropertyOp11
 70
     1
102
RTVSPropertyOp12
 70
     1
102
RTVSPropertyOp13
 70
     1
102
RTVSPropertyOp14
 70
     1
102
RTVSPropertyOp15
 70
     1
102
RTVSPropertyOp16
 70
     1
102
RTVSPropertyOp17
 70
     1
102
RTVSPropertyOp18
 70
     1
102
RTVSPropertyOp19
 70
     1
102
RTVSPropertyOp20
 70
     1
102
RTVSPropertyOp21
 70
     1
102
RTVSPropertyOp22
 70
     1
102
RTVSPropertyOp23
 70
     1
102
RTVSPropertyOp24
 70
     1
102
RTVSPropertyOp25
 70
     1
102
RTVSPropertyOp26
 70
     1
102
RTVSPropertyOp27
 70
     1
102
RTVSPropertyOp28
 70
     1
102
RTVSPropertyOp29
 70
     1
102
RTVSPropertyOp30
 70
     1
102
RTVSPropertyOp31
 70
     1
102
RTVSPropertyOp32
 70
     1
102
RTVSPropertyOp33
 70
     1
102
RTVSPropertyOp34
 70
     1
102
RTVSPropertyOp35
 70
     1
102
RTVSPropertyOp36
 70
     1
102
RTVSPropertyOp37
 70
     1
102
RTVSPropertyOp38
 70
     1
102
RTVSPropertyOp39
 70
     1
102
RTVSPropertyOp40
 70
     1
102
RTVSPropertyOp41
 70
     1
102
RTVSPropertyOp42
 70
     1
102
RTVSPropertyOp43
 70
     1
102
RTVSPropertyOp44
 70
     1
102
RTVSPropertyOp45
 70
     1
102
RTVSPropertyOp46
 70
     1
102
RTVSPropertyOp47
 70
     1
102
RTVSPropertyOp48
 70
     1
102
RTVSPropertyOp49
 70
     1
102
RTVSPropertyOp50
 70
     1
102
RTVSPropertyOp51
 70
     0
102
RTVSPropertyOp52
 70
     0
102
RTVSPropertyOp53
 70
     1
102
RTVSPropertyOp54
 70
     1
102
RTVSPropertyOp55
 70
     1
102
RTVSPropertyOp56
 70
     1
102
RTVSPropertyOp57
 70
     1
102
RTVSPost2010Prop28
280
     0
102
RTVSPost2010PropOp28
 70
     1
102
RTVSPost2010Prop29
280
     1
102
RTVSPost2010PropOp29
 70
     1
102
RTVSPost2010Prop30
280
     1
102
RTVSPost2010PropOp30
 70
     1
102
RTVSPost2010Prop31
280
     0
102
RTVSPost2010PropOp31
 70
     1
102
RTVSPost2010Prop32
280
     0
102
RTVSPost2010PropOp32
 70
     1
102
RTVSPost2010Prop33
280
     0
102
RTVSPost2010PropOp33
 70
     1
102
RTVSPost2010Prop34
280
     0
102
RTVSPost2010PropOp34
 70
     1
102
RTVSPost2010Prop35
280
     0
102
RTVSPost2010PropOp35
 70
     1
102
RTVSPost2010Prop36
280
     0
102
RTVSPost2010PropOp36
 70
     1
102
RTVSPost2010Prop37
 90
       50
102
RTVSPost2010PropOp37
 70
     1
102
RTVSPost2010Prop38
140
0.0
102
RTVSPost2010PropOp38
 70
     1
102
RTVSPost2010Prop39
140
1.0
102
RTVSPost2010PropOp39
 70
     1
102
RTVSPost2010Prop40
 90
        0
102
RTVSPost2010PropOp40
 70
     1
102
RTVSPost2010Prop41ColorIndex
 90
       18
102
RTVSPost2010Prop41ColorRGB
 90
        0
102
RTVSPost2010PropOp41
 70
     1
102
RTVSPost2010Prop42
 90
       50
102
RTVSPost2010PropOp42
 70
     1
102
RTVSPost2010Prop43
 90
        3
102
RTVSPost2010PropOp43
 70
     1
102
RTVSPost2010Prop44ColorIndex
 90
        5
102
RTVSPost2010Prop44ColorRGB
 90
      255
102
RTVSPost2010PropOp44
 70
     1
102
RTVSPost2010Prop45
280
     0
102
RTVSPost2010PropOp45
 70
     1
102
RTVSPost2010Prop46
 90
       50
102
RTVSPost2010PropOp46
 70
     1
102
RTVSPost2010Prop47
 90
       50
102
RTVSPost2010PropOp47
 70
     1
102
RTVSPost2010Prop48
 90
       50
102
RTVSPost2010PropOp48
 70
     1
102
RTVSPost2010Prop49
280
     0
102
RTVSPost2010PropOp49
 70
     1
102
RTVSPost2010Prop50
 90
       50
102
RTVSPost2010PropOp50
 70
     1
102
RTVSPost2010Prop51ColorIndex
 90
      256
102
RTVSPost2010Prop51ColorRGB
 90
-16777216
102
RTVSPost2010PropOp51
 70
     0
102
RTVSPost2010Prop52
140
1.0
102
RTVSPost2010PropOp52
 70
     0
102
RTVSPost2010Prop53
 90
        2
102
RTVSPost2010PropOp53
 70
     1
102
RTVSPost2010Prop54
  1
strokes_ogs.tif
102
RTVSPost2010PropOp54
 70
     1
102
RTVSPost2010Prop55
280
     0
102
RTVSPost2010PropOp55
 70
     1
102
RTVSPost2010Prop56
140
1.0
102
RTVSPost2010PropOp56
 70
     1
102
RTVSPost2010Prop57
140
1.0
102
RTVSPost2010PropOp57
 70
     1
  0
XRECORD
  5
632
102
{ACAD_REACTORS
330
631
102
}
330
631
100
AcDbXrecord
280
     1
102
RTVSPropertyOp0
 70
     1
102
RTVSPropertyOp1
 70
     1
102
RTVSPropertyOp2
 70
     1
102
RTVSPropertyOp3
 70
     1
102
RTVSPropertyOp4
 70
     1
102
RTVSPropertyOp5
 70
     1
102
RTVSPropertyOp6
 70
     1
102
RTVSPropertyOp7
 70
     1
102
RTVSPropertyOp8
 70
     1
102
RTVSPropertyOp9
 70
     1
102
RTVSPropertyOp10
 70
     1
102
RTVSPropertyOp11
 70
     1
102
RTVSPropertyOp12
 70
     1
102
RTVSPropertyOp13
 70
     1
102
RTVSPropertyOp14
 70
     1
102
RTVSPropertyOp15
 70
     1
102
RTVSPropertyOp16
 70
     1
102
RTVSPropertyOp17
 70
     1
102
RTVSPropertyOp18
 70
     1
102
RTVSPropertyOp19
 70
     1
102
RTVSPropertyOp20
 70
     1
102
RTVSPropertyOp21
 70
     1
102
RTVSPropertyOp22
 70
     1
102
RTVSPropertyOp23
 70
     1
102
RTVSPropertyOp24
 70
     1
102
RTVSPropertyOp25
 70
     1
102
RTVSPropertyOp26
 70
     1
102
RTVSPropertyOp27
 70
     1
102
RTVSPropertyOp28
 70
     1
102
RTVSPropertyOp29
 70
     1
102
RTVSPropertyOp30
 70
     1
102
RTVSPropertyOp31
 70
     1
102
RTVSPropertyOp32
 70
     1
102
RTVSPropertyOp33
 70
     1
102
RTVSPropertyOp34
 70
     1
102
RTVSPropertyOp35
 70
     1
102
RTVSPropertyOp36
 70
     1
102
RTVSPropertyOp37
 70
     1
102
RTVSPropertyOp38
 70
     1
102
RTVSPropertyOp39
 70
     1
102
RTVSPropertyOp40
 70
     1
102
RTVSPropertyOp41
 70
     1
102
RTVSPropertyOp42
 70
     1
102
RTVSPropertyOp43
 70
     1
102
RTVSPropertyOp44
 70
     1
102
RTVSPropertyOp45
 70
     1
102
RTVSPropertyOp46
 70
     1
102
RTVSPropertyOp47
 70
     1
102
RTVSPropertyOp48
 70
     1
102
RTVSPropertyOp49
 70
     1
102
RTVSPropertyOp50
 70
     1
102
RTVSPropertyOp51
 70
     0
102
RTVSPropertyOp52
 70
     0
102
RTVSPropertyOp53
 70
     1
102
RTVSPropertyOp54
 70
     1
102
RTVSPropertyOp55
 70
     1
102
RTVSPropertyOp56
 70
     1
102
RTVSPropertyOp57
 70
     1
102
RTVSPost2010Prop28
280
     0
102
RTVSPost2010PropOp28
 70
     1
102
RTVSPost2010Prop29
280
     1
102
RTVSPost2010PropOp29
 70
     1
102
RTVSPost2010Prop30
280
     1
102
RTVSPost2010PropOp30
 70
     1
102
RTVSPost2010Prop31
280
     0
102
RTVSPost2010PropOp31
 70
     1
102
RTVSPost2010Prop32
280
     0
102
RTVSPost2010PropOp32
 70
     1
102
RTVSPost2010Prop33
280
     0
102
RTVSPost2010PropOp33
 70
     1
102
RTVSPost2010Prop34
280
     0
102
RTVSPost2010PropOp34
 70
     1
102
RTVSPost2010Prop35
280
     0
102
RTVSPost2010PropOp35
 70
     1
102
RTVSPost2010Prop36
280
     0
102
RTVSPost2010PropOp36
 70
     1
102
RTVSPost2010Prop37
 90
       50
102
RTVSPost2010PropOp37
 70
     1
102
RTVSPost2010Prop38
140
0.0
102
RTVSPost2010PropOp38
 70
     1
102
RTVSPost2010Prop39
140
1.0
102
RTVSPost2010PropOp39
 70
     1
102
RTVSPost2010Prop40
 90
        0
102
RTVSPost2010PropOp40
 70
     1
102
RTVSPost2010Prop41ColorIndex
 90
       18
102
RTVSPost2010Prop41ColorRGB
 90
        0
102
RTVSPost2010PropOp41
 70
     1
102
RTVSPost2010Prop42
 90
       50
102
RTVSPost2010PropOp42
 70
     1
102
RTVSPost2010Prop43
 90
        3
102
RTVSPost2010PropOp43
 70
     1
102
RTVSPost2010Prop44ColorIndex
 90
        5
102
RTVSPost2010Prop44ColorRGB
 90
      255
102
RTVSPost2010PropOp44
 70
     1
102
RTVSPost2010Prop45
280
     0
102
RTVSPost2010PropOp45
 70
     1
102
RTVSPost2010Prop46
 90
       50
102
RTVSPost2010PropOp46
 70
     1
102
RTVSPost2010Prop47
 90
       50
102
RTVSPost2010PropOp47
 70
     1
102
RTVSPost2010Prop48
 90
       50
102
RTVSPost2010PropOp48
 70
     1
102
RTVSPost2010Prop49
280
     0
102
RTVSPost2010PropOp49
 70
     1
102
RTVSPost2010Prop50
 90
       50
102
RTVSPost2010PropOp50
 70
     1
102
RTVSPost2010Prop51ColorIndex
 90
      256
102
RTVSPost2010Prop51ColorRGB
 90
-16777216
102
RTVSPost2010PropOp51
 70
     0
102
RTVSPost2010Prop52
140
1.0
102
RTVSPost2010PropOp52
 70
     0
102
RTVSPost2010Prop53
 90
        2
102
RTVSPost2010PropOp53
 70
     1
102
RTVSPost2010Prop54
  1
strokes_ogs.tif
102
RTVSPost2010PropOp54
 70
     1
102
RTVSPost2010Prop55
280
     0
102
RTVSPost2010PropOp55
 70
     1
102
RTVSPost2010Prop56
140
1.0
102
RTVSPost2010PropOp56
 70
     1
102
RTVSPost2010Prop57
140
1.0
102
RTVSPost2010PropOp57
 70
     1
  0
XRECORD
  5
616
102
{ACAD_REACTORS
330
615
102
}
330
615
100
AcDbXrecord
280
     1
102
RTVSPropertyOp0
 70
     1
102
RTVSPropertyOp1
 70
     1
102
RTVSPropertyOp2
 70
     1
102
RTVSPropertyOp3
 70
     1
102
RTVSPropertyOp4
 70
     1
102
RTVSPropertyOp5
 70
     1
102
RTVSPropertyOp6
 70
     1
102
RTVSPropertyOp7
 70
     1
102
RTVSPropertyOp8
 70
     1
102
RTVSPropertyOp9
 70
     1
102
RTVSPropertyOp10
 70
     1
102
RTVSPropertyOp11
 70
     1
102
RTVSPropertyOp12
 70
     1
102
RTVSPropertyOp13
 70
     1
102
RTVSPropertyOp14
 70
     1
102
RTVSPropertyOp15
 70
     1
102
RTVSPropertyOp16
 70
     1
102
RTVSPropertyOp17
 70
     1
102
RTVSPropertyOp18
 70
     1
102
RTVSPropertyOp19
 70
     1
102
RTVSPropertyOp20
 70
     1
102
RTVSPropertyOp21
 70
     1
102
RTVSPropertyOp22
 70
     1
102
RTVSPropertyOp23
 70
     1
102
RTVSPropertyOp24
 70
     1
102
RTVSPropertyOp25
 70
     1
102
RTVSPropertyOp26
 70
     1
102
RTVSPropertyOp27
 70
     1
102
RTVSPropertyOp28
 70
     1
102
RTVSPropertyOp29
 70
     1
102
RTVSPropertyOp30
 70
     1
102
RTVSPropertyOp31
 70
     1
102
RTVSPropertyOp32
 70
     1
102
RTVSPropertyOp33
 70
     1
102
RTVSPropertyOp34
 70
     1
102
RTVSPropertyOp35
 70
     1
102
RTVSPropertyOp36
 70
     1
102
RTVSPropertyOp37
 70
     1
102
RTVSPropertyOp38
 70
     1
102
RTVSPropertyOp39
 70
     1
102
RTVSPropertyOp40
 70
     1
102
RTVSPropertyOp41
 70
     1
102
RTVSPropertyOp42
 70
     1
102
RTVSPropertyOp43
 70
     1
102
RTVSPropertyOp44
 70
     1
102
RTVSPropertyOp45
 70
     1
102
RTVSPropertyOp46
 70
     1
102
RTVSPropertyOp47
 70
     1
102
RTVSPropertyOp48
 70
     1
102
RTVSPropertyOp49
 70
     1
102
RTVSPropertyOp50
 70
     1
102
RTVSPropertyOp51
 70
     0
102
RTVSPropertyOp52
 70
     0
102
RTVSPropertyOp53
 70
     1
102
RTVSPropertyOp54
 70
     1
102
RTVSPropertyOp55
 70
     1
102
RTVSPropertyOp56
 70
     1
102
RTVSPropertyOp57
 70
     1
102
RTVSPost2010Prop28
280
     0
102
RTVSPost2010PropOp28
 70
     1
102
RTVSPost2010Prop29
280
     1
102
RTVSPost2010PropOp29
 70
     1
102
RTVSPost2010Prop30
280
     1
102
RTVSPost2010PropOp30
 70
     1
102
RTVSPost2010Prop31
280
     0
102
RTVSPost2010PropOp31
 70
     1
102
RTVSPost2010Prop32
280
     0
102
RTVSPost2010PropOp32
 70
     1
102
RTVSPost2010Prop33
280
     0
102
RTVSPost2010PropOp33
 70
     1
102
RTVSPost2010Prop34
280
     0
102
RTVSPost2010PropOp34
 70
     1
102
RTVSPost2010Prop35
280
     0
102
RTVSPost2010PropOp35
 70
     1
102
RTVSPost2010Prop36
280
     0
102
RTVSPost2010PropOp36
 70
     1
102
RTVSPost2010Prop37
 90
       50
102
RTVSPost2010PropOp37
 70
     1
102
RTVSPost2010Prop38
140
0.0
102
RTVSPost2010PropOp38
 70
     1
102
RTVSPost2010Prop39
140
1.0
102
RTVSPost2010PropOp39
 70
     1
102
RTVSPost2010Prop40
 90
        0
102
RTVSPost2010PropOp40
 70
     1
102
RTVSPost2010Prop41ColorIndex
 90
       18
102
RTVSPost2010Prop41ColorRGB
 90
        0
102
RTVSPost2010PropOp41
 70
     1
102
RTVSPost2010Prop42
 90
       50
102
RTVSPost2010PropOp42
 70
     1
102
RTVSPost2010Prop43
 90
        3
102
RTVSPost2010PropOp43
 70
     1
102
RTVSPost2010Prop44ColorIndex
 90
        5
102
RTVSPost2010Prop44ColorRGB
 90
      255
102
RTVSPost2010PropOp44
 70
     1
102
RTVSPost2010Prop45
280
     0
102
RTVSPost2010PropOp45
 70
     1
102
RTVSPost2010Prop46
 90
       50
102
RTVSPost2010PropOp46
 70
     1
102
RTVSPost2010Prop47
 90
       50
102
RTVSPost2010PropOp47
 70
     1
102
RTVSPost2010Prop48
 90
       50
102
RTVSPost2010PropOp48
 70
     1
102
RTVSPost2010Prop49
280
     0
102
RTVSPost2010PropOp49
 70
     1
102
RTVSPost2010Prop50
 90
       50
102
RTVSPost2010PropOp50
 70
     1
102
RTVSPost2010Prop51ColorIndex
 90
      256
102
RTVSPost2010Prop51ColorRGB
 90
-16777216
102
RTVSPost2010PropOp51
 70
     0
102
RTVSPost2010Prop52
140
1.0
102
RTVSPost2010PropOp52
 70
     0
102
RTVSPost2010Prop53
 90
        2
102
RTVSPost2010PropOp53
 70
     1
102
RTVSPost2010Prop54
  1
strokes_ogs.tif
102
RTVSPost2010PropOp54
 70
     1
102
RTVSPost2010Prop55
280
     0
102
RTVSPost2010PropOp55
 70
     1
102
RTVSPost2010Prop56
140
1.0
102
RTVSPost2010PropOp56
 70
     1
102
RTVSPost2010Prop57
140
1.0
102
RTVSPost2010PropOp57
 70
     1
  0
XRECORD
  5
618
102
{ACAD_REACTORS
330
617
102
}
330
617
100
AcDbXrecord
280
     1
102
RTVSPropertyOp0
 70
     1
102
RTVSPropertyOp1
 70
     1
102
RTVSPropertyOp2
 70
     1
102
RTVSPropertyOp3
 70
     1
102
RTVSPropertyOp4
 70
     1
102
RTVSPropertyOp5
 70
     1
102
RTVSPropertyOp6
 70
     1
102
RTVSPropertyOp7
 70
     1
102
RTVSPropertyOp8
 70
     1
102
RTVSPropertyOp9
 70
     1
102
RTVSPropertyOp10
 70
     1
102
RTVSPropertyOp11
 70
     1
102
RTVSPropertyOp12
 70
     1
102
RTVSPropertyOp13
 70
     1
102
RTVSPropertyOp14
 70
     1
102
RTVSPropertyOp15
 70
     1
102
RTVSPropertyOp16
 70
     1
102
RTVSPropertyOp17
 70
     1
102
RTVSPropertyOp18
 70
     1
102
RTVSPropertyOp19
 70
     1
102
RTVSPropertyOp20
 70
     1
102
RTVSPropertyOp21
 70
     1
102
RTVSPropertyOp22
 70
     1
102
RTVSPropertyOp23
 70
     1
102
RTVSPropertyOp24
 70
     1
102
RTVSPropertyOp25
 70
     1
102
RTVSPropertyOp26
 70
     1
102
RTVSPropertyOp27
 70
     1
102
RTVSPropertyOp28
 70
     1
102
RTVSPropertyOp29
 70
     1
102
RTVSPropertyOp30
 70
     1
102
RTVSPropertyOp31
 70
     1
102
RTVSPropertyOp32
 70
     1
102
RTVSPropertyOp33
 70
     1
102
RTVSPropertyOp34
 70
     1
102
RTVSPropertyOp35
 70
     1
102
RTVSPropertyOp36
 70
     1
102
RTVSPropertyOp37
 70
     1
102
RTVSPropertyOp38
 70
     1
102
RTVSPropertyOp39
 70
     1
102
RTVSPropertyOp40
 70
     1
102
RTVSPropertyOp41
 70
     1
102
RTVSPropertyOp42
 70
     1
102
RTVSPropertyOp43
 70
     1
102
RTVSPropertyOp44
 70
     1
102
RTVSPropertyOp45
 70
     1
102
RTVSPropertyOp46
 70
     1
102
RTVSPropertyOp47
 70
     1
102
RTVSPropertyOp48
 70
     1
102
RTVSPropertyOp49
 70
     1
102
RTVSPropertyOp50
 70
     1
102
RTVSPropertyOp51
 70
     0
102
RTVSPropertyOp52
 70
     0
102
RTVSPropertyOp53
 70
     1
102
RTVSPropertyOp54
 70
     1
102
RTVSPropertyOp55
 70
     1
102
RTVSPropertyOp56
 70
     1
102
RTVSPropertyOp57
 70
     1
102
RTVSPost2010Prop28
280
     0
102
RTVSPost2010PropOp28
 70
     1
102
RTVSPost2010Prop29
280
     1
102
RTVSPost2010PropOp29
 70
     1
102
RTVSPost2010Prop30
280
     1
102
RTVSPost2010PropOp30
 70
     1
102
RTVSPost2010Prop31
280
     0
102
RTVSPost2010PropOp31
 70
     1
102
RTVSPost2010Prop32
280
     0
102
RTVSPost2010PropOp32
 70
     1
102
RTVSPost2010Prop33
280
     0
102
RTVSPost2010PropOp33
 70
     1
102
RTVSPost2010Prop34
280
     0
102
RTVSPost2010PropOp34
 70
     1
102
RTVSPost2010Prop35
280
     0
102
RTVSPost2010PropOp35
 70
     1
102
RTVSPost2010Prop36
280
     0
102
RTVSPost2010PropOp36
 70
     1
102
RTVSPost2010Prop37
 90
       50
102
RTVSPost2010PropOp37
 70
     1
102
RTVSPost2010Prop38
140
0.0
102
RTVSPost2010PropOp38
 70
     1
102
RTVSPost2010Prop39
140
1.0
102
RTVSPost2010PropOp39
 70
     1
102
RTVSPost2010Prop40
 90
        0
102
RTVSPost2010PropOp40
 70
     1
102
RTVSPost2010Prop41ColorIndex
 90
       18
102
RTVSPost2010Prop41ColorRGB
 90
        0
102
RTVSPost2010PropOp41
 70
     1
102
RTVSPost2010Prop42
 90
       50
102
RTVSPost2010PropOp42
 70
     1
102
RTVSPost2010Prop43
 90
        3
102
RTVSPost2010PropOp43
 70
     1
102
RTVSPost2010Prop44ColorIndex
 90
        5
102
RTVSPost2010Prop44ColorRGB
 90
      255
102
RTVSPost2010PropOp44
 70
     1
102
RTVSPost2010Prop45
280
     0
102
RTVSPost2010PropOp45
 70
     1
102
RTVSPost2010Prop46
 90
       50
102
RTVSPost2010PropOp46
 70
     1
102
RTVSPost2010Prop47
 90
       50
102
RTVSPost2010PropOp47
 70
     1
102
RTVSPost2010Prop48
 90
       50
102
RTVSPost2010PropOp48
 70
     1
102
RTVSPost2010Prop49
280
     0
102
RTVSPost2010PropOp49
 70
     1
102
RTVSPost2010Prop50
 90
       50
102
RTVSPost2010PropOp50
 70
     1
102
RTVSPost2010Prop51ColorIndex
 90
      256
102
RTVSPost2010Prop51ColorRGB
 90
-16777216
102
RTVSPost2010PropOp51
 70
     0
102
RTVSPost2010Prop52
140
1.0
102
RTVSPost2010PropOp52
 70
     0
102
RTVSPost2010Prop53
 90
        2
102
RTVSPost2010PropOp53
 70
     1
102
RTVSPost2010Prop54
  1
strokes_ogs.tif
102
RTVSPost2010PropOp54
 70
     1
102
RTVSPost2010Prop55
280
     0
102
RTVSPost2010PropOp55
 70
     1
102
RTVSPost2010Prop56
140
1.0
102
RTVSPost2010PropOp56
 70
     1
102
RTVSPost2010Prop57
140
1.0
102
RTVSPost2010PropOp57
 70
     1
  0
XRECORD
  5
61A
102
{ACAD_REACTORS
330
619
102
}
330
619
100
AcDbXrecord
280
     1
102
RTVSPropertyOp0
 70
     1
102
RTVSPropertyOp1
 70
     1
102
RTVSPropertyOp2
 70
     1
102
RTVSPropertyOp3
 70
     1
102
RTVSPropertyOp4
 70
     1
102
RTVSPropertyOp5
 70
     1
102
RTVSPropertyOp6
 70
     1
102
RTVSPropertyOp7
 70
     1
102
RTVSPropertyOp8
 70
     1
102
RTVSPropertyOp9
 70
     1
102
RTVSPropertyOp10
 70
     1
102
RTVSPropertyOp11
 70
     1
102
RTVSPropertyOp12
 70
     1
102
RTVSPropertyOp13
 70
     1
102
RTVSPropertyOp14
 70
     1
102
RTVSPropertyOp15
 70
     1
102
RTVSPropertyOp16
 70
     1
102
RTVSPropertyOp17
 70
     1
102
RTVSPropertyOp18
 70
     1
102
RTVSPropertyOp19
 70
     1
102
RTVSPropertyOp20
 70
     1
102
RTVSPropertyOp21
 70
     1
102
RTVSPropertyOp22
 70
     1
102
RTVSPropertyOp23
 70
     1
102
RTVSPropertyOp24
 70
     1
102
RTVSPropertyOp25
 70
     1
102
RTVSPropertyOp26
 70
     1
102
RTVSPropertyOp27
 70
     1
102
RTVSPropertyOp28
 70
     1
102
RTVSPropertyOp29
 70
     1
102
RTVSPropertyOp30
 70
     1
102
RTVSPropertyOp31
 70
     1
102
RTVSPropertyOp32
 70
     1
102
RTVSPropertyOp33
 70
     1
102
RTVSPropertyOp34
 70
     1
102
RTVSPropertyOp35
 70
     1
102
RTVSPropertyOp36
 70
     1
102
RTVSPropertyOp37
 70
     1
102
RTVSPropertyOp38
 70
     1
102
RTVSPropertyOp39
 70
     1
102
RTVSPropertyOp40
 70
     1
102
RTVSPropertyOp41
 70
     1
102
RTVSPropertyOp42
 70
     1
102
RTVSPropertyOp43
 70
     1
102
RTVSPropertyOp44
 70
     1
102
RTVSPropertyOp45
 70
     1
102
RTVSPropertyOp46
 70
     1
102
RTVSPropertyOp47
 70
     1
102
RTVSPropertyOp48
 70
     1
102
RTVSPropertyOp49
 70
     1
102
RTVSPropertyOp50
 70
     1
102
RTVSPropertyOp51
 70
     0
102
RTVSPropertyOp52
 70
     0
102
RTVSPropertyOp53
 70
     1
102
RTVSPropertyOp54
 70
     1
102
RTVSPropertyOp55
 70
     1
102
RTVSPropertyOp56
 70
     1
102
RTVSPropertyOp57
 70
     1
102
RTVSPost2010Prop28
280
     0
102
RTVSPost2010PropOp28
 70
     1
102
RTVSPost2010Prop29
280
     1
102
RTVSPost2010PropOp29
 70
     1
102
RTVSPost2010Prop30
280
     1
102
RTVSPost2010PropOp30
 70
     1
102
RTVSPost2010Prop31
280
     0
102
RTVSPost2010PropOp31
 70
     1
102
RTVSPost2010Prop32
280
     0
102
RTVSPost2010PropOp32
 70
     1
102
RTVSPost2010Prop33
280
     0
102
RTVSPost2010PropOp33
 70
     1
102
RTVSPost2010Prop34
280
     0
102
RTVSPost2010PropOp34
 70
     1
102
RTVSPost2010Prop35
280
     0
102
RTVSPost2010PropOp35
 70
     1
102
RTVSPost2010Prop36
280
     0
102
RTVSPost2010PropOp36
 70
     1
102
RTVSPost2010Prop37
 90
       50
102
RTVSPost2010PropOp37
 70
     1
102
RTVSPost2010Prop38
140
0.0
102
RTVSPost2010PropOp38
 70
     1
102
RTVSPost2010Prop39
140
1.0
102
RTVSPost2010PropOp39
 70
     1
102
RTVSPost2010Prop40
 90
        0
102
RTVSPost2010PropOp40
 70
     1
102
RTVSPost2010Prop41ColorIndex
 90
       18
102
RTVSPost2010Prop41ColorRGB
 90
        0
102
RTVSPost2010PropOp41
 70
     1
102
RTVSPost2010Prop42
 90
       50
102
RTVSPost2010PropOp42
 70
     1
102
RTVSPost2010Prop43
 90
        3
102
RTVSPost2010PropOp43
 70
     1
102
RTVSPost2010Prop44ColorIndex
 90
        5
102
RTVSPost2010Prop44ColorRGB
 90
      255
102
RTVSPost2010PropOp44
 70
     1
102
RTVSPost2010Prop45
280
     0
102
RTVSPost2010PropOp45
 70
     1
102
RTVSPost2010Prop46
 90
       50
102
RTVSPost2010PropOp46
 70
     1
102
RTVSPost2010Prop47
 90
       50
102
RTVSPost2010PropOp47
 70
     1
102
RTVSPost2010Prop48
 90
       50
102
RTVSPost2010PropOp48
 70
     1
102
RTVSPost2010Prop49
280
     0
102
RTVSPost2010PropOp49
 70
     1
102
RTVSPost2010Prop50
 90
       50
102
RTVSPost2010PropOp50
 70
     1
102
RTVSPost2010Prop51ColorIndex
 90
      256
102
RTVSPost2010Prop51ColorRGB
 90
-16777216
102
RTVSPost2010PropOp51
 70
     0
102
RTVSPost2010Prop52
140
1.0
102
RTVSPost2010PropOp52
 70
     0
102
RTVSPost2010Prop53
 90
        2
102
RTVSPost2010PropOp53
 70
     1
102
RTVSPost2010Prop54
  1
strokes_ogs.tif
102
RTVSPost2010PropOp54
 70
     1
102
RTVSPost2010Prop55
280
     0
102
RTVSPost2010PropOp55
 70
     1
102
RTVSPost2010Prop56
140
1.0
102
RTVSPost2010PropOp56
 70
     1
102
RTVSPost2010Prop57
140
1.0
102
RTVSPost2010PropOp57
 70
     1
  0
XRECORD
  5
61C
102
{ACAD_REACTORS
330
61B
102
}
330
61B
100
AcDbXrecord
280
     1
102
RTVSPropertyOp0
 70
     1
102
RTVSPropertyOp1
 70
     1
102
RTVSPropertyOp2
 70
     1
102
RTVSPropertyOp3
 70
     1
102
RTVSPropertyOp4
 70
     1
102
RTVSPropertyOp5
 70
     1
102
RTVSPropertyOp6
 70
     1
102
RTVSPropertyOp7
 70
     1
102
RTVSPropertyOp8
 70
     1
102
RTVSPropertyOp9
 70
     1
102
RTVSPropertyOp10
 70
     1
102
RTVSPropertyOp11
 70
     1
102
RTVSPropertyOp12
 70
     1
102
RTVSPropertyOp13
 70
     1
102
RTVSPropertyOp14
 70
     1
102
RTVSPropertyOp15
 70
     1
102
RTVSPropertyOp16
 70
     1
102
RTVSPropertyOp17
 70
     1
102
RTVSPropertyOp18
 70
     1
102
RTVSPropertyOp19
 70
     1
102
RTVSPropertyOp20
 70
     1
102
RTVSPropertyOp21
 70
     1
102
RTVSPropertyOp22
 70
     1
102
RTVSPropertyOp23
 70
     1
102
RTVSPropertyOp24
 70
     1
102
RTVSPropertyOp25
 70
     1
102
RTVSPropertyOp26
 70
     1
102
RTVSPropertyOp27
 70
     1
102
RTVSPropertyOp28
 70
     1
102
RTVSPropertyOp29
 70
     1
102
RTVSPropertyOp30
 70
     1
102
RTVSPropertyOp31
 70
     1
102
RTVSPropertyOp32
 70
     1
102
RTVSPropertyOp33
 70
     1
102
RTVSPropertyOp34
 70
     1
102
RTVSPropertyOp35
 70
     1
102
RTVSPropertyOp36
 70
     1
102
RTVSPropertyOp37
 70
     1
102
RTVSPropertyOp38
 70
     1
102
RTVSPropertyOp39
 70
     1
102
RTVSPropertyOp40
 70
     1
102
RTVSPropertyOp41
 70
     1
102
RTVSPropertyOp42
 70
     1
102
RTVSPropertyOp43
 70
     1
102
RTVSPropertyOp44
 70
     1
102
RTVSPropertyOp45
 70
     1
102
RTVSPropertyOp46
 70
     1
102
RTVSPropertyOp47
 70
     1
102
RTVSPropertyOp48
 70
     1
102
RTVSPropertyOp49
 70
     1
102
RTVSPropertyOp50
 70
     1
102
RTVSPropertyOp51
 70
     0
102
RTVSPropertyOp52
 70
     0
102
RTVSPropertyOp53
 70
     1
102
RTVSPropertyOp54
 70
     1
102
RTVSPropertyOp55
 70
     1
102
RTVSPropertyOp56
 70
     1
102
RTVSPropertyOp57
 70
     1
102
RTVSPost2010Prop28
280
     0
102
RTVSPost2010PropOp28
 70
     1
102
RTVSPost2010Prop29
280
     1
102
RTVSPost2010PropOp29
 70
     1
102
RTVSPost2010Prop30
280
     1
102
RTVSPost2010PropOp30
 70
     1
102
RTVSPost2010Prop31
280
     0
102
RTVSPost2010PropOp31
 70
     1
102
RTVSPost2010Prop32
280
     0
102
RTVSPost2010PropOp32
 70
     1
102
RTVSPost2010Prop33
280
     0
102
RTVSPost2010PropOp33
 70
     1
102
RTVSPost2010Prop34
280
     0
102
RTVSPost2010PropOp34
 70
     1
102
RTVSPost2010Prop35
280
     0
102
RTVSPost2010PropOp35
 70
     1
102
RTVSPost2010Prop36
280
     0
102
RTVSPost2010PropOp36
 70
     1
102
RTVSPost2010Prop37
 90
       50
102
RTVSPost2010PropOp37
 70
     1
102
RTVSPost2010Prop38
140
0.0
102
RTVSPost2010PropOp38
 70
     1
102
RTVSPost2010Prop39
140
1.0
102
RTVSPost2010PropOp39
 70
     1
102
RTVSPost2010Prop40
 90
        0
102
RTVSPost2010PropOp40
 70
     1
102
RTVSPost2010Prop41ColorIndex
 90
       18
102
RTVSPost2010Prop41ColorRGB
 90
        0
102
RTVSPost2010PropOp41
 70
     1
102
RTVSPost2010Prop42
 90
       50
102
RTVSPost2010PropOp42
 70
     1
102
RTVSPost2010Prop43
 90
        3
102
RTVSPost2010PropOp43
 70
     1
102
RTVSPost2010Prop44ColorIndex
 90
        5
102
RTVSPost2010Prop44ColorRGB
 90
      255
102
RTVSPost2010PropOp44
 70
     1
102
RTVSPost2010Prop45
280
     0
102
RTVSPost2010PropOp45
 70
     1
102
RTVSPost2010Prop46
 90
       50
102
RTVSPost2010PropOp46
 70
     1
102
RTVSPost2010Prop47
 90
       50
102
RTVSPost2010PropOp47
 70
     1
102
RTVSPost2010Prop48
 90
       50
102
RTVSPost2010PropOp48
 70
     1
102
RTVSPost2010Prop49
280
     0
102
RTVSPost2010PropOp49
 70
     1
102
RTVSPost2010Prop50
 90
       50
102
RTVSPost2010PropOp50
 70
     1
102
RTVSPost2010Prop51ColorIndex
 90
      256
102
RTVSPost2010Prop51ColorRGB
 90
-16777216
102
RTVSPost2010PropOp51
 70
     0
102
RTVSPost2010Prop52
140
1.0
102
RTVSPost2010PropOp52
 70
     0
102
RTVSPost2010Prop53
 90
        2
102
RTVSPost2010PropOp53
 70
     1
102
RTVSPost2010Prop54
  1
strokes_ogs.tif
102
RTVSPost2010PropOp54
 70
     1
102
RTVSPost2010Prop55
280
     0
102
RTVSPost2010PropOp55
 70
     1
102
RTVSPost2010Prop56
140
1.0
102
RTVSPost2010PropOp56
 70
     1
102
RTVSPost2010Prop57
140
1.0
102
RTVSPost2010PropOp57
 70
     1
  0
XRECORD
  5
630
102
{ACAD_REACTORS
330
62F
102
}
330
62F
100
AcDbXrecord
280
     1
102
RTVSPropertyOp0
 70
     1
102
RTVSPropertyOp1
 70
     1
102
RTVSPropertyOp2
 70
     1
102
RTVSPropertyOp3
 70
     1
102
RTVSPropertyOp4
 70
     1
102
RTVSPropertyOp5
 70
     1
102
RTVSPropertyOp6
 70
     1
102
RTVSPropertyOp7
 70
     1
102
RTVSPropertyOp8
 70
     1
102
RTVSPropertyOp9
 70
     1
102
RTVSPropertyOp10
 70
     1
102
RTVSPropertyOp11
 70
     1
102
RTVSPropertyOp12
 70
     1
102
RTVSPropertyOp13
 70
     1
102
RTVSPropertyOp14
 70
     1
102
RTVSPropertyOp15
 70
     1
102
RTVSPropertyOp16
 70
     1
102
RTVSPropertyOp17
 70
     1
102
RTVSPropertyOp18
 70
     1
102
RTVSPropertyOp19
 70
     1
102
RTVSPropertyOp20
 70
     1
102
RTVSPropertyOp21
 70
     1
102
RTVSPropertyOp22
 70
     1
102
RTVSPropertyOp23
 70
     1
102
RTVSPropertyOp24
 70
     1
102
RTVSPropertyOp25
 70
     1
102
RTVSPropertyOp26
 70
     1
102
RTVSPropertyOp27
 70
     1
102
RTVSPropertyOp28
 70
     1
102
RTVSPropertyOp29
 70
     1
102
RTVSPropertyOp30
 70
     1
102
RTVSPropertyOp31
 70
     1
102
RTVSPropertyOp32
 70
     1
102
RTVSPropertyOp33
 70
     1
102
RTVSPropertyOp34
 70
     1
102
RTVSPropertyOp35
 70
     1
102
RTVSPropertyOp36
 70
     1
102
RTVSPropertyOp37
 70
     1
102
RTVSPropertyOp38
 70
     1
102
RTVSPropertyOp39
 70
     1
102
RTVSPropertyOp40
 70
     1
102
RTVSPropertyOp41
 70
     1
102
RTVSPropertyOp42
 70
     1
102
RTVSPropertyOp43
 70
     1
102
RTVSPropertyOp44
 70
     1
102
RTVSPropertyOp45
 70
     1
102
RTVSPropertyOp46
 70
     1
102
RTVSPropertyOp47
 70
     1
102
RTVSPropertyOp48
 70
     1
102
RTVSPropertyOp49
 70
     1
102
RTVSPropertyOp50
 70
     1
102
RTVSPropertyOp51
 70
     0
102
RTVSPropertyOp52
 70
     0
102
RTVSPropertyOp53
 70
     1
102
RTVSPropertyOp54
 70
     1
102
RTVSPropertyOp55
 70
     1
102
RTVSPropertyOp56
 70
     1
102
RTVSPropertyOp57
 70
     1
102
RTVSPost2010Prop28
280
     0
102
RTVSPost2010PropOp28
 70
     1
102
RTVSPost2010Prop29
280
     1
102
RTVSPost2010PropOp29
 70
     1
102
RTVSPost2010Prop30
280
     1
102
RTVSPost2010PropOp30
 70
     1
102
RTVSPost2010Prop31
280
     0
102
RTVSPost2010PropOp31
 70
     1
102
RTVSPost2010Prop32
280
     0
102
RTVSPost2010PropOp32
 70
     1
102
RTVSPost2010Prop33
280
     0
102
RTVSPost2010PropOp33
 70
     1
102
RTVSPost2010Prop34
280
     0
102
RTVSPost2010PropOp34
 70
     1
102
RTVSPost2010Prop35
280
     0
102
RTVSPost2010PropOp35
 70
     1
102
RTVSPost2010Prop36
280
     0
102
RTVSPost2010PropOp36
 70
     1
102
RTVSPost2010Prop37
 90
       50
102
RTVSPost2010PropOp37
 70
     1
102
RTVSPost2010Prop38
140
0.0
102
RTVSPost2010PropOp38
 70
     1
102
RTVSPost2010Prop39
140
1.0
102
RTVSPost2010PropOp39
 70
     1
102
RTVSPost2010Prop40
 90
        0
102
RTVSPost2010PropOp40
 70
     1
102
RTVSPost2010Prop41ColorIndex
 90
       18
102
RTVSPost2010Prop41ColorRGB
 90
        0
102
RTVSPost2010PropOp41
 70
     1
102
RTVSPost2010Prop42
 90
       50
102
RTVSPost2010PropOp42
 70
     1
102
RTVSPost2010Prop43
 90
        3
102
RTVSPost2010PropOp43
 70
     1
102
RTVSPost2010Prop44ColorIndex
 90
        5
102
RTVSPost2010Prop44ColorRGB
 90
      255
102
RTVSPost2010PropOp44
 70
     1
102
RTVSPost2010Prop45
280
     0
102
RTVSPost2010PropOp45
 70
     1
102
RTVSPost2010Prop46
 90
       50
102
RTVSPost2010PropOp46
 70
     1
102
RTVSPost2010Prop47
 90
       50
102
RTVSPost2010PropOp47
 70
     1
102
RTVSPost2010Prop48
 90
       50
102
RTVSPost2010PropOp48
 70
     1
102
RTVSPost2010Prop49
280
     0
102
RTVSPost2010PropOp49
 70
     1
102
RTVSPost2010Prop50
 90
       50
102
RTVSPost2010PropOp50
 70
     1
102
RTVSPost2010Prop51ColorIndex
 90
      256
102
RTVSPost2010Prop51ColorRGB
 90
-16777216
102
RTVSPost2010PropOp51
 70
     0
102
RTVSPost2010Prop52
140
1.0
102
RTVSPost2010PropOp52
 70
     0
102
RTVSPost2010Prop53
 90
        2
102
RTVSPost2010PropOp53
 70
     1
102
RTVSPost2010Prop54
  1
strokes_ogs.tif
102
RTVSPost2010PropOp54
 70
     1
102
RTVSPost2010Prop55
280
     0
102
RTVSPost2010PropOp55
 70
     1
102
RTVSPost2010Prop56
140
1.0
102
RTVSPost2010PropOp56
 70
     1
102
RTVSPost2010Prop57
140
1.0
102
RTVSPost2010PropOp57
 70
     1
  0
XRECORD
  5
626
102
{ACAD_REACTORS
330
625
102
}
330
625
100
AcDbXrecord
280
     1
102
RTVSPropertyOp0
 70
     1
102
RTVSPropertyOp1
 70
     1
102
RTVSPropertyOp2
 70
     1
102
RTVSPropertyOp3
 70
     1
102
RTVSPropertyOp4
 70
     1
102
RTVSPropertyOp5
 70
     1
102
RTVSPropertyOp6
 70
     1
102
RTVSPropertyOp7
 70
     1
102
RTVSPropertyOp8
 70
     1
102
RTVSPropertyOp9
 70
     1
102
RTVSPropertyOp10
 70
     1
102
RTVSPropertyOp11
 70
     1
102
RTVSPropertyOp12
 70
     1
102
RTVSPropertyOp13
 70
     1
102
RTVSPropertyOp14
 70
     1
102
RTVSPropertyOp15
 70
     1
102
RTVSPropertyOp16
 70
     1
102
RTVSPropertyOp17
 70
     1
102
RTVSPropertyOp18
 70
     1
102
RTVSPropertyOp19
 70
     1
102
RTVSPropertyOp20
 70
     1
102
RTVSPropertyOp21
 70
     1
102
RTVSPropertyOp22
 70
     1
102
RTVSPropertyOp23
 70
     1
102
RTVSPropertyOp24
 70
     1
102
RTVSPropertyOp25
 70
     1
102
RTVSPropertyOp26
 70
     1
102
RTVSPropertyOp27
 70
     1
102
RTVSPropertyOp28
 70
     1
102
RTVSPropertyOp29
 70
     1
102
RTVSPropertyOp30
 70
     1
102
RTVSPropertyOp31
 70
     1
102
RTVSPropertyOp32
 70
     1
102
RTVSPropertyOp33
 70
     1
102
RTVSPropertyOp34
 70
     1
102
RTVSPropertyOp35
 70
     1
102
RTVSPropertyOp36
 70
     1
102
RTVSPropertyOp37
 70
     1
102
RTVSPropertyOp38
 70
     1
102
RTVSPropertyOp39
 70
     1
102
RTVSPropertyOp40
 70
     1
102
RTVSPropertyOp41
 70
     1
102
RTVSPropertyOp42
 70
     1
102
RTVSPropertyOp43
 70
     1
102
RTVSPropertyOp44
 70
     1
102
RTVSPropertyOp45
 70
     1
102
RTVSPropertyOp46
 70
     1
102
RTVSPropertyOp47
 70
     1
102
RTVSPropertyOp48
 70
     1
102
RTVSPropertyOp49
 70
     1
102
RTVSPropertyOp50
 70
     1
102
RTVSPropertyOp51
 70
     0
102
RTVSPropertyOp52
 70
     0
102
RTVSPropertyOp53
 70
     1
102
RTVSPropertyOp54
 70
     1
102
RTVSPropertyOp55
 70
     1
102
RTVSPropertyOp56
 70
     1
102
RTVSPropertyOp57
 70
     1
102
RTVSPost2010Prop28
280
     0
102
RTVSPost2010PropOp28
 70
     1
102
RTVSPost2010Prop29
280
     1
102
RTVSPost2010PropOp29
 70
     1
102
RTVSPost2010Prop30
280
     1
102
RTVSPost2010PropOp30
 70
     1
102
RTVSPost2010Prop31
280
     0
102
RTVSPost2010PropOp31
 70
     1
102
RTVSPost2010Prop32
280
     0
102
RTVSPost2010PropOp32
 70
     1
102
RTVSPost2010Prop33
280
     0
102
RTVSPost2010PropOp33
 70
     1
102
RTVSPost2010Prop34
280
     0
102
RTVSPost2010PropOp34
 70
     1
102
RTVSPost2010Prop35
280
     0
102
RTVSPost2010PropOp35
 70
     1
102
RTVSPost2010Prop36
280
     0
102
RTVSPost2010PropOp36
 70
     1
102
RTVSPost2010Prop37
 90
       50
102
RTVSPost2010PropOp37
 70
     1
102
RTVSPost2010Prop38
140
0.0
102
RTVSPost2010PropOp38
 70
     1
102
RTVSPost2010Prop39
140
1.0
102
RTVSPost2010PropOp39
 70
     1
102
RTVSPost2010Prop40
 90
        0
102
RTVSPost2010PropOp40
 70
     1
102
RTVSPost2010Prop41ColorIndex
 90
       18
102
RTVSPost2010Prop41ColorRGB
 90
        0
102
RTVSPost2010PropOp41
 70
     1
102
RTVSPost2010Prop42
 90
       50
102
RTVSPost2010PropOp42
 70
     1
102
RTVSPost2010Prop43
 90
        3
102
RTVSPost2010PropOp43
 70
     1
102
RTVSPost2010Prop44ColorIndex
 90
        5
102
RTVSPost2010Prop44ColorRGB
 90
      255
102
RTVSPost2010PropOp44
 70
     1
102
RTVSPost2010Prop45
280
     0
102
RTVSPost2010PropOp45
 70
     1
102
RTVSPost2010Prop46
 90
       50
102
RTVSPost2010PropOp46
 70
     1
102
RTVSPost2010Prop47
 90
       50
102
RTVSPost2010PropOp47
 70
     1
102
RTVSPost2010Prop48
 90
       50
102
RTVSPost2010PropOp48
 70
     1
102
RTVSPost2010Prop49
280
     0
102
RTVSPost2010PropOp49
 70
     1
102
RTVSPost2010Prop50
 90
       50
102
RTVSPost2010PropOp50
 70
     1
102
RTVSPost2010Prop51ColorIndex
 90
      256
102
RTVSPost2010Prop51ColorRGB
 90
-16777216
102
RTVSPost2010PropOp51
 70
     0
102
RTVSPost2010Prop52
140
1.0
102
RTVSPost2010PropOp52
 70
     0
102
RTVSPost2010Prop53
 90
        2
102
RTVSPost2010PropOp53
 70
     1
102
RTVSPost2010Prop54
  1
strokes_ogs.tif
102
RTVSPost2010PropOp54
 70
     1
102
RTVSPost2010Prop55
280
     0
102
RTVSPost2010PropOp55
 70
     1
102
RTVSPost2010Prop56
140
1.0
102
RTVSPost2010PropOp56
 70
     1
102
RTVSPost2010Prop57
140
1.0
102
RTVSPost2010PropOp57
 70
     1
  0
XRECORD
  5
62E
102
{ACAD_REACTORS
330
62D
102
}
330
62D
100
AcDbXrecord
280
     1
102
RTVSPropertyOp0
 70
     1
102
RTVSPropertyOp1
 70
     1
102
RTVSPropertyOp2
 70
     1
102
RTVSPropertyOp3
 70
     1
102
RTVSPropertyOp4
 70
     1
102
RTVSPropertyOp5
 70
     1
102
RTVSPropertyOp6
 70
     1
102
RTVSPropertyOp7
 70
     1
102
RTVSPropertyOp8
 70
     1
102
RTVSPropertyOp9
 70
     1
102
RTVSPropertyOp10
 70
     1
102
RTVSPropertyOp11
 70
     1
102
RTVSPropertyOp12
 70
     1
102
RTVSPropertyOp13
 70
     1
102
RTVSPropertyOp14
 70
     1
102
RTVSPropertyOp15
 70
     1
102
RTVSPropertyOp16
 70
     1
102
RTVSPropertyOp17
 70
     1
102
RTVSPropertyOp18
 70
     1
102
RTVSPropertyOp19
 70
     1
102
RTVSPropertyOp20
 70
     1
102
RTVSPropertyOp21
 70
     1
102
RTVSPropertyOp22
 70
     1
102
RTVSPropertyOp23
 70
     1
102
RTVSPropertyOp24
 70
     1
102
RTVSPropertyOp25
 70
     1
102
RTVSPropertyOp26
 70
     1
102
RTVSPropertyOp27
 70
     1
102
RTVSPropertyOp28
 70
     1
102
RTVSPropertyOp29
 70
     1
102
RTVSPropertyOp30
 70
     1
102
RTVSPropertyOp31
 70
     1
102
RTVSPropertyOp32
 70
     1
102
RTVSPropertyOp33
 70
     1
102
RTVSPropertyOp34
 70
     1
102
RTVSPropertyOp35
 70
     1
102
RTVSPropertyOp36
 70
     1
102
RTVSPropertyOp37
 70
     1
102
RTVSPropertyOp38
 70
     1
102
RTVSPropertyOp39
 70
     1
102
RTVSPropertyOp40
 70
     1
102
RTVSPropertyOp41
 70
     1
102
RTVSPropertyOp42
 70
     1
102
RTVSPropertyOp43
 70
     1
102
RTVSPropertyOp44
 70
     1
102
RTVSPropertyOp45
 70
     1
102
RTVSPropertyOp46
 70
     1
102
RTVSPropertyOp47
 70
     1
102
RTVSPropertyOp48
 70
     1
102
RTVSPropertyOp49
 70
     1
102
RTVSPropertyOp50
 70
     1
102
RTVSPropertyOp51
 70
     0
102
RTVSPropertyOp52
 70
     0
102
RTVSPropertyOp53
 70
     1
102
RTVSPropertyOp54
 70
     1
102
RTVSPropertyOp55
 70
     1
102
RTVSPropertyOp56
 70
     1
102
RTVSPropertyOp57
 70
     1
102
RTVSPost2010Prop28
280
     0
102
RTVSPost2010PropOp28
 70
     1
102
RTVSPost2010Prop29
280
     1
102
RTVSPost2010PropOp29
 70
     1
102
RTVSPost2010Prop30
280
     1
102
RTVSPost2010PropOp30
 70
     1
102
RTVSPost2010Prop31
280
     0
102
RTVSPost2010PropOp31
 70
     1
102
RTVSPost2010Prop32
280
     0
102
RTVSPost2010PropOp32
 70
     1
102
RTVSPost2010Prop33
280
     0
102
RTVSPost2010PropOp33
 70
     1
102
RTVSPost2010Prop34
280
     0
102
RTVSPost2010PropOp34
 70
     1
102
RTVSPost2010Prop35
280
     0
102
RTVSPost2010PropOp35
 70
     1
102
RTVSPost2010Prop36
280
     0
102
RTVSPost2010PropOp36
 70
     1
102
RTVSPost2010Prop37
 90
       50
102
RTVSPost2010PropOp37
 70
     1
102
RTVSPost2010Prop38
140
0.0
102
RTVSPost2010PropOp38
 70
     1
102
RTVSPost2010Prop39
140
1.0
102
RTVSPost2010PropOp39
 70
     1
102
RTVSPost2010Prop40
 90
        0
102
RTVSPost2010PropOp40
 70
     1
102
RTVSPost2010Prop41ColorIndex
 90
       18
102
RTVSPost2010Prop41ColorRGB
 90
        0
102
RTVSPost2010PropOp41
 70
     1
102
RTVSPost2010Prop42
 90
       50
102
RTVSPost2010PropOp42
 70
     1
102
RTVSPost2010Prop43
 90
        3
102
RTVSPost2010PropOp43
 70
     1
102
RTVSPost2010Prop44ColorIndex
 90
        5
102
RTVSPost2010Prop44ColorRGB
 90
      255
102
RTVSPost2010PropOp44
 70
     1
102
RTVSPost2010Prop45
280
     0
102
RTVSPost2010PropOp45
 70
     1
102
RTVSPost2010Prop46
 90
       50
102
RTVSPost2010PropOp46
 70
     1
102
RTVSPost2010Prop47
 90
       50
102
RTVSPost2010PropOp47
 70
     1
102
RTVSPost2010Prop48
 90
       50
102
RTVSPost2010PropOp48
 70
     1
102
RTVSPost2010Prop49
280
     0
102
RTVSPost2010PropOp49
 70
     1
102
RTVSPost2010Prop50
 90
       50
102
RTVSPost2010PropOp50
 70
     1
102
RTVSPost2010Prop51ColorIndex
 90
      256
102
RTVSPost2010Prop51ColorRGB
 90
-16777216
102
RTVSPost2010PropOp51
 70
     0
102
RTVSPost2010Prop52
140
1.0
102
RTVSPost2010PropOp52
 70
     0
102
RTVSPost2010Prop53
 90
        2
102
RTVSPost2010PropOp53
 70
     1
102
RTVSPost2010Prop54
  1
strokes_ogs.tif
102
RTVSPost2010PropOp54
 70
     1
102
RTVSPost2010Prop55
280
     0
102
RTVSPost2010PropOp55
 70
     1
102
RTVSPost2010Prop56
140
1.0
102
RTVSPost2010PropOp56
 70
     1
102
RTVSPost2010Prop57
140
1.0
102
RTVSPost2010PropOp57
 70
     1
  0
ENDSEC
  0
EOF
