  0
SECTION
  2
HEADER
  9
$ACADVER
  1
AC1018
  9
$ACADMAINTVER
 70
     0
  9
$DWGCODEPAGE
  3
ANSI_936
  9
$INSBASE
 10
0.0
 20
0.0
 30
0.0
  9
$EXTMIN
 10
524.2915533746315
 20
1061.291553374628
 30
0.0
  9
$EXTMAX
 10
771.2915514460404
 20
1136.511553343823
 30
0.0
  9
$LIMMIN
 10
0.0
 20
0.0
  9
$LIMMAX
 10
12.0
 20
9.0
  9
$ORTHOMODE
 70
     0
  9
$REGENMODE
 70
     1
  9
$FILLMODE
 70
     1
  9
$QTEXTMODE
 70
     0
  9
$MIRRTEXT
 70
     1
  9
$LTSCALE
 40
1.0
  9
$ATTMODE
 70
     1
  9
$TEXTSIZE
 40
0.2
  9
$TRACEWID
 40
0.05
  9
$TEXTSTYLE
  7
Standard
  9
$CLAYER
  8
0
  9
$CELTYPE
  6
ByLayer
  9
$CECOLOR
 62
   256
  9
$CELTSCALE
 40
1.0
  9
$DISPSILH
 70
     0
  9
$DIMSCALE
 40
1.0
  9
$DIMASZ
 40
0.18
  9
$DIMEXO
 40
0.0625
  9
$DIMDLI
 40
0.38
  9
$DIMRND
 40
0.0
  9
$DIMDLE
 40
0.0
  9
$DIMEXE
 40
0.18
  9
$DIMTP
 40
0.0
  9
$DIMTM
 40
0.0
  9
$DIMTXT
 40
0.18
  9
$DIMCEN
 40
0.09
  9
$DIMTSZ
 40
0.0
  9
$DIMTOL
 70
     0
  9
$DIMLIM
 70
     0
  9
$DIMTIH
 70
     1
  9
$DIMTOH
 70
     1
  9
$DIMSE1
 70
     0
  9
$DIMSE2
 70
     0
  9
$DIMTAD
 70
     0
  9
$DIMZIN
 70
     0
  9
$DIMBLK
  1

  9
$DIMASO
 70
     1
  9
$DIMSHO
 70
     1
  9
$DIMPOST
  1

  9
$DIMAPOST
  1

  9
$DIMALT
 70
     0
  9
$DIMALTD
 70
     2
  9
$DIMALTF
 40
25.4
  9
$DIMLFAC
 40
1.0
  9
$DIMTOFL
 70
     0
  9
$DIMTVP
 40
0.0
  9
$DIMTIX
 70
     0
  9
$DIMSOXD
 70
     0
  9
$DIMSAH
 70
     0
  9
$DIMBLK1
  1

  9
$DIMBLK2
  1

  9
$DIMSTYLE
  2
Standard
  9
$DIMCLRD
 70
     0
  9
$DIMCLRE
 70
     0
  9
$DIMCLRT
 70
     0
  9
$DIMTFAC
 40
1.0
  9
$DIMGAP
 40
0.09
  9
$DIMJUST
 70
     0
  9
$DIMSD1
 70
     0
  9
$DIMSD2
 70
     0
  9
$DIMTOLJ
 70
     1
  9
$DIMTZIN
 70
     0
  9
$DIMALTZ
 70
     0
  9
$DIMALTTZ
 70
     0
  9
$DIMUPT
 70
     0
  9
$DIMDEC
 70
     4
  9
$DIMTDEC
 70
     4
  9
$DIMALTU
 70
     2
  9
$DIMALTTD
 70
     2
  9
$DIMTXSTY
  7
Standard
  9
$DIMAUNIT
 70
     0
  9
$DIMADEC
 70
     0
  9
$DIMALTRND
 40
0.0
  9
$DIMAZIN
 70
     0
  9
$DIMDSEP
 70
    46
  9
$DIMATFIT
 70
     3
  9
$DIMFRAC
 70
     0
  9
$DIMLDRBLK
  1

  9
$DIMLUNIT
 70
     2
  9
$DIMLWD
 70
    -2
  9
$DIMLWE
 70
    -2
  9
$DIMTMOVE
 70
     2
  9
$LUNITS
 70
     2
  9
$LUPREC
 70
     2
  9
$SKETCHINC
 40
0.1
  9
$FILLETRAD
 40
0.5
  9
$AUNITS
 70
     0
  9
$AUPREC
 70
     0
  9
$MENU
  1
.
  9
$ELEVATION
 40
0.0
  9
$PELEVATION
 40
0.0
  9
$THICKNESS
 40
0.0
  9
$LIMCHECK
 70
     0
  9
$CHAMFERA
 40
0.5
  9
$CHAMFERB
 40
0.5
  9
$CHAMFERC
 40
1.0
  9
$CHAMFERD
 40
0.0
  9
$SKPOLY
 70
     0
  9
$TDCREATE
 40
2456710.714318368
  9
$TDUCREATE
 40
2456710.380985035
  9
$TDUPDATE
 40
2456710.714320104
  9
$TDUUPDATE
 40
2456710.380986771
  9
$TDINDWG
 40
0.0000000116
  9
$TDUSRTIMER
 40
0.0000000116
  9
$USRTIMER
 70
     1
  9
$ANGBASE
 50
0.0
  9
$ANGDIR
 70
     0
  9
$PDMODE
 70
     0
  9
$PDSIZE
 40
0.0
  9
$PLINEWID
 40
0.0
  9
$SPLFRAME
 70
     0
  9
$SPLINETYPE
 70
     6
  9
$SPLINESEGS
 70
     8
  9
$HANDSEED
  5
51D
  9
$SURFTAB1
 70
     6
  9
$SURFTAB2
 70
     6
  9
$SURFTYPE
 70
     6
  9
$SURFU
 70
     6
  9
$SURFV
 70
     6
  9
$UCSBASE
  2

  9
$UCSNAME
  2

  9
$UCSORG
 10
0.0
 20
0.0
 30
0.0
  9
$UCSXDIR
 10
1.0
 20
0.0
 30
0.0
  9
$UCSYDIR
 10
0.0
 20
1.0
 30
0.0
  9
$UCSORTHOREF
  2

  9
$UCSORTHOVIEW
 70
     0
  9
$UCSORGTOP
 10
0.0
 20
0.0
 30
0.0
  9
$UCSORGBOTTOM
 10
0.0
 20
0.0
 30
0.0
  9
$UCSORGLEFT
 10
0.0
 20
0.0
 30
0.0
  9
$UCSORGRIGHT
 10
0.0
 20
0.0
 30
0.0
  9
$UCSORGFRONT
 10
0.0
 20
0.0
 30
0.0
  9
$UCSORGBACK
 10
0.0
 20
0.0
 30
0.0
  9
$PUCSBASE
  2

  9
$PUCSNAME
  2

  9
$PUCSORG
 10
0.0
 20
0.0
 30
0.0
  9
$PUCSXDIR
 10
1.0
 20
0.0
 30
0.0
  9
$PUCSYDIR
 10
0.0
 20
1.0
 30
0.0
  9
$PUCSORTHOREF
  2

  9
$PUCSORTHOVIEW
 70
     0
  9
$PUCSORGTOP
 10
0.0
 20
0.0
 30
0.0
  9
$PUCSORGBOTTOM
 10
0.0
 20
0.0
 30
0.0
  9
$PUCSORGLEFT
 10
0.0
 20
0.0
 30
0.0
  9
$PUCSORGRIGHT
 10
0.0
 20
0.0
 30
0.0
  9
$PUCSORGFRONT
 10
0.0
 20
0.0
 30
0.0
  9
$PUCSORGBACK
 10
0.0
 20
0.0
 30
0.0
  9
$USERI1
 70
     0
  9
$USERI2
 70
     0
  9
$USERI3
 70
     0
  9
$USERI4
 70
     0
  9
$USERI5
 70
     0
  9
$USERR1
 40
0.0
  9
$USERR2
 40
0.0
  9
$USERR3
 40
0.0
  9
$USERR4
 40
0.0
  9
$USERR5
 40
0.0
  9
$WORLDVIEW
 70
     1
  9
$SHADEDGE
 70
     3
  9
$SHADEDIF
 70
    70
  9
$TILEMODE
 70
     1
  9
$MAXACTVP
 70
    64
  9
$PINSBASE
 10
0.0
 20
0.0
 30
0.0
  9
$PLIMCHECK
 70
     0
  9
$PEXTMIN
 10
1.000000000000000E+20
 20
1.000000000000000E+20
 30
1.000000000000000E+20
  9
$PEXTMAX
 10
-1.000000000000000E+20
 20
-1.000000000000000E+20
 30
-1.000000000000000E+20
  9
$PLIMMIN
 10
0.0
 20
0.0
  9
$PLIMMAX
 10
12.0
 20
9.0
  9
$UNITMODE
 70
     0
  9
$VISRETAIN
 70
     1
  9
$PLINEGEN
 70
     0
  9
$PSLTSCALE
 70
     1
  9
$TREEDEPTH
 70
  3020
  9
$CMLSTYLE
  2
Standard
  9
$CMLJUST
 70
     0
  9
$CMLSCALE
 40
1.0
  9
$PROXYGRAPHICS
 70
     1
  9
$MEASUREMENT
 70
     0
  9
$CELWEIGHT
370
    -1
  9
$ENDCAPS
280
     0
  9
$JOINSTYLE
280
     0
  9
$LWDISPLAY
290
     0
  9
$INSUNITS
 70
     4
  9
$HYPERLINKBASE
  1

  9
$STYLESHEET
  1

  9
$XEDIT
290
     1
  9
$CEPSNTYPE
380
     0
  9
$PSTYLEMODE
290
     1
  9
$FINGERPRINTGUID
  2
{FA06B409-CEFF-4B51-A9E4-AF1B6CE8BA1D}
  9
$VERSIONGUID
  2
{FAEB1C32-E019-11D5-929B-00C0DF256EC4}
  9
$EXTNAMES
290
     1
  9
$PSVPSCALE
 40
0.0
  9
$OLESTARTUP
290
     0
  9
$SORTENTS
280
   127
  9
$INDEXCTL
280
     0
  9
$HIDETEXT
280
     1
  9
$XCLIPFRAME
290
     0
  9
$HALOGAP
280
     0
  9
$OBSCOLOR
 70
   257
  9
$OBSLTYPE
280
     0
  9
$INTERSECTIONDISPLAY
280
     0
  9
$INTERSECTIONCOLOR
 70
   257
  9
$DIMASSOC
280
     2
  9
$PROJECTNAME
  1

  0
ENDSEC
  0
SECTION
  2
CLASSES
  0
CLASS
  1
ACDBDICTIONARYWDFLT
  2
AcDbDictionaryWithDefault
  3
ObjectDBX Classes
 90
        0
 91
        4
280
     0
281
     0
  0
CLASS
  1
VISUALSTYLE
  2
AcDbVisualStyle
  3
ObjectDBX Classes
 90
     4095
 91
        4
280
     0
281
     0
  0
CLASS
  1
MATERIAL
  2
AcDbMaterial
  3
ObjectDBX Classes
 90
     1153
 91
        4
280
     0
281
     0
  0
CLASS
  1
SCALE
  2
AcDbScale
  3
ObjectDBX Classes
 90
     1153
 91
        4
280
     0
281
     0
  0
CLASS
  1
SUN
  2
AcDbSun
  3
SCENEOE
 90
     1153
 91
        4
280
     0
281
     0
  0
CLASS
  1
DICTIONARYVAR
  2
AcDbDictionaryVar
  3
ObjectDBX Classes
 90
        0
 91
        4
280
     0
281
     0
  0
ENDSEC
  0
SECTION
  2
TABLES
  0
TABLE
  2
VPORT
  5
8
330
0
100
AcDbSymbolTable
 70
     1
  0
VPORT
  5
29
330
8
100
AcDbSymbolTableRecord
100
AcDbViewportTableRecord
  2
*Active
 70
     0
 10
0.0
 20
0.0
 11
1.0
 21
1.0
 12
647.4873037642274
 22
1098.901553357852
 13
0.0
 23
0.0
 14
0.5
 24
0.5
 15
0.5
 25
0.5
 16
0.0
 26
0.0
 36
1.0
 17
0.0
 27
0.0
 37
0.0
 40
76.72439996577566
 41
3.275611551304165
 42
50.0
 43
0.0
 44
0.0
 50
0.0
 51
0.0
 71
     0
 72
   100
 73
     1
 74
     3
 75
     0
 76
     0
 77
     0
 78
     0
281
     0
 65
     1
110
0.0
120
0.0
130
0.0
111
1.0
121
0.0
131
0.0
112
0.0
122
1.0
132
0.0
 79
     0
146
0.0
  0
ENDTAB
  0
TABLE
  2
LTYPE
  5
5
330
0
100
AcDbSymbolTable
 70
     1
  0
LTYPE
  5
14
330
5
100
AcDbSymbolTableRecord
100
AcDbLinetypeTableRecord
  2
ByBlock
 70
     0
  3

 72
    65
 73
     0
 40
0.0
  0
LTYPE
  5
15
330
5
100
AcDbSymbolTableRecord
100
AcDbLinetypeTableRecord
  2
ByLayer
 70
     0
  3

 72
    65
 73
     0
 40
0.0
  0
LTYPE
  5
16
330
5
100
AcDbSymbolTableRecord
100
AcDbLinetypeTableRecord
  2
Continuous
 70
     0
  3
Solid line
 72
    65
 73
     0
 40
0.0
  0
ENDTAB
  0
TABLE
  2
LAYER
  5
2
330
0
100
AcDbSymbolTable
 70
     2
  0
LAYER
  5
10
330
2
100
AcDbSymbolTableRecord
100
AcDbLayerTableRecord
  2
0
 70
     0
 62
     7
  6
Continuous
370
    -3
390
F
  0
LAYER
  5
62
330
2
100
AcDbSymbolTableRecord
100
AcDbLayerTableRecord
  2
Make2D$可见线$普通线
 70
     0
 62
    18
420
        0
  6
Continuous
370
    -3
390
F
  0
ENDTAB
  0
TABLE
  2
STYLE
  5
3
330
0
100
AcDbSymbolTable
 70
     1
  0
STYLE
  5
11
330
3
100
AcDbSymbolTableRecord
100
AcDbTextStyleTableRecord
  2
Standard
 70
     0
 40
0.0
 41
1.0
 50
0.0
 71
     0
 42
0.2
  3
txt
  4

  0
ENDTAB
  0
TABLE
  2
VIEW
  5
6
330
0
100
AcDbSymbolTable
 70
     0
  0
ENDTAB
  0
TABLE
  2
UCS
  5
7
330
0
100
AcDbSymbolTable
 70
     0
  0
ENDTAB
  0
TABLE
  2
APPID
  5
9
330
0
100
AcDbSymbolTable
 70
     1
  0
APPID
  5
12
330
9
100
AcDbSymbolTableRecord
100
AcDbRegAppTableRecord
  2
ACAD
 70
     0
  0
ENDTAB
  0
TABLE
  2
DIMSTYLE
  5
A
330
0
100
AcDbSymbolTable
 70
     1
100
AcDbDimStyleTable
  0
DIMSTYLE
105
27
330
A
100
AcDbSymbolTableRecord
100
AcDbDimStyleTableRecord
  2
Standard
 70
     0
178
     0
340
11
  0
ENDTAB
  0
TABLE
  2
BLOCK_RECORD
  5
1
330
0
100
AcDbSymbolTable
 70
     1
  0
BLOCK_RECORD
  5
1F
330
1
100
AcDbSymbolTableRecord
100
AcDbBlockTableRecord
  2
*Model_Space
340
22
  0
BLOCK_RECORD
  5
1B
330
1
100
AcDbSymbolTableRecord
100
AcDbBlockTableRecord
  2
*Paper_Space
340
1E
  0
BLOCK_RECORD
  5
23
330
1
100
AcDbSymbolTableRecord
100
AcDbBlockTableRecord
  2
*Paper_Space0
340
26
  0
ENDTAB
  0
ENDSEC
  0
SECTION
  2
BLOCKS
  0
BLOCK
  5
20
330
1F
100
AcDbEntity
  8
0
100
AcDbBlockBegin
  2
*Model_Space
 70
     0
 10
0.0
 20
0.0
 30
0.0
  3
*Model_Space
  1
*Model_Space
  0
ENDBLK
  5
21
330
1F
100
AcDbEntity
  8
0
100
AcDbBlockEnd
  0
BLOCK
  5
1C
330
1B
100
AcDbEntity
 67
     1
  8
0
100
AcDbBlockBegin
  2
*Paper_Space
 70
     0
 10
0.0
 20
0.0
 30
0.0
  3
*Paper_Space
  1
*Paper_Space
  0
ENDBLK
  5
1D
330
1B
100
AcDbEntity
 67
     1
  8
0
100
AcDbBlockEnd
  0
BLOCK
  5
24
330
23
100
AcDbEntity
  8
0
100
AcDbBlockBegin
  2
*Paper_Space0
 70
     0
 10
0.0
 20
0.0
 30
0.0
  3
*Paper_Space0
  1
*Paper_Space0
  0
ENDBLK
  5
25
330
23
100
AcDbEntity
  8
0
100
AcDbBlockEnd
  0
ENDSEC
  0
SECTION
  2
ENTITIES
  0
LINE
  5
63
330
1F
100
AcDbEntity
  8
Make2D$可见线$普通线
100
AcDbLine
 10
631.266545267333
 20
1091.772467538971
 30
0.0
 11
631.2020221250746
 21
1091.926856571824
 31
0.0
  0
LINE
  5
64
330
1F
100
AcDbEntity
  8
Make2D$可见线$普通线
100
AcDbLine
 10
631.2884328905604
 20
1091.73592273495
 30
0.0
 11
631.2333448984883
 21
1091.866149840078
 31
0.0
  0
ARC
  5
65
330
1F
100
AcDbEntity
  8
Make2D$可见线$普通线
100
AcDbCircle
 10
654.7523132021043
 20
1101.73841330605
 30
0.0
 40
25.50693072742056
100
AcDbArc
 50
203.711727307017
 51
203.8419337574455
  0
LINE
  5
66
330
1F
100
AcDbEntity
  8
Make2D$可见线$普通线
100
AcDbLine
 10
581.1705213011318
 20
1117.884937287821
 30
0.0
 11
576.6836972927696
 21
1117.884937287821
 31
0.0
  0
LINE
  5
67
330
1F
100
AcDbEntity
  8
Make2D$可见线$普通线
100
AcDbLine
 10
581.1705213011318
 20
1085.138169394329
 30
0.0
 11
576.6836972927696
 21
1085.138169394329
 31
0.0
  0
LINE
  5
68
330
1F
100
AcDbEntity
  8
Make2D$可见线$普通线
100
AcDbLine
 10
594.8221185211048
 20
1112.341008146599
 30
0.0
 11
592.8053895412153
 21
1112.341008146599
 31
0.0
  0
LINE
  5
69
330
1F
100
AcDbEntity
  8
Make2D$可见线$普通线
100
AcDbLine
 10
594.82160274533
 20
1090.682098535551
 30
0.0
 11
592.8053895412153
 21
1090.682098535551
 31
0.0
  0
ARC
  5
6A
330
1F
100
AcDbEntity
  8
Make2D$可见线$普通线
100
AcDbCircle
 10
643.8070776569209
 20
1062.756523854951
 30
0.0
 40
0.4863950482605618
100
AcDbArc
 50
296.8347714107128
 51
71.04083452545218
  0
ARC
  5
6B
330
1F
100
AcDbEntity
  8
Make2D$可见线$普通线
100
AcDbCircle
 10
664.7806719560934
 20
1065.221930625019
 30
0.0
 40
0.4909092014030988
100
AcDbArc
 50
117.6647405264943
 51
250.3243959227576
  0
ARC
  5
6C
330
1F
100
AcDbEntity
  8
Make2D$可见线$普通线
100
AcDbCircle
 10
664.7777994014388
 20
1063.580605490524
 30
0.0
 40
0.4871090498583739
100
AcDbArc
 50
116.9968915519373
 51
250.6930623641327
  0
ARC
  5
6D
330
1F
100
AcDbEntity
  8
Make2D$可见线$普通线
100
AcDbCircle
 10
664.7817427107883
 20
1061.935227427646
 30
0.0
 40
0.4909294527448904
100
AcDbArc
 50
117.5725706324935
 51
201.5489381647729
  0
LINE
  5
6E
330
1F
100
AcDbEntity
  8
Make2D$可见线$普通线
100
AcDbLine
 10
643.9956618801813
 20
1066.498836263839
 30
0.0
 11
643.9784966406894
 21
1066.506824320443
 31
0.0
  0
POLYLINE
  5
6F
330
1F
100
AcDbEntity
  8
Make2D$可见线$普通线
100
AcDb2dPolyline
 66
     1
 10
0.0
 20
0.0
 30
0.0
  0
VERTEX
  5
70
330
6F
100
AcDbEntity
  8
Make2D$可见线$普通线
100
AcDbVertex
100
AcDb2dVertex
 10
644.6580788460644
 20
1071.361492451684
 30
0.0
 42
-0.3628268635512953
  0
VERTEX
  5
71
330
6F
100
AcDbEntity
  8
Make2D$可见线$普通线
100
AcDbVertex
100
AcDb2dVertex
 10
645.0729284761006
 20
1070.865905577962
 30
0.0
  0
VERTEX
  5
72
330
6F
100
AcDbEntity
  8
Make2D$可见线$普通线
100
AcDbVertex
100
AcDb2dVertex
 10
645.0729284761005
 20
1069.855782895452
 30
0.0
 42
-0.3589818407697776
  0
VERTEX
  5
73
330
6F
100
AcDbEntity
  8
Make2D$可见线$普通线
100
AcDbVertex
100
AcDb2dVertex
 10
644.6596067554115
 20
1069.359762706493
 30
0.0
  0
SEQEND
  5
74
330
6F
100
AcDbEntity
  8
Make2D$可见线$普通线
  0
LINE
  5
75
330
1F
100
AcDbEntity
  8
Make2D$可见线$普通线
100
AcDbLine
 10
663.9250339789425
 20
1071.361492451684
 30
0.0
 11
663.912448639373
 21
1071.359083662733
 31
0.0
  0
ARC
  5
76
330
1F
100
AcDbEntity
  8
Make2D$可见线$普通线
100
AcDbCircle
 10
665.9534571632067
 20
1134.511553337396
 30
0.0
 40
9.999999996155834
100
AcDbArc
 50
252.4451516693846
 51
253.5839148838791
  0
LINE
  5
77
330
1F
100
AcDbEntity
  8
Make2D$可见线$普通线
100
AcDbLine
 10
631.4079797946769
 20
1091.443938994543
 30
0.0
 11
631.4634575306571
 21
1091.318978891653
 31
0.0
  0
ARC
  5
78
330
1F
100
AcDbEntity
  8
Make2D$可见线$普通线
100
AcDbCircle
 10
654.2915533790772
 20
1101.511553329979
 30
0.0
 40
24.99999998804688
100
AcDbArc
 50
291.6438589230872
 51
292.0607745939856
  0
POLYLINE
  5
79
330
1F
100
AcDbEntity
  8
Make2D$可见线$普通线
100
AcDb2dPolyline
 66
     1
 10
0.0
 20
0.0
 30
0.0
  0
VERTEX
  5
7A
330
79
100
AcDbEntity
  8
Make2D$可见线$普通线
100
AcDbVertex
100
AcDb2dVertex
 10
664.8491841838628
 20
1063.08274191565
 30
0.0
  0
VERTEX
  5
7B
330
79
100
AcDbEntity
  8
Make2D$可见线$普通线
100
AcDbVertex
100
AcDb2dVertex
 10
664.8370806703949
 20
1063.070207451292
 30
0.0
 42
-0.0581472172576156
  0
VERTEX
  5
7C
330
79
100
AcDbEntity
  8
Make2D$可见线$普通线
100
AcDbVertex
100
AcDb2dVertex
 10
664.3981068249387
 20
1063.00597427926
 30
0.0
  0
VERTEX
  5
7D
330
79
100
AcDbEntity
  8
Make2D$可见线$普通线
100
AcDbVertex
100
AcDb2dVertex
 10
663.3535492178446
 20
1062.941761027204
 30
0.0
  0
VERTEX
  5
7E
330
79
100
AcDbEntity
  8
Make2D$可见线$普通线
100
AcDbVertex
100
AcDb2dVertex
 10
661.7569266028751
 20
1062.877232080392
 30
0.0
  0
VERTEX
  5
7F
330
79
100
AcDbEntity
  8
Make2D$可见线$普通线
100
AcDbVertex
100
AcDb2dVertex
 10
657.3682098817218
 20
1062.749106850933
 30
0.0
  0
VERTEX
  5
80
330
79
100
AcDbEntity
  8
Make2D$可见线$普通线
100
AcDbVertex
100
AcDb2dVertex
 10
649.7887341981487
 20
1062.556455240284
 30
0.0
  0
VERTEX
  5
81
330
79
100
AcDbEntity
  8
Make2D$可见线$普通线
100
AcDbVertex
100
AcDb2dVertex
 10
646.8261862221317
 20
1062.466262650515
 30
0.0
  0
VERTEX
  5
82
330
79
100
AcDbEntity
  8
Make2D$可见线$普通线
100
AcDbVertex
100
AcDb2dVertex
 10
645.8187973351771
 20
1062.428015246197
 30
0.0
  0
VERTEX
  5
83
330
79
100
AcDbEntity
  8
Make2D$可见线$普通线
100
AcDbVertex
100
AcDb2dVertex
 10
644.3688432885267
 20
1062.353304323308
 30
0.0
  0
VERTEX
  5
84
330
79
100
AcDbEntity
  8
Make2D$可见线$普通线
100
AcDbVertex
100
AcDb2dVertex
 10
644.195508654841
 20
1062.339091196053
 30
0.0
  0
VERTEX
  5
85
330
79
100
AcDbEntity
  8
Make2D$可见线$普通线
100
AcDbVertex
100
AcDb2dVertex
 10
644.0225172319231
 20
1062.3211781891
 30
0.0
  0
VERTEX
  5
86
330
79
100
AcDbEntity
  8
Make2D$可见线$普通线
100
AcDbVertex
100
AcDb2dVertex
 10
643.8499873107015
 20
1062.299578829702
 30
0.0
  0
VERTEX
  5
87
330
79
100
AcDbEntity
  8
Make2D$可见线$普通线
100
AcDbVertex
100
AcDb2dVertex
 10
643.794893984614
 20
1062.288880201865
 30
0.0
  0
SEQEND
  5
88
330
79
100
AcDbEntity
  8
Make2D$可见线$普通线
  0
ARC
  5
89
330
1F
100
AcDbEntity
  8
Make2D$可见线$普通线
100
AcDbCircle
 10
665.9534571642896
 20
1134.511553340985
 30
0.0
 40
9.999999999904146
100
AcDbArc
 50
252.327675377027
 51
253.7168006689804
  0
POLYLINE
  5
8A
330
1F
100
AcDbEntity
  8
Make2D$可见线$普通线
100
AcDb2dPolyline
 66
     1
 10
0.0
 20
0.0
 30
0.0
  0
VERTEX
  5
8B
330
8A
100
AcDbEntity
  8
Make2D$可见线$普通线
100
AcDbVertex
100
AcDb2dVertex
 10
644.0287315551695
 20
1063.966023821626
 30
0.0
 42
0.6302414126603615
  0
VERTEX
  5
8C
330
8A
100
AcDbEntity
  8
Make2D$可见线$普通线
100
AcDbVertex
100
AcDb2dVertex
 10
644.0011657684184
 20
1064.843575809103
 30
0.0
  0
VERTEX
  5
8D
330
8A
100
AcDbEntity
  8
Make2D$可见线$普通线
100
AcDbVertex
100
AcDb2dVertex
 10
643.9389164227526
 20
1064.849552203594
 30
0.0
  0
VERTEX
  5
8E
330
8A
100
AcDbEntity
  8
Make2D$可见线$普通线
100
AcDbVertex
100
AcDb2dVertex
 10
643.884889266553
 20
1064.855860130726
 30
0.0
  0
VERTEX
  5
8F
330
8A
100
AcDbEntity
  8
Make2D$可见线$普通线
100
AcDbVertex
100
AcDb2dVertex
 10
643.8390940066643
 20
1064.862453128261
 30
0.0
  0
VERTEX
  5
90
330
8A
100
AcDbEntity
  8
Make2D$可见线$普通线
100
AcDbVertex
100
AcDb2dVertex
 10
643.8192863712254
 20
1064.865842008982
 30
0.0
  0
VERTEX
  5
91
330
8A
100
AcDbEntity
  8
Make2D$可见线$普通线
100
AcDbVertex
100
AcDb2dVertex
 10
643.801540349931
 20
1064.869284733964
 30
0.0
  0
VERTEX
  5
92
330
8A
100
AcDbEntity
  8
Make2D$可见线$普通线
100
AcDbVertex
100
AcDb2dVertex
 10
643.7858571561364
 20
1064.87277549543
 30
0.0
  0
VERTEX
  5
93
330
8A
100
AcDbEntity
  8
Make2D$可见线$普通线
100
AcDbVertex
100
AcDb2dVertex
 10
643.7787894987255
 20
1064.874537074912
 30
0.0
  0
VERTEX
  5
94
330
8A
100
AcDbEntity
  8
Make2D$可见线$普通线
100
AcDbVertex
100
AcDb2dVertex
 10
643.7722380031978
 20
1064.876308485599
 30
0.0
  0
VERTEX
  5
95
330
8A
100
AcDbEntity
  8
Make2D$可见线$普通线
100
AcDbVertex
100
AcDb2dVertex
 10
643.7662028212228
 20
1064.878089001515
 30
0.0
  0
VERTEX
  5
96
330
8A
100
AcDbEntity
  8
Make2D$可见线$普通线
100
AcDbVertex
100
AcDb2dVertex
 10
643.7606841044701
 20
1064.879877896691
 30
0.0
  0
VERTEX
  5
97
330
8A
100
AcDbEntity
  8
Make2D$可见线$普通线
100
AcDbVertex
100
AcDb2dVertex
 10
643.7556820046091
 20
1064.881674445153
 30
0.0
  0
VERTEX
  5
98
330
8A
100
AcDbEntity
  8
Make2D$可见线$普通线
100
AcDbVertex
100
AcDb2dVertex
 10
643.7533747334097
 20
1064.8825753625
 30
0.0
  0
VERTEX
  5
99
330
8A
100
AcDbEntity
  8
Make2D$可见线$普通线
100
AcDbVertex
100
AcDb2dVertex
 10
643.7511966733093
 20
1064.883477920928
 30
0.0
  0
VERTEX
  5
9A
330
8A
100
AcDbEntity
  8
Make2D$可见线$普通线
100
AcDbVertex
100
AcDb2dVertex
 10
643.7491478432665
 20
1064.884382029692
 30
0.0
  0
VERTEX
  5
9B
330
8A
100
AcDbEntity
  8
Make2D$可见线$普通线
100
AcDbVertex
100
AcDb2dVertex
 10
643.74722826224
 20
1064.885287598045
 30
0.0
  0
VERTEX
  5
9C
330
8A
100
AcDbEntity
  8
Make2D$可见线$普通线
100
AcDbVertex
100
AcDb2dVertex
 10
643.7454379491886
 20
1064.886194535239
 30
0.0
  0
VERTEX
  5
9D
330
8A
100
AcDbEntity
  8
Make2D$可见线$普通线
100
AcDbVertex
100
AcDb2dVertex
 10
643.7437769230709
 20
1064.88710275053
 30
0.0
  0
VERTEX
  5
9E
330
8A
100
AcDbEntity
  8
Make2D$可见线$普通线
100
AcDbVertex
100
AcDb2dVertex
 10
643.7429948985367
 20
1064.887557309103
 30
0.0
  0
VERTEX
  5
9F
330
8A
100
AcDbEntity
  8
Make2D$可见线$普通线
100
AcDbVertex
100
AcDb2dVertex
 10
643.7422452028454
 20
1064.888012153169
 30
0.0
  0
VERTEX
  5
A0
330
8A
100
AcDbEntity
  8
Make2D$可见线$普通线
100
AcDbVertex
100
AcDb2dVertex
 10
643.741527838367
 20
1064.888467271387
 30
0.0
  0
VERTEX
  5
A1
330
8A
100
AcDbEntity
  8
Make2D$可见线$普通线
100
AcDbVertex
100
AcDb2dVertex
 10
643.7408428074712
 20
1064.888922652412
 30
0.0
  0
VERTEX
  5
A2
330
8A
100
AcDbEntity
  8
Make2D$可见线$普通线
100
AcDbVertex
100
AcDb2dVertex
 10
643.7401901125278
 20
1064.8893782849
 30
0.0
  0
VERTEX
  5
A3
330
8A
100
AcDbEntity
  8
Make2D$可见线$普通线
100
AcDbVertex
100
AcDb2dVertex
 10
643.7395697559066
 20
1064.88983415751
 30
0.0
  0
VERTEX
  5
A4
330
8A
100
AcDbEntity
  8
Make2D$可见线$普通线
100
AcDbVertex
100
AcDb2dVertex
 10
643.7389817399775
 20
1064.890290258896
 30
0.0
  0
VERTEX
  5
A5
330
8A
100
AcDbEntity
  8
Make2D$可见线$普通线
100
AcDbVertex
100
AcDb2dVertex
 10
643.7384260671104
 20
1064.890746577717
 30
0.0
  0
VERTEX
  5
A6
330
8A
100
AcDbEntity
  8
Make2D$可见线$普通线
100
AcDbVertex
100
AcDb2dVertex
 10
643.737902739675
 20
1064.891203102628
 30
0.0
  0
VERTEX
  5
A7
330
8A
100
AcDbEntity
  8
Make2D$可见线$普通线
100
AcDbVertex
100
AcDb2dVertex
 10
643.7374117600413
 20
1064.891659822287
 30
0.0
  0
VERTEX
  5
A8
330
8A
100
AcDbEntity
  8
Make2D$可见线$普通线
100
AcDbVertex
100
AcDb2dVertex
 10
643.7371784013906
 20
1064.891888251602
 30
0.0
  0
VERTEX
  5
A9
330
8A
100
AcDbEntity
  8
Make2D$可见线$普通线
100
AcDbVertex
100
AcDb2dVertex
 10
643.736953130579
 20
1064.89211672535
 30
0.0
  0
VERTEX
  5
AA
330
8A
100
AcDbEntity
  8
Make2D$可见线$普通线
100
AcDbVertex
100
AcDb2dVertex
 10
643.7367359479026
 20
1064.892345242113
 30
0.0
  0
VERTEX
  5
AB
330
8A
100
AcDbEntity
  8
Make2D$可见线$普通线
100
AcDbVertex
100
AcDb2dVertex
 10
643.7365268536579
 20
1064.892573800474
 30
0.0
  0
VERTEX
  5
AC
330
8A
100
AcDbEntity
  8
Make2D$可见线$普通线
100
AcDbVertex
100
AcDb2dVertex
 10
643.736325848141
 20
1064.892802399013
 30
0.0
  0
VERTEX
  5
AD
330
8A
100
AcDbEntity
  8
Make2D$可见线$普通线
100
AcDbVertex
100
AcDb2dVertex
 10
643.736132931648
 20
1064.893031036314
 30
0.0
  0
VERTEX
  5
AE
330
8A
100
AcDbEntity
  8
Make2D$可见线$普通线
100
AcDbVertex
100
AcDb2dVertex
 10
643.7359481044751
 20
1064.893259710959
 30
0.0
  0
VERTEX
  5
AF
330
8A
100
AcDbEntity
  8
Make2D$可见线$普通线
100
AcDbVertex
100
AcDb2dVertex
 10
643.7357713669189
 20
1064.89348842153
 30
0.0
  0
VERTEX
  5
B0
330
8A
100
AcDbEntity
  8
Make2D$可见线$普通线
100
AcDbVertex
100
AcDb2dVertex
 10
643.7356027192754
 20
1064.893717166608
 30
0.0
  0
VERTEX
  5
B1
330
8A
100
AcDbEntity
  8
Make2D$可见线$普通线
100
AcDbVertex
100
AcDb2dVertex
 10
643.7354421618409
 20
1064.893945944776
 30
0.0
  0
VERTEX
  5
B2
330
8A
100
AcDbEntity
  8
Make2D$可见线$普通线
100
AcDbVertex
100
AcDb2dVertex
 10
643.7352896949112
 20
1064.894174754616
 30
0.0
  0
VERTEX
  5
B3
330
8A
100
AcDbEntity
  8
Make2D$可见线$普通线
100
AcDbVertex
100
AcDb2dVertex
 10
643.7351453187832
 20
1064.894403594709
 30
0.0
  0
VERTEX
  5
B4
330
8A
100
AcDbEntity
  8
Make2D$可见线$普通线
100
AcDbVertex
100
AcDb2dVertex
 10
643.7350090337528
 20
1064.894632463639
 30
0.0
  0
VERTEX
  5
B5
330
8A
100
AcDbEntity
  8
Make2D$可见线$普通线
100
AcDbVertex
100
AcDb2dVertex
 10
643.7348808401161
 20
1064.894861359987
 30
0.0
  0
VERTEX
  5
B6
330
8A
100
AcDbEntity
  8
Make2D$可见线$普通线
100
AcDbVertex
100
AcDb2dVertex
 10
643.7347607381696
 20
1064.895090282335
 30
0.0
  0
VERTEX
  5
B7
330
8A
100
AcDbEntity
  8
Make2D$可见线$普通线
100
AcDbVertex
100
AcDb2dVertex
 10
643.7346487282093
 20
1064.895319229265
 30
0.0
  0
VERTEX
  5
B8
330
8A
100
AcDbEntity
  8
Make2D$可见线$普通线
100
AcDbVertex
100
AcDb2dVertex
 10
643.7345448105316
 20
1064.89554819936
 30
0.0
  0
VERTEX
  5
B9
330
8A
100
AcDbEntity
  8
Make2D$可见线$普通线
100
AcDbVertex
100
AcDb2dVertex
 10
643.7344489854326
 20
1064.895777191201
 30
0.0
  0
VERTEX
  5
BA
330
8A
100
AcDbEntity
  8
Make2D$可见线$普通线
100
AcDbVertex
100
AcDb2dVertex
 10
643.7343612532086
 20
1064.896006203371
 30
0.0
  0
VERTEX
  5
BB
330
8A
100
AcDbEntity
  8
Make2D$可见线$普通线
100
AcDbVertex
100
AcDb2dVertex
 10
643.7342816141559
 20
1064.896235234452
 30
0.0
  0
VERTEX
  5
BC
330
8A
100
AcDbEntity
  8
Make2D$可见线$普通线
100
AcDbVertex
100
AcDb2dVertex
 10
643.7342100685706
 20
1064.896464283025
 30
0.0
  0
VERTEX
  5
BD
330
8A
100
AcDbEntity
  8
Make2D$可见线$普通线
100
AcDbVertex
100
AcDb2dVertex
 10
643.7341466167491
 20
1064.896693347673
 30
0.0
  0
VERTEX
  5
BE
330
8A
100
AcDbEntity
  8
Make2D$可见线$普通线
100
AcDbVertex
100
AcDb2dVertex
 10
643.7340912589873
 20
1064.896922426978
 30
0.0
  0
VERTEX
  5
BF
330
8A
100
AcDbEntity
  8
Make2D$可见线$普通线
100
AcDbVertex
100
AcDb2dVertex
 10
643.7340439955817
 20
1064.897151519521
 30
0.0
  0
VERTEX
  5
C0
330
8A
100
AcDbEntity
  8
Make2D$可见线$普通线
100
AcDbVertex
100
AcDb2dVertex
 10
643.7340048268286
 20
1064.897380623886
 30
0.0
  0
VERTEX
  5
C1
330
8A
100
AcDbEntity
  8
Make2D$可见线$普通线
100
AcDbVertex
100
AcDb2dVertex
 10
643.733973753024
 20
1064.897609738654
 30
0.0
  0
VERTEX
  5
C2
330
8A
100
AcDbEntity
  8
Make2D$可见线$普通线
100
AcDbVertex
100
AcDb2dVertex
 10
643.733950774464
 20
1064.897838862408
 30
0.0
  0
VERTEX
  5
C3
330
8A
100
AcDbEntity
  8
Make2D$可见线$普通线
100
AcDbVertex
100
AcDb2dVertex
 10
643.7339358914453
 20
1064.898067993728
 30
0.0
  0
VERTEX
  5
C4
330
8A
100
AcDbEntity
  8
Make2D$可见线$普通线
100
AcDbVertex
100
AcDb2dVertex
 10
643.7339304537197
 20
1064.898221317214
 30
0.0
  0
VERTEX
  5
C5
330
8A
100
AcDbEntity
  8
Make2D$可见线$普通线
100
AcDbVertex
100
AcDb2dVertex
 10
643.733928641144
 20
1064.898374638457
 30
0.0
  0
VERTEX
  5
C6
330
8A
100
AcDbEntity
  8
Make2D$可见线$普通线
100
AcDbVertex
100
AcDb2dVertex
 10
643.7339322180676
 20
1064.898590020171
 30
0.0
  0
VERTEX
  5
C7
330
8A
100
AcDbEntity
  8
Make2D$可见线$普通线
100
AcDbVertex
100
AcDb2dVertex
 10
643.7339429484812
 20
1064.89880539633
 30
0.0
  0
VERTEX
  5
C8
330
8A
100
AcDbEntity
  8
Make2D$可见线$普通线
100
AcDbVertex
100
AcDb2dVertex
 10
643.7339608318488
 20
1064.899020766971
 30
0.0
  0
VERTEX
  5
C9
330
8A
100
AcDbEntity
  8
Make2D$可见线$普通线
100
AcDbVertex
100
AcDb2dVertex
 10
643.733985867634
 20
1064.899236132132
 30
0.0
  0
VERTEX
  5
CA
330
8A
100
AcDbEntity
  8
Make2D$可见线$普通线
100
AcDbVertex
100
AcDb2dVertex
 10
643.7340180553009
 20
1064.899451491852
 30
0.0
  0
VERTEX
  5
CB
330
8A
100
AcDbEntity
  8
Make2D$可见线$普通线
100
AcDbVertex
100
AcDb2dVertex
 10
643.7340573943133
 20
1064.899666846168
 30
0.0
  0
VERTEX
  5
CC
330
8A
100
AcDbEntity
  8
Make2D$可见线$普通线
100
AcDbVertex
100
AcDb2dVertex
 10
643.734103884135
 20
1064.89988219512
 30
0.0
  0
VERTEX
  5
CD
330
8A
100
AcDbEntity
  8
Make2D$可见线$普通线
100
AcDbVertex
100
AcDb2dVertex
 10
643.7341575242299
 20
1064.900097538744
 30
0.0
  0
VERTEX
  5
CE
330
8A
100
AcDbEntity
  8
Make2D$可见线$普通线
100
AcDbVertex
100
AcDb2dVertex
 10
643.734218314062
 20
1064.90031287708
 30
0.0
  0
VERTEX
  5
CF
330
8A
100
AcDbEntity
  8
Make2D$可见线$普通线
100
AcDbVertex
100
AcDb2dVertex
 10
643.734286253095
 20
1064.900528210166
 30
0.0
  0
VERTEX
  5
D0
330
8A
100
AcDbEntity
  8
Make2D$可见线$普通线
100
AcDbVertex
100
AcDb2dVertex
 10
643.7343613407929
 20
1064.900743538039
 30
0.0
  0
VERTEX
  5
D1
330
8A
100
AcDbEntity
  8
Make2D$可见线$普通线
100
AcDbVertex
100
AcDb2dVertex
 10
643.7344435766195
 20
1064.900958860737
 30
0.0
  0
VERTEX
  5
D2
330
8A
100
AcDbEntity
  8
Make2D$可见线$普通线
100
AcDbVertex
100
AcDb2dVertex
 10
643.7345329600387
 20
1064.9011741783
 30
0.0
  0
VERTEX
  5
D3
330
8A
100
AcDbEntity
  8
Make2D$可见线$普通线
100
AcDbVertex
100
AcDb2dVertex
 10
643.7346294905143
 20
1064.901389490764
 30
0.0
  0
VERTEX
  5
D4
330
8A
100
AcDbEntity
  8
Make2D$可见线$普通线
100
AcDbVertex
100
AcDb2dVertex
 10
643.7347331675104
 20
1064.901604798169
 30
0.0
  0
VERTEX
  5
D5
330
8A
100
AcDbEntity
  8
Make2D$可见线$普通线
100
AcDbVertex
100
AcDb2dVertex
 10
643.7348439904906
 20
1064.901820100552
 30
0.0
  0
VERTEX
  5
D6
330
8A
100
AcDbEntity
  8
Make2D$可见线$普通线
100
AcDbVertex
100
AcDb2dVertex
 10
643.734961958919
 20
1064.902035397951
 30
0.0
  0
VERTEX
  5
D7
330
8A
100
AcDbEntity
  8
Make2D$可见线$普通线
100
AcDbVertex
100
AcDb2dVertex
 10
643.7350870722595
 20
1064.902250690405
 30
0.0
  0
VERTEX
  5
D8
330
8A
100
AcDbEntity
  8
Make2D$可见线$普通线
100
AcDbVertex
100
AcDb2dVertex
 10
643.7352193299757
 20
1064.902465977952
 30
0.0
  0
VERTEX
  5
D9
330
8A
100
AcDbEntity
  8
Make2D$可见线$普通线
100
AcDbVertex
100
AcDb2dVertex
 10
643.7353587315317
 20
1064.90268126063
 30
0.0
  0
VERTEX
  5
DA
330
8A
100
AcDbEntity
  8
Make2D$可见线$普通线
100
AcDbVertex
100
AcDb2dVertex
 10
643.7355052763915
 20
1064.902896538477
 30
0.0
  0
VERTEX
  5
DB
330
8A
100
AcDbEntity
  8
Make2D$可见线$普通线
100
AcDbVertex
100
AcDb2dVertex
 10
643.7356589640185
 20
1064.903111811531
 30
0.0
  0
VERTEX
  5
DC
330
8A
100
AcDbEntity
  8
Make2D$可见线$普通线
100
AcDbVertex
100
AcDb2dVertex
 10
643.735819793877
 20
1064.90332707983
 30
0.0
  0
VERTEX
  5
DD
330
8A
100
AcDbEntity
  8
Make2D$可见线$普通线
100
AcDbVertex
100
AcDb2dVertex
 10
643.7359877654307
 20
1064.903542343413
 30
0.0
  0
VERTEX
  5
DE
330
8A
100
AcDbEntity
  8
Make2D$可见线$普通线
100
AcDbVertex
100
AcDb2dVertex
 10
643.7361628781434
 20
1064.903757602318
 30
0.0
  0
VERTEX
  5
DF
330
8A
100
AcDbEntity
  8
Make2D$可见线$普通线
100
AcDbVertex
100
AcDb2dVertex
 10
643.7363451314793
 20
1064.903972856583
 30
0.0
  0
VERTEX
  5
E0
330
8A
100
AcDbEntity
  8
Make2D$可见线$普通线
100
AcDbVertex
100
AcDb2dVertex
 10
643.736534524902
 20
1064.904188106245
 30
0.0
  0
VERTEX
  5
E1
330
8A
100
AcDbEntity
  8
Make2D$可见线$普通线
100
AcDbVertex
100
AcDb2dVertex
 10
643.7367310578754
 20
1064.904403351344
 30
0.0
  0
VERTEX
  5
E2
330
8A
100
AcDbEntity
  8
Make2D$可见线$普通线
100
AcDbVertex
100
AcDb2dVertex
 10
643.73714554033
 20
1064.904833828002
 30
0.0
  0
VERTEX
  5
E3
330
8A
100
AcDbEntity
  8
Make2D$可见线$普通线
100
AcDbVertex
100
AcDb2dVertex
 10
643.7375885745541
 20
1064.905264286863
 30
0.0
  0
VERTEX
  5
E4
330
8A
100
AcDbEntity
  8
Make2D$可见线$普通线
100
AcDbVertex
100
AcDb2dVertex
 10
643.7380601562588
 20
1064.905694728231
 30
0.0
  0
VERTEX
  5
E5
330
8A
100
AcDbEntity
  8
Make2D$可见线$普通线
100
AcDbVertex
100
AcDb2dVertex
 10
643.7385602811548
 20
1064.906125152412
 30
0.0
  0
VERTEX
  5
E6
330
8A
100
AcDbEntity
  8
Make2D$可见线$普通线
100
AcDbVertex
100
AcDb2dVertex
 10
643.7390889449534
 20
1064.906555559711
 30
0.0
  0
VERTEX
  5
E7
330
8A
100
AcDbEntity
  8
Make2D$可见线$普通线
100
AcDbVertex
100
AcDb2dVertex
 10
643.7396461433655
 20
1064.906985950433
 30
0.0
  0
VERTEX
  5
E8
330
8A
100
AcDbEntity
  8
Make2D$可见线$普通线
100
AcDbVertex
100
AcDb2dVertex
 10
643.740231872102
 20
1064.907416324884
 30
0.0
  0
VERTEX
  5
E9
330
8A
100
AcDbEntity
  8
Make2D$可见线$普通线
100
AcDbVertex
100
AcDb2dVertex
 10
643.740846126874
 20
1064.907846683368
 30
0.0
  0
VERTEX
  5
EA
330
8A
100
AcDbEntity
  8
Make2D$可见线$普通线
100
AcDbVertex
100
AcDb2dVertex
 10
643.7414889033926
 20
1064.908277026191
 30
0.0
  0
VERTEX
  5
EB
330
8A
100
AcDbEntity
  8
Make2D$可见线$普通线
100
AcDbVertex
100
AcDb2dVertex
 10
643.7421601973688
 20
1064.908707353658
 30
0.0
  0
VERTEX
  5
EC
330
8A
100
AcDbEntity
  8
Make2D$可见线$普通线
100
AcDbVertex
100
AcDb2dVertex
 10
643.7428600045134
 20
1064.909137666074
 30
0.0
  0
VERTEX
  5
ED
330
8A
100
AcDbEntity
  8
Make2D$可见线$普通线
100
AcDbVertex
100
AcDb2dVertex
 10
643.7435883205376
 20
1064.909567963745
 30
0.0
  0
VERTEX
  5
EE
330
8A
100
AcDbEntity
  8
Make2D$可见线$普通线
100
AcDbVertex
100
AcDb2dVertex
 10
643.7451304620686
 20
1064.910428516071
 30
0.0
  0
VERTEX
  5
EF
330
8A
100
AcDbEntity
  8
Make2D$可见线$普通线
100
AcDbVertex
100
AcDb2dVertex
 10
643.7467865876497
 20
1064.911289013077
 30
0.0
  0
VERTEX
  5
F0
330
8A
100
AcDbEntity
  8
Make2D$可见线$普通线
100
AcDbVertex
100
AcDb2dVertex
 10
643.7485566629692
 20
1064.912149457205
 30
0.0
  0
VERTEX
  5
F1
330
8A
100
AcDbEntity
  8
Make2D$可见线$普通线
100
AcDbVertex
100
AcDb2dVertex
 10
643.750440653715
 20
1064.913009850897
 30
0.0
  0
VERTEX
  5
F2
330
8A
100
AcDbEntity
  8
Make2D$可见线$普通线
100
AcDbVertex
100
AcDb2dVertex
 10
643.7524385255749
 20
1064.913870196594
 30
0.0
  0
VERTEX
  5
F3
330
8A
100
AcDbEntity
  8
Make2D$可见线$普通线
100
AcDbVertex
100
AcDb2dVertex
 10
643.7545502442374
 20
1064.914730496739
 30
0.0
  0
VERTEX
  5
F4
330
8A
100
AcDbEntity
  8
Make2D$可见线$普通线
100
AcDbVertex
100
AcDb2dVertex
 10
643.7567757753901
 20
1064.915590753772
 30
0.0
  0
VERTEX
  5
F5
330
8A
100
AcDbEntity
  8
Make2D$可见线$普通线
100
AcDbVertex
100
AcDb2dVertex
 10
643.761568137919
 20
1064.917311148272
 30
0.0
  0
VERTEX
  5
F6
330
8A
100
AcDbEntity
  8
Make2D$可见线$普通线
100
AcDbVertex
100
AcDb2dVertex
 10
643.7668153386659
 20
1064.919031399627
 30
0.0
  0
VERTEX
  5
F7
330
8A
100
AcDbEntity
  8
Make2D$可见线$普通线
100
AcDbVertex
100
AcDb2dVertex
 10
643.7725171031352
 20
1064.920751527372
 30
0.0
  0
VERTEX
  5
F8
330
8A
100
AcDbEntity
  8
Make2D$可见线$普通线
100
AcDbVertex
100
AcDb2dVertex
 10
643.7786731568312
 20
1064.922471551039
 30
0.0
  0
VERTEX
  5
F9
330
8A
100
AcDbEntity
  8
Make2D$可见线$普通线
100
AcDbVertex
100
AcDb2dVertex
 10
643.7923470339207
 20
1064.925911364273
 30
0.0
  0
VERTEX
  5
FA
330
8A
100
AcDbEntity
  8
Make2D$可见线$普通线
100
AcDbVertex
100
AcDb2dVertex
 10
643.807834773969
 20
1064.9293509956
 30
0.0
  0
VERTEX
  5
FB
330
8A
100
AcDbEntity
  8
Make2D$可见线$普通线
100
AcDbVertex
100
AcDb2dVertex
 10
643.8251341810105
 20
1064.932790601286
 30
0.0
  0
VERTEX
  5
FC
330
8A
100
AcDbEntity
  8
Make2D$可见线$普通线
100
AcDbVertex
100
AcDb2dVertex
 10
643.8651592122117
 20
1064.939670360807
 30
0.0
  0
VERTEX
  5
FD
330
8A
100
AcDbEntity
  8
Make2D$可见线$普通线
100
AcDbVertex
100
AcDb2dVertex
 10
643.9124045598012
 20
1064.946551892982
 30
0.0
  0
VERTEX
  5
FE
330
8A
100
AcDbEntity
  8
Make2D$可见线$普通线
100
AcDbVertex
100
AcDb2dVertex
 10
643.9668526560556
 20
1064.953436447952
 30
0.0
  0
SEQEND
  5
FF
330
8A
100
AcDbEntity
  8
Make2D$可见线$普通线
  0
POLYLINE
  5
100
330
1F
100
AcDbEntity
  8
Make2D$可见线$普通线
100
AcDb2dPolyline
 66
     1
 10
0.0
 20
0.0
 30
0.0
  0
VERTEX
  5
101
330
100
100
AcDbEntity
  8
Make2D$可见线$普通线
100
AcDbVertex
100
AcDb2dVertex
 10
631.0234370811979
 20
1092.369143059907
 30
0.0
  0
VERTEX
  5
102
330
100
100
AcDbEntity
  8
Make2D$可见线$普通线
100
AcDbVertex
100
AcDb2dVertex
 10
631.0492907122264
 20
1092.310157768272
 30
0.0
  0
VERTEX
  5
103
330
100
100
AcDbEntity
  8
Make2D$可见线$普通线
100
AcDbVertex
100
AcDb2dVertex
 10
631.0020868579755
 20
1092.436297617378
 30
0.0
  0
SEQEND
  5
104
330
100
100
AcDbEntity
  8
Make2D$可见线$普通线
  0
POLYLINE
  5
105
330
1F
100
AcDbEntity
  8
Make2D$可见线$普通线
100
AcDb2dPolyline
 66
     1
 10
0.0
 20
0.0
 30
0.0
  0
VERTEX
  5
106
330
105
100
AcDbEntity
  8
Make2D$可见线$普通线
100
AcDbVertex
100
AcDb2dVertex
 10
647.8885040708503
 20
1125.688597598517
 30
0.0
  0
VERTEX
  5
107
330
105
100
AcDbEntity
  8
Make2D$可见线$普通线
100
AcDbVertex
100
AcDb2dVertex
 10
648.0383334090138
 20
1125.752740529181
 30
0.0
  0
VERTEX
  5
108
330
105
100
AcDbEntity
  8
Make2D$可见线$普通线
100
AcDbVertex
100
AcDb2dVertex
 10
648.0732172432632
 20
1125.769858693271
 30
0.0
 42
0.2832291649869114
  0
VERTEX
  5
109
330
105
100
AcDbEntity
  8
Make2D$可见线$普通线
100
AcDbVertex
100
AcDb2dVertex
 10
649.1738221321949
 20
1127.556324173486
 30
0.0
  0
VERTEX
  5
10A
330
105
100
AcDbEntity
  8
Make2D$可见线$普通线
100
AcDbVertex
100
AcDb2dVertex
 10
649.1738221758636
 20
1135.511553341075
 30
0.0
 42
-0.4142135623730249
  0
VERTEX
  5
10B
330
105
100
AcDbEntity
  8
Make2D$可见线$普通线
100
AcDbVertex
100
AcDb2dVertex
 10
650.1737884059138
 20
1136.511553341075
 30
0.0
  0
VERTEX
  5
10C
330
105
100
AcDbEntity
  8
Make2D$可见线$普通线
100
AcDbVertex
100
AcDb2dVertex
 10
650.3511258120328
 20
1136.511553341075
 30
0.0
  0
SEQEND
  5
10D
330
105
100
AcDbEntity
  8
Make2D$可见线$普通线
  0
POLYLINE
  5
10E
330
1F
100
AcDbEntity
  8
Make2D$可见线$普通线
100
AcDb2dPolyline
 66
     1
 10
0.0
 20
0.0
 30
0.0
  0
VERTEX
  5
10F
330
10E
100
AcDbEntity
  8
Make2D$可见线$普通线
100
AcDbVertex
100
AcDb2dVertex
 10
770.2417307997171
 20
1124.32810973235
 30
0.0
 42
0.1548649235616471
  0
VERTEX
  5
110
330
10E
100
AcDbEntity
  8
Make2D$可见线$普通线
100
AcDbVertex
100
AcDb2dVertex
 10
769.6644943600988
 20
1124.511711468056
 30
0.0
  0
VERTEX
  5
111
330
10E
100
AcDbEntity
  8
Make2D$可见线$普通线
100
AcDbVertex
100
AcDb2dVertex
 10
665.9532064558327
 20
1124.511576643609
 30
0.0
 42
-0.0572629957700259
  0
VERTEX
  5
112
330
10E
100
AcDbEntity
  8
Make2D$可见线$普通线
100
AcDbVertex
100
AcDb2dVertex
 10
663.5921216048307
 20
1124.79434747145
 30
0.0
  0
VERTEX
  5
113
330
10E
100
AcDbEntity
  8
Make2D$可见线$普通线
100
AcDbVertex
100
AcDb2dVertex
 10
663.2868015721422
 20
1124.870621480662
 30
0.0
 42
-0.0240677175737149
  0
VERTEX
  5
114
330
10E
100
AcDbEntity
  8
Make2D$可见线$普通线
100
AcDbVertex
100
AcDb2dVertex
 10
663.0488014068776
 20
1124.957586457333
 30
0.0
 42
0.0105831933878311
  0
VERTEX
  5
115
330
10E
100
AcDbEntity
  8
Make2D$可见线$普通线
100
AcDbVertex
100
AcDb2dVertex
 10
662.0493225325131
 20
1125.307425684497
 30
0.0
  0
VERTEX
  5
116
330
10E
100
AcDbEntity
  8
Make2D$可见线$普通线
100
AcDbVertex
100
AcDb2dVertex
 10
661.5869803124529
 20
1125.453407008135
 30
0.0
  0
VERTEX
  5
117
330
10E
100
AcDbEntity
  8
Make2D$可见线$普通线
100
AcDbVertex
100
AcDb2dVertex
 10
661.1925426797329
 20
1125.570245338663
 30
0.0
  0
VERTEX
  5
118
330
10E
100
AcDbEntity
  8
Make2D$可见线$普通线
100
AcDbVertex
100
AcDb2dVertex
 10
660.7298783868367
 20
1125.698290919886
 30
0.0
  0
VERTEX
  5
119
330
10E
100
AcDbEntity
  8
Make2D$可见线$普通线
100
AcDbVertex
100
AcDb2dVertex
 10
660.6228772569275
 20
1125.722078903718
 30
0.0
  0
VERTEX
  5
11A
330
10E
100
AcDbEntity
  8
Make2D$可见线$普通线
100
AcDbVertex
100
AcDb2dVertex
 10
660.703292047835
 20
1125.685268674801
 30
0.0
  0
VERTEX
  5
11B
330
10E
100
AcDbEntity
  8
Make2D$可见线$普通线
100
AcDbVertex
100
AcDb2dVertex
 10
660.695965528366
 20
1125.68800532581
 30
0.0
  0
SEQEND
  5
11C
330
10E
100
AcDbEntity
  8
Make2D$可见线$普通线
  0
POLYLINE
  5
11D
330
1F
100
AcDbEntity
  8
Make2D$可见线$普通线
100
AcDb2dPolyline
 66
     1
 10
0.0
 20
0.0
 30
0.0
  0
VERTEX
  5
11E
330
11D
100
AcDbEntity
  8
Make2D$可见线$普通线
100
AcDbVertex
100
AcDb2dVertex
 10
637.2573482186624
 20
1083.116681473485
 30
0.0
 42
0.1416668896767971
  0
VERTEX
  5
11F
330
11D
100
AcDbEntity
  8
Make2D$可见线$普通线
100
AcDbVertex
100
AcDb2dVertex
 10
634.5888751163604
 20
1083.887832997499
 30
0.0
  0
VERTEX
  5
120
330
11D
100
AcDbEntity
  8
Make2D$可见线$普通线
100
AcDbVertex
100
AcDb2dVertex
 10
595.818880335165
 20
1083.881520658994
 30
0.0
 42
-0.4138381663964938
  0
VERTEX
  5
121
330
11D
100
AcDbEntity
  8
Make2D$可见线$普通线
100
AcDbVertex
100
AcDb2dVertex
 10
594.8187180779954
 20
1084.882935262517
 30
0.0
  0
VERTEX
  5
122
330
11D
100
AcDbEntity
  8
Make2D$可见线$普通线
100
AcDbVertex
100
AcDb2dVertex
 10
594.8186981423016
 20
1085.016834644514
 30
0.0
  0
VERTEX
  5
123
330
11D
100
AcDbEntity
  8
Make2D$可见线$普通线
100
AcDbVertex
100
AcDb2dVertex
 10
594.8186970416918
 20
1085.075734169471
 30
0.0
  0
VERTEX
  5
124
330
11D
100
AcDbEntity
  8
Make2D$可见线$普通线
100
AcDbVertex
100
AcDb2dVertex
 10
594.8186981751743
 20
1085.224435680902
 30
0.0
  0
VERTEX
  5
125
330
11D
100
AcDbEntity
  8
Make2D$可见线$普通线
100
AcDbVertex
100
AcDb2dVertex
 10
594.818702437002
 20
1085.378081107876
 30
0.0
  0
VERTEX
  5
126
330
11D
100
AcDbEntity
  8
Make2D$可见线$普通线
100
AcDbVertex
100
AcDb2dVertex
 10
594.8187072371727
 20
1085.502936285977
 30
0.0
  0
VERTEX
  5
127
330
11D
100
AcDbEntity
  8
Make2D$可见线$普通线
100
AcDbVertex
100
AcDb2dVertex
 10
594.8187257984943
 20
1085.876053676787
 30
0.0
  0
VERTEX
  5
128
330
11D
100
AcDbEntity
  8
Make2D$可见线$普通线
100
AcDbVertex
100
AcDb2dVertex
 10
594.8187350228587
 20
1086.035614914957
 30
0.0
  0
VERTEX
  5
129
330
11D
100
AcDbEntity
  8
Make2D$可见线$普通线
100
AcDbVertex
100
AcDb2dVertex
 10
594.8187433069459
 20
1086.171395257926
 30
0.0
  0
VERTEX
  5
12A
330
11D
100
AcDbEntity
  8
Make2D$可见线$普通线
100
AcDbVertex
100
AcDb2dVertex
 10
594.8187553198012
 20
1086.359337460645
 30
0.0
  0
VERTEX
  5
12B
330
11D
100
AcDbEntity
  8
Make2D$可见线$普通线
100
AcDbVertex
100
AcDb2dVertex
 10
594.8187648321239
 20
1086.502483784269
 30
0.0
  0
VERTEX
  5
12C
330
11D
100
AcDbEntity
  8
Make2D$可见线$普通线
100
AcDbVertex
100
AcDb2dVertex
 10
594.8187797999437
 20
1086.720066804162
 30
0.0
  0
VERTEX
  5
12D
330
11D
100
AcDbEntity
  8
Make2D$可见线$普通线
100
AcDbVertex
100
AcDb2dVertex
 10
594.818790315501
 20
1086.868463614407
 30
0.0
  0
VERTEX
  5
12E
330
11D
100
AcDbEntity
  8
Make2D$可见线$普通线
100
AcDbVertex
100
AcDb2dVertex
 10
594.8188083986167
 20
1087.11686642904
 30
0.0
  0
VERTEX
  5
12F
330
11D
100
AcDbEntity
  8
Make2D$可见线$普通线
100
AcDbVertex
100
AcDb2dVertex
 10
594.8188196985461
 20
1087.268479047802
 30
0.0
  0
VERTEX
  5
130
330
11D
100
AcDbEntity
  8
Make2D$可见线$普通线
100
AcDbVertex
100
AcDb2dVertex
 10
594.8188410511274
 20
1087.548799818883
 30
0.0
  0
VERTEX
  5
131
330
11D
100
AcDbEntity
  8
Make2D$可见线$普通线
100
AcDbVertex
100
AcDb2dVertex
 10
594.8188529227289
 20
1087.701674402075
 30
0.0
  0
VERTEX
  5
132
330
11D
100
AcDbEntity
  8
Make2D$可见线$普通线
100
AcDbVertex
100
AcDb2dVertex
 10
594.8188776927561
 20
1088.014930457326
 30
0.0
  0
VERTEX
  5
133
330
11D
100
AcDbEntity
  8
Make2D$可见线$普通线
100
AcDbVertex
100
AcDb2dVertex
 10
594.8189090051367
 20
1088.401702319378
 30
0.0
  0
VERTEX
  5
134
330
11D
100
AcDbEntity
  8
Make2D$可见线$普通线
100
AcDbVertex
100
AcDb2dVertex
 10
594.8190230602509
 20
1089.749141515313
 30
0.0
  0
VERTEX
  5
135
330
11D
100
AcDbEntity
  8
Make2D$可见线$普通线
100
AcDbVertex
100
AcDb2dVertex
 10
594.8191436430959
 20
1091.104747700183
 30
0.0
  0
VERTEX
  5
136
330
11D
100
AcDbEntity
  8
Make2D$可见线$普通线
100
AcDbVertex
100
AcDb2dVertex
 10
594.8191593673228
 20
1091.277828598699
 30
0.0
  0
VERTEX
  5
137
330
11D
100
AcDbEntity
  8
Make2D$可见线$普通线
100
AcDbVertex
100
AcDb2dVertex
 10
594.819240172347
 20
1092.156598695889
 30
0.0
  0
VERTEX
  5
138
330
11D
100
AcDbEntity
  8
Make2D$可见线$普通线
100
AcDbVertex
100
AcDb2dVertex
 10
594.8192508513891
 20
1092.271519231707
 30
0.0
  0
VERTEX
  5
139
330
11D
100
AcDbEntity
  8
Make2D$可见线$普通线
100
AcDbVertex
100
AcDb2dVertex
 10
594.819296836642
 20
1092.763476026345
 30
0.0
  0
VERTEX
  5
13A
330
11D
100
AcDbEntity
  8
Make2D$可见线$普通线
100
AcDbVertex
100
AcDb2dVertex
 10
594.8193155233172
 20
1092.962112319381
 30
0.0
  0
VERTEX
  5
13B
330
11D
100
AcDbEntity
  8
Make2D$可见线$普通线
100
AcDbVertex
100
AcDb2dVertex
 10
594.819363409536
 20
1093.468010922084
 30
0.0
  0
VERTEX
  5
13C
330
11D
100
AcDbEntity
  8
Make2D$可见线$普通线
100
AcDbVertex
100
AcDb2dVertex
 10
594.8193829402219
 20
1093.673120875287
 30
0.0
  0
VERTEX
  5
13D
330
11D
100
AcDbEntity
  8
Make2D$可见线$普通线
100
AcDbVertex
100
AcDb2dVertex
 10
594.8194392180279
 20
1094.260448273045
 30
0.0
  0
VERTEX
  5
13E
330
11D
100
AcDbEntity
  8
Make2D$可见线$普通线
100
AcDbVertex
100
AcDb2dVertex
 10
594.8194529297625
 20
1094.402752901448
 30
0.0
  0
VERTEX
  5
13F
330
11D
100
AcDbEntity
  8
Make2D$可见线$普通线
100
AcDbVertex
100
AcDb2dVertex
 10
594.8195232631099
 20
1095.128118296012
 30
0.0
  0
VERTEX
  5
140
330
11D
100
AcDbEntity
  8
Make2D$可见线$普通线
100
AcDbVertex
100
AcDb2dVertex
 10
594.8195253195984
 20
1095.149216399891
 30
0.0
  0
VERTEX
  5
141
330
11D
100
AcDbEntity
  8
Make2D$可见线$普通线
100
AcDbVertex
100
AcDb2dVertex
 10
594.8195350246203
 20
1095.248700751297
 30
0.0
  0
VERTEX
  5
142
330
11D
100
AcDbEntity
  8
Make2D$可见线$普通线
100
AcDbVertex
100
AcDb2dVertex
 10
594.8195999373895
 20
1095.91071937264
 30
0.0
  0
VERTEX
  5
143
330
11D
100
AcDbEntity
  8
Make2D$可见线$普通线
100
AcDbVertex
100
AcDb2dVertex
 10
594.8196619236456
 20
1096.537643100707
 30
0.0
  0
VERTEX
  5
144
330
11D
100
AcDbEntity
  8
Make2D$可见线$普通线
100
AcDbVertex
100
AcDb2dVertex
 10
594.8196766107949
 20
1096.685469821718
 30
0.0
  0
VERTEX
  5
145
330
11D
100
AcDbEntity
  8
Make2D$可见线$普通线
100
AcDbVertex
100
AcDb2dVertex
 10
594.819684316933
 20
1096.762925091653
 30
0.0
  0
VERTEX
  5
146
330
11D
100
AcDbEntity
  8
Make2D$可见线$普通线
100
AcDbVertex
100
AcDb2dVertex
 10
594.8197156644967
 20
1097.077252850515
 30
0.0
  0
VERTEX
  5
147
330
11D
100
AcDbEntity
  8
Make2D$可见线$普通线
100
AcDbVertex
100
AcDb2dVertex
 10
594.8198408208972
 20
1098.32068604656
 30
0.0
  0
VERTEX
  5
148
330
11D
100
AcDbEntity
  8
Make2D$可见线$普通线
100
AcDbVertex
100
AcDb2dVertex
 10
594.8198761566372
 20
1098.668543666653
 30
0.0
  0
VERTEX
  5
149
330
11D
100
AcDbEntity
  8
Make2D$可见线$普通线
100
AcDbVertex
100
AcDb2dVertex
 10
594.8199621352359
 20
1099.509306157086
 30
0.0
  0
VERTEX
  5
14A
330
11D
100
AcDbEntity
  8
Make2D$可见线$普通线
100
AcDbVertex
100
AcDb2dVertex
 10
594.8200004137512
 20
1099.881106421843
 30
0.0
  0
VERTEX
  5
14B
330
11D
100
AcDbEntity
  8
Make2D$可见线$普通线
100
AcDbVertex
100
AcDb2dVertex
 10
594.8200032127829
 20
1099.908233619257
 30
0.0
  0
VERTEX
  5
14C
330
11D
100
AcDbEntity
  8
Make2D$可见线$普通线
100
AcDbVertex
100
AcDb2dVertex
 10
594.8200424584684
 20
1100.287736416462
 30
0.0
  0
VERTEX
  5
14D
330
11D
100
AcDbEntity
  8
Make2D$可见线$普通线
100
AcDbVertex
100
AcDb2dVertex
 10
594.8200445755351
 20
1100.308163253807
 30
0.0
  0
VERTEX
  5
14E
330
11D
100
AcDbEntity
  8
Make2D$可见线$普通线
100
AcDbVertex
100
AcDb2dVertex
 10
594.8200847801214
 20
1100.69521428295
 30
0.0
  0
VERTEX
  5
14F
330
11D
100
AcDbEntity
  8
Make2D$可见线$普通线
100
AcDbVertex
100
AcDb2dVertex
 10
594.8200862028108
 20
1100.708880421676
 30
0.0
  0
VERTEX
  5
150
330
11D
100
AcDbEntity
  8
Make2D$可见线$普通线
100
AcDbVertex
100
AcDb2dVertex
 10
594.8201280738899
 20
1101.110170157754
 30
0.0
  0
VERTEX
  5
151
330
11D
100
AcDbEntity
  8
Make2D$可见线$普通线
100
AcDbVertex
100
AcDb2dVertex
 10
594.820170168063
 20
1101.511817632537
 30
0.0
  0
VERTEX
  5
152
330
11D
100
AcDbEntity
  8
Make2D$可见线$普通线
100
AcDbVertex
100
AcDb2dVertex
 10
594.8202137900404
 20
1101.927163780661
 30
0.0
  0
VERTEX
  5
153
330
11D
100
AcDbEntity
  8
Make2D$可见线$普通线
100
AcDbVertex
100
AcDb2dVertex
 10
594.8202561190121
 20
1102.328398133444
 30
0.0
  0
VERTEX
  5
154
330
11D
100
AcDbEntity
  8
Make2D$可见线$普通线
100
AcDbVertex
100
AcDb2dVertex
 10
594.8202575642592
 20
1102.342066670344
 30
0.0
  0
VERTEX
  5
155
330
11D
100
AcDbEntity
  8
Make2D$可见线$普通线
100
AcDbVertex
100
AcDb2dVertex
 10
594.8202992945481
 20
1102.735864702532
 30
0.0
  0
VERTEX
  5
156
330
11D
100
AcDbEntity
  8
Make2D$可见线$普通线
100
AcDbVertex
100
AcDb2dVertex
 10
594.8203014641401
 20
1102.756292894566
 30
0.0
  0
VERTEX
  5
157
330
11D
100
AcDbEntity
  8
Make2D$可见线$普通线
100
AcDbVertex
100
AcDb2dVertex
 10
594.820342569504
 20
1103.142483416886
 30
0.0
  0
VERTEX
  5
158
330
11D
100
AcDbEntity
  8
Make2D$可见线$普通线
100
AcDbVertex
100
AcDb2dVertex
 10
594.8203454631039
 20
1103.169609046304
 30
0.0
  0
VERTEX
  5
159
330
11D
100
AcDbEntity
  8
Make2D$可见线$普通线
100
AcDbVertex
100
AcDb2dVertex
 10
594.8203859184368
 20
1103.548030484214
 30
0.0
  0
VERTEX
  5
15A
330
11D
100
AcDbEntity
  8
Make2D$可见线$普通线
100
AcDbVertex
100
AcDb2dVertex
 10
594.8204777887041
 20
1104.401762996396
 30
0.0
  0
VERTEX
  5
15B
330
11D
100
AcDbEntity
  8
Make2D$可见线$普通线
100
AcDbVertex
100
AcDb2dVertex
 10
594.8205161543301
 20
1104.756001206706
 30
0.0
  0
VERTEX
  5
15C
330
11D
100
AcDbEntity
  8
Make2D$可见线$普通线
100
AcDbVertex
100
AcDb2dVertex
 10
594.8205219182101
 20
1104.809104787979
 30
0.0
  0
VERTEX
  5
15D
330
11D
100
AcDbEntity
  8
Make2D$可见线$普通线
100
AcDbVertex
100
AcDb2dVertex
 10
594.8205595444185
 20
1105.155021379523
 30
0.0
  0
VERTEX
  5
15E
330
11D
100
AcDbEntity
  8
Make2D$可见线$普通线
100
AcDbVertex
100
AcDb2dVertex
 10
594.8205660139045
 20
1105.214369471968
 30
0.0
  0
VERTEX
  5
15F
330
11D
100
AcDbEntity
  8
Make2D$可见线$普通线
100
AcDbVertex
100
AcDb2dVertex
 10
594.8206028811051
 20
1105.551849878055
 30
0.0
  0
VERTEX
  5
160
330
11D
100
AcDbEntity
  8
Make2D$可见线$普通线
100
AcDbVertex
100
AcDb2dVertex
 10
594.8207415269818
 20
1106.809988991545
 30
0.0
  0
VERTEX
  5
161
330
11D
100
AcDbEntity
  8
Make2D$可见线$普通线
100
AcDbVertex
100
AcDb2dVertex
 10
594.8207751841334
 20
1107.112767445922
 30
0.0
  0
VERTEX
  5
162
330
11D
100
AcDbEntity
  8
Make2D$可见线$普通线
100
AcDbVertex
100
AcDb2dVertex
 10
594.8209992638075
 20
1109.10142584934
 30
0.0
  0
VERTEX
  5
163
330
11D
100
AcDbEntity
  8
Make2D$可见线$普通线
100
AcDbVertex
100
AcDb2dVertex
 10
594.8210277031997
 20
1109.350316259624
 30
0.0
  0
VERTEX
  5
164
330
11D
100
AcDbEntity
  8
Make2D$可见线$普通线
100
AcDbVertex
100
AcDb2dVertex
 10
594.8210828501437
 20
1109.830571131482
 30
0.0
  0
VERTEX
  5
165
330
11D
100
AcDbEntity
  8
Make2D$可见线$普通线
100
AcDbVertex
100
AcDb2dVertex
 10
594.8211094772951
 20
1110.061311026842
 30
0.0
  0
VERTEX
  5
166
330
11D
100
AcDbEntity
  8
Make2D$可见线$普通线
100
AcDbVertex
100
AcDb2dVertex
 10
594.8211649191237
 20
1110.5392708181
 30
0.0
  0
VERTEX
  5
167
330
11D
100
AcDbEntity
  8
Make2D$可见线$普通线
100
AcDbVertex
100
AcDb2dVertex
 10
594.8211897117006
 20
1110.751891919488
 30
0.0
  0
VERTEX
  5
168
330
11D
100
AcDbEntity
  8
Make2D$可见线$普通线
100
AcDbVertex
100
AcDb2dVertex
 10
594.8212452581153
 20
1111.22565765302
 30
0.0
  0
VERTEX
  5
169
330
11D
100
AcDbEntity
  8
Make2D$可见线$普通线
100
AcDbVertex
100
AcDb2dVertex
 10
594.8212682021588
 20
1111.420266984376
 30
0.0
  0
VERTEX
  5
16A
330
11D
100
AcDbEntity
  8
Make2D$可见线$普通线
100
AcDbVertex
100
AcDb2dVertex
 10
594.8212847124179
 20
1111.559900233538
 30
0.0
  0
VERTEX
  5
16B
330
11D
100
AcDbEntity
  8
Make2D$可见线$普通线
100
AcDbVertex
100
AcDb2dVertex
 10
594.8213067295624
 20
1111.745567441995
 30
0.0
  0
VERTEX
  5
16C
330
11D
100
AcDbEntity
  8
Make2D$可见线$普通线
100
AcDbVertex
100
AcDb2dVertex
 10
594.8213236544864
 20
1111.887864380064
 30
0.0
  0
VERTEX
  5
16D
330
11D
100
AcDbEntity
  8
Make2D$可见线$普通线
100
AcDbVertex
100
AcDb2dVertex
 10
594.8213278381855
 20
1111.922980611362
 30
0.0
  0
VERTEX
  5
16E
330
11D
100
AcDbEntity
  8
Make2D$可见线$普通线
100
AcDbVertex
100
AcDb2dVertex
 10
594.8213620577418
 20
1112.209316685578
 30
0.0
  0
VERTEX
  5
16F
330
11D
100
AcDbEntity
  8
Make2D$可见线$普通线
100
AcDbVertex
100
AcDb2dVertex
 10
594.8213725996657
 20
1112.297201640784
 30
0.0
  0
VERTEX
  5
170
330
11D
100
AcDbEntity
  8
Make2D$可见线$普通线
100
AcDbVertex
100
AcDb2dVertex
 10
594.8215097510517
 20
1113.425339357061
 30
0.0
  0
VERTEX
  5
171
330
11D
100
AcDbEntity
  8
Make2D$可见线$普通线
100
AcDbVertex
100
AcDb2dVertex
 10
594.8217034610072
 20
1114.960683264836
 30
0.0
  0
VERTEX
  5
172
330
11D
100
AcDbEntity
  8
Make2D$可见线$普通线
100
AcDbVertex
100
AcDb2dVertex
 10
594.8217525551779
 20
1115.336425540885
 30
0.0
  0
VERTEX
  5
173
330
11D
100
AcDbEntity
  8
Make2D$可见线$普通线
100
AcDbVertex
100
AcDb2dVertex
 10
594.8217625458549
 20
1115.412104101938
 30
0.0
  0
VERTEX
  5
174
330
11D
100
AcDbEntity
  8
Make2D$可见线$普通线
100
AcDbVertex
100
AcDb2dVertex
 10
594.8218105872188
 20
1115.771958647955
 30
0.0
  0
VERTEX
  5
175
330
11D
100
AcDbEntity
  8
Make2D$可见线$普通线
100
AcDbVertex
100
AcDb2dVertex
 10
594.821818698193
 20
1115.832010775202
 30
0.0
  0
VERTEX
  5
176
330
11D
100
AcDbEntity
  8
Make2D$可见线$普通线
100
AcDbVertex
100
AcDb2dVertex
 10
594.8218654448563
 20
1116.173732676339
 30
0.0
  0
VERTEX
  5
177
330
11D
100
AcDbEntity
  8
Make2D$可见线$普通线
100
AcDbVertex
100
AcDb2dVertex
 10
594.821871804049
 20
1116.219602862237
 30
0.0
  0
VERTEX
  5
178
330
11D
100
AcDbEntity
  8
Make2D$可见线$普通线
100
AcDbVertex
100
AcDb2dVertex
 10
594.8219170038928
 20
1116.540870782713
 30
0.0
  0
VERTEX
  5
179
330
11D
100
AcDbEntity
  8
Make2D$可见线$普通线
100
AcDbVertex
100
AcDb2dVertex
 10
594.8219217494611
 20
1116.574080023982
 30
0.0
  0
VERTEX
  5
17A
330
11D
100
AcDbEntity
  8
Make2D$可见线$普通线
100
AcDbVertex
100
AcDb2dVertex
 10
594.8219651401076
 20
1116.872496123747
 30
0.0
  0
VERTEX
  5
17B
330
11D
100
AcDbEntity
  8
Make2D$可见线$普通线
100
AcDbVertex
100
AcDb2dVertex
 10
594.8219684204623
 20
1116.894641881332
 30
0.0
  0
VERTEX
  5
17C
330
11D
100
AcDbEntity
  8
Make2D$可见线$普通线
100
AcDbVertex
100
AcDb2dVertex
 10
594.8219712305768
 20
1116.913562889874
 30
0.0
  0
VERTEX
  5
17D
330
11D
100
AcDbEntity
  8
Make2D$可见线$普通线
100
AcDbVertex
100
AcDb2dVertex
 10
594.8220117030867
 20
1117.180488062995
 30
0.0
  0
VERTEX
  5
17E
330
11D
100
AcDbEntity
  8
Make2D$可见线$普通线
100
AcDbVertex
100
AcDb2dVertex
 10
594.8220696904302
 20
1117.540436861882
 30
0.0
  0
VERTEX
  5
17F
330
11D
100
AcDbEntity
  8
Make2D$可见线$普通线
100
AcDbVertex
100
AcDb2dVertex
 10
594.8221513588467
 20
1117.972689997542
 30
0.0
  0
VERTEX
  5
180
330
11D
100
AcDbEntity
  8
Make2D$可见线$普通线
100
AcDbVertex
100
AcDb2dVertex
 10
594.8221640680509
 20
1118.026105773484
 30
0.0
  0
VERTEX
  5
181
330
11D
100
AcDbEntity
  8
Make2D$可见线$普通线
100
AcDbVertex
100
AcDb2dVertex
 10
594.8222073832171
 20
1118.14066992659
 30
0.0
 42
-0.4148354908337404
  0
VERTEX
  5
182
330
11D
100
AcDbEntity
  8
Make2D$可见线$普通线
100
AcDbVertex
100
AcDb2dVertex
 10
595.8220522928951
 20
1119.141884136816
 30
0.0
  0
VERTEX
  5
183
330
11D
100
AcDbEntity
  8
Make2D$可见线$普通线
100
AcDbVertex
100
AcDb2dVertex
 10
634.6049974076147
 20
1119.147896793907
 30
0.0
 42
0.1347770852769058
  0
VERTEX
  5
184
330
11D
100
AcDbEntity
  8
Make2D$可见线$普通线
100
AcDbVertex
100
AcDb2dVertex
 10
637.167695337179
 20
1119.855170730499
 30
0.0
  0
VERTEX
  5
185
330
11D
100
AcDbEntity
  8
Make2D$可见线$普通线
100
AcDbVertex
100
AcDb2dVertex
 10
637.2447786326898
 20
1119.902091751984
 30
0.0
  0
SEQEND
  5
186
330
11D
100
AcDbEntity
  8
Make2D$可见线$普通线
  0
POLYLINE
  5
187
330
1F
100
AcDbEntity
  8
Make2D$可见线$普通线
100
AcDb2dPolyline
 66
     1
 10
0.0
 20
0.0
 30
0.0
  0
VERTEX
  5
188
330
187
100
AcDbEntity
  8
Make2D$可见线$普通线
100
AcDbVertex
100
AcDb2dVertex
 10
630.9695578615574
 20
1092.511553341075
 30
0.0
  0
VERTEX
  5
189
330
187
100
AcDbEntity
  8
Make2D$可见线$普通线
100
AcDbVertex
100
AcDb2dVertex
 10
627.2915533746315
 20
1092.511455540229
 30
0.0
 42
-0.4154273687096939
  0
VERTEX
  5
18A
330
187
100
AcDbEntity
  8
Make2D$可见线$普通线
100
AcDbVertex
100
AcDb2dVertex
 10
626.2915533746313
 20
1093.515304425727
 30
0.0
  0
VERTEX
  5
18B
330
187
100
AcDbEntity
  8
Make2D$可见线$普通线
100
AcDbVertex
100
AcDb2dVertex
 10
626.2915533746315
 20
1109.507802256429
 30
0.0
 42
-0.4154273687075872
  0
VERTEX
  5
18C
330
187
100
AcDbEntity
  8
Make2D$可见线$普通线
100
AcDbVertex
100
AcDb2dVertex
 10
627.2915533746315
 20
1110.511651141921
 30
0.0
  0
VERTEX
  5
18D
330
187
100
AcDbEntity
  8
Make2D$可见线$普通线
100
AcDbVertex
100
AcDb2dVertex
 10
630.9677457952428
 20
1110.511553341075
 30
0.0
  0
SEQEND
  5
18E
330
187
100
AcDbEntity
  8
Make2D$可见线$普通线
  0
POLYLINE
  5
18F
330
1F
100
AcDbEntity
  8
Make2D$可见线$普通线
100
AcDb2dPolyline
 66
     1
 10
0.0
 20
0.0
 30
0.0
  0
VERTEX
  5
190
330
18F
100
AcDbEntity
  8
Make2D$可见线$普通线
100
AcDbVertex
100
AcDb2dVertex
 10
644.0264846850089
 20
1068.12462929751
 30
0.0
 42
-0.0603655033600974
  0
VERTEX
  5
191
330
18F
100
AcDbEntity
  8
Make2D$可见线$普通线
100
AcDbVertex
100
AcDb2dVertex
 10
643.7472456837645
 20
1068.173225489597
 30
0.0
  0
VERTEX
  5
192
330
18F
100
AcDbEntity
  8
Make2D$可见线$普通线
100
AcDbVertex
100
AcDb2dVertex
 10
643.745633304181
 20
1068.174047024304
 30
0.0
  0
VERTEX
  5
193
330
18F
100
AcDbEntity
  8
Make2D$可见线$普通线
100
AcDbVertex
100
AcDb2dVertex
 10
643.7441249044343
 20
1068.174868486157
 30
0.0
  0
VERTEX
  5
194
330
18F
100
AcDbEntity
  8
Make2D$可见线$普通线
100
AcDbVertex
100
AcDb2dVertex
 10
643.7427204906859
 20
1068.175689880826
 30
0.0
  0
VERTEX
  5
195
330
18F
100
AcDbEntity
  8
Make2D$可见线$普通线
100
AcDbVertex
100
AcDb2dVertex
 10
643.7420572804863
 20
1068.176100554738
 30
0.0
  0
VERTEX
  5
196
330
18F
100
AcDbEntity
  8
Make2D$可见线$普通线
100
AcDbVertex
100
AcDb2dVertex
 10
643.7414200690966
 20
1068.176511213981
 30
0.0
  0
VERTEX
  5
197
330
18F
100
AcDbEntity
  8
Make2D$可见线$普通线
100
AcDbVertex
100
AcDb2dVertex
 10
643.7408088572871
 20
1068.176921859264
 30
0.0
  0
VERTEX
  5
198
330
18F
100
AcDbEntity
  8
Make2D$可见线$普通线
100
AcDbVertex
100
AcDb2dVertex
 10
643.7402236458279
 20
1068.177332491295
 30
0.0
  0
VERTEX
  5
199
330
18F
100
AcDbEntity
  8
Make2D$可见线$普通线
100
AcDbVertex
100
AcDb2dVertex
 10
643.7396644354892
 20
1068.177743110783
 30
0.0
  0
VERTEX
  5
19A
330
18F
100
AcDbEntity
  8
Make2D$可见线$普通线
100
AcDbVertex
100
AcDb2dVertex
 10
643.7391312270412
 20
1068.178153718437
 30
0.0
  0
VERTEX
  5
19B
330
18F
100
AcDbEntity
  8
Make2D$可见线$普通线
100
AcDbVertex
100
AcDb2dVertex
 10
643.7386240212539
 20
1068.178564314966
 30
0.0
  0
VERTEX
  5
19C
330
18F
100
AcDbEntity
  8
Make2D$可见线$普通线
100
AcDbVertex
100
AcDb2dVertex
 10
643.7381428188975
 20
1068.178974901079
 30
0.0
  0
VERTEX
  5
19D
330
18F
100
AcDbEntity
  8
Make2D$可见线$普通线
100
AcDbVertex
100
AcDb2dVertex
 10
643.737687620742
 20
1068.179385477484
 30
0.0
  0
VERTEX
  5
19E
330
18F
100
AcDbEntity
  8
Make2D$可见线$普通线
100
AcDbVertex
100
AcDb2dVertex
 10
643.7372584275579
 20
1068.179796044891
 30
0.0
  0
VERTEX
  5
19F
330
18F
100
AcDbEntity
  8
Make2D$可见线$普通线
100
AcDbVertex
100
AcDb2dVertex
 10
643.7368552401151
 20
1068.180206604008
 30
0.0
  0
VERTEX
  5
1A0
330
18F
100
AcDbEntity
  8
Make2D$可见线$普通线
100
AcDbVertex
100
AcDb2dVertex
 10
643.7364780591838
 20
1068.180617155545
 30
0.0
  0
VERTEX
  5
1A1
330
18F
100
AcDbEntity
  8
Make2D$可见线$普通线
100
AcDbVertex
100
AcDb2dVertex
 10
643.7362992214007
 20
1068.180822428692
 30
0.0
  0
VERTEX
  5
1A2
330
18F
100
AcDbEntity
  8
Make2D$可见线$普通线
100
AcDbVertex
100
AcDb2dVertex
 10
643.7361268855342
 20
1068.18102770021
 30
0.0
  0
VERTEX
  5
1A3
330
18F
100
AcDbEntity
  8
Make2D$可见线$普通线
100
AcDbVertex
100
AcDb2dVertex
 10
643.7359610516808
 20
1068.181232970187
 30
0.0
  0
VERTEX
  5
1A4
330
18F
100
AcDbEntity
  8
Make2D$可见线$普通线
100
AcDbVertex
100
AcDb2dVertex
 10
643.7358017199365
 20
1068.181438238711
 30
0.0
  0
VERTEX
  5
1A5
330
18F
100
AcDbEntity
  8
Make2D$可见线$普通线
100
AcDbVertex
100
AcDb2dVertex
 10
643.7356488903978
 20
1068.181643505872
 30
0.0
  0
VERTEX
  5
1A6
330
18F
100
AcDbEntity
  8
Make2D$可见线$普通线
100
AcDbVertex
100
AcDb2dVertex
 10
643.7355025631608
 20
1068.181848771758
 30
0.0
  0
VERTEX
  5
1A7
330
18F
100
AcDbEntity
  8
Make2D$可见线$普通线
100
AcDbVertex
100
AcDb2dVertex
 10
643.7353627383219
 20
1068.182054036458
 30
0.0
  0
VERTEX
  5
1A8
330
18F
100
AcDbEntity
  8
Make2D$可见线$普通线
100
AcDbVertex
100
AcDb2dVertex
 10
643.7352294159773
 20
1068.182259300061
 30
0.0
  0
VERTEX
  5
1A9
330
18F
100
AcDbEntity
  8
Make2D$可见线$普通线
100
AcDbVertex
100
AcDb2dVertex
 10
643.7351025962232
 20
1068.182464562654
 30
0.0
  0
VERTEX
  5
1AA
330
18F
100
AcDbEntity
  8
Make2D$可见线$普通线
100
AcDbVertex
100
AcDb2dVertex
 10
643.7349822791559
 20
1068.182669824326
 30
0.0
  0
VERTEX
  5
1AB
330
18F
100
AcDbEntity
  8
Make2D$可见线$普通线
100
AcDbVertex
100
AcDb2dVertex
 10
643.7348684648719
 20
1068.182875085167
 30
0.0
  0
VERTEX
  5
1AC
330
18F
100
AcDbEntity
  8
Make2D$可见线$普通线
100
AcDbVertex
100
AcDb2dVertex
 10
643.7347611534672
 20
1068.183080345264
 30
0.0
  0
VERTEX
  5
1AD
330
18F
100
AcDbEntity
  8
Make2D$可见线$普通线
100
AcDbVertex
100
AcDb2dVertex
 10
643.734660345038
 20
1068.183285604707
 30
0.0
  0
VERTEX
  5
1AE
330
18F
100
AcDbEntity
  8
Make2D$可见线$普通线
100
AcDbVertex
100
AcDb2dVertex
 10
643.7345660396809
 20
1068.183490863584
 30
0.0
  0
VERTEX
  5
1AF
330
18F
100
AcDbEntity
  8
Make2D$可见线$普通线
100
AcDbVertex
100
AcDb2dVertex
 10
643.734478237492
 20
1068.183696121983
 30
0.0
  0
VERTEX
  5
1B0
330
18F
100
AcDbEntity
  8
Make2D$可见线$普通线
100
AcDbVertex
100
AcDb2dVertex
 10
643.7343969385676
 20
1068.183901379994
 30
0.0
  0
VERTEX
  5
1B1
330
18F
100
AcDbEntity
  8
Make2D$可见线$普通线
100
AcDbVertex
100
AcDb2dVertex
 10
643.7343221430039
 20
1068.184106637704
 30
0.0
  0
VERTEX
  5
1B2
330
18F
100
AcDbEntity
  8
Make2D$可见线$普通线
100
AcDbVertex
100
AcDb2dVertex
 10
643.7342538508972
 20
1068.184311895202
 30
0.0
  0
VERTEX
  5
1B3
330
18F
100
AcDbEntity
  8
Make2D$可见线$普通线
100
AcDbVertex
100
AcDb2dVertex
 10
643.7341920623437
 20
1068.184517152578
 30
0.0
  0
VERTEX
  5
1B4
330
18F
100
AcDbEntity
  8
Make2D$可见线$普通线
100
AcDbVertex
100
AcDb2dVertex
 10
643.7341367774397
 20
1068.184722409919
 30
0.0
  0
VERTEX
  5
1B5
330
18F
100
AcDbEntity
  8
Make2D$可见线$普通线
100
AcDbVertex
100
AcDb2dVertex
 10
643.7340879962816
 20
1068.184927667314
 30
0.0
  0
VERTEX
  5
1B6
330
18F
100
AcDbEntity
  8
Make2D$可见线$普通线
100
AcDbVertex
100
AcDb2dVertex
 10
643.7340457189655
 20
1068.185132924852
 30
0.0
  0
VERTEX
  5
1B7
330
18F
100
AcDbEntity
  8
Make2D$可见线$普通线
100
AcDbVertex
100
AcDb2dVertex
 10
643.7340099455878
 20
1068.185338182622
 30
0.0
  0
VERTEX
  5
1B8
330
18F
100
AcDbEntity
  8
Make2D$可见线$普通线
100
AcDbVertex
100
AcDb2dVertex
 10
643.7339806762448
 20
1068.185543440711
 30
0.0
  0
VERTEX
  5
1B9
330
18F
100
AcDbEntity
  8
Make2D$可见线$普通线
100
AcDbVertex
100
AcDb2dVertex
 10
643.7339579110326
 20
1068.185748699209
 30
0.0
  0
VERTEX
  5
1BA
330
18F
100
AcDbEntity
  8
Make2D$可见线$普通线
100
AcDbVertex
100
AcDb2dVertex
 10
643.7339416500474
 20
1068.185953958205
 30
0.0
  0
VERTEX
  5
1BB
330
18F
100
AcDbEntity
  8
Make2D$可见线$普通线
100
AcDbVertex
100
AcDb2dVertex
 10
643.7339318933857
 20
1068.186159217786
 30
0.0
  0
VERTEX
  5
1BC
330
18F
100
AcDbEntity
  8
Make2D$可见线$普通线
100
AcDbVertex
100
AcDb2dVertex
 10
643.7339286411438
 20
1068.186364478041
 30
0.0
  0
VERTEX
  5
1BD
330
18F
100
AcDbEntity
  8
Make2D$可见线$普通线
100
AcDbVertex
100
AcDb2dVertex
 10
643.7339317148734
 20
1068.186564026906
 30
0.0
  0
VERTEX
  5
1BE
330
18F
100
AcDbEntity
  8
Make2D$可见线$普通线
100
AcDbVertex
100
AcDb2dVertex
 10
643.7339409358341
 20
1068.18676357397
 30
0.0
  0
VERTEX
  5
1BF
330
18F
100
AcDbEntity
  8
Make2D$可见线$普通线
100
AcDbVertex
100
AcDb2dVertex
 10
643.733956303684
 20
1068.186963119249
 30
0.0
  0
VERTEX
  5
1C0
330
18F
100
AcDbEntity
  8
Make2D$可见线$普通线
100
AcDbVertex
100
AcDb2dVertex
 10
643.7339778180808
 20
1068.187162662763
 30
0.0
  0
VERTEX
  5
1C1
330
18F
100
AcDbEntity
  8
Make2D$可见线$普通线
100
AcDbVertex
100
AcDb2dVertex
 10
643.7340054786825
 20
1068.187362204528
 30
0.0
  0
VERTEX
  5
1C2
330
18F
100
AcDbEntity
  8
Make2D$可见线$普通线
100
AcDbVertex
100
AcDb2dVertex
 10
643.7340392851474
 20
1068.187561744561
 30
0.0
  0
VERTEX
  5
1C3
330
18F
100
AcDbEntity
  8
Make2D$可见线$普通线
100
AcDbVertex
100
AcDb2dVertex
 10
643.7340792371331
 20
1068.187761282879
 30
0.0
  0
VERTEX
  5
1C4
330
18F
100
AcDbEntity
  8
Make2D$可见线$普通线
100
AcDbVertex
100
AcDb2dVertex
 10
643.7341253342978
 20
1068.187960819502
 30
0.0
  0
VERTEX
  5
1C5
330
18F
100
AcDbEntity
  8
Make2D$可见线$普通线
100
AcDbVertex
100
AcDb2dVertex
 10
643.7341775762993
 20
1068.188160354445
 30
0.0
  0
VERTEX
  5
1C6
330
18F
100
AcDbEntity
  8
Make2D$可见线$普通线
100
AcDbVertex
100
AcDb2dVertex
 10
643.7342359627957
 20
1068.188359887726
 30
0.0
  0
VERTEX
  5
1C7
330
18F
100
AcDbEntity
  8
Make2D$可见线$普通线
100
AcDbVertex
100
AcDb2dVertex
 10
643.7343004934447
 20
1068.188559419362
 30
0.0
  0
VERTEX
  5
1C8
330
18F
100
AcDbEntity
  8
Make2D$可见线$普通线
100
AcDbVertex
100
AcDb2dVertex
 10
643.7343711679046
 20
1068.188758949372
 30
0.0
  0
VERTEX
  5
1C9
330
18F
100
AcDbEntity
  8
Make2D$可见线$普通线
100
AcDbVertex
100
AcDb2dVertex
 10
643.734447985833
 20
1068.188958477772
 30
0.0
  0
VERTEX
  5
1CA
330
18F
100
AcDbEntity
  8
Make2D$可见线$普通线
100
AcDbVertex
100
AcDb2dVertex
 10
643.7345309468882
 20
1068.189158004579
 30
0.0
  0
VERTEX
  5
1CB
330
18F
100
AcDbEntity
  8
Make2D$可见线$普通线
100
AcDbVertex
100
AcDb2dVertex
 10
643.7346200507279
 20
1068.189357529812
 30
0.0
  0
VERTEX
  5
1CC
330
18F
100
AcDbEntity
  8
Make2D$可见线$普通线
100
AcDbVertex
100
AcDb2dVertex
 10
643.7347152970103
 20
1068.189557053488
 30
0.0
  0
VERTEX
  5
1CD
330
18F
100
AcDbEntity
  8
Make2D$可见线$普通线
100
AcDbVertex
100
AcDb2dVertex
 10
643.7348166853932
 20
1068.189756575623
 30
0.0
  0
VERTEX
  5
1CE
330
18F
100
AcDbEntity
  8
Make2D$可见线$普通线
100
AcDbVertex
100
AcDb2dVertex
 10
643.7349242155346
 20
1068.189956096236
 30
0.0
  0
VERTEX
  5
1CF
330
18F
100
AcDbEntity
  8
Make2D$可见线$普通线
100
AcDbVertex
100
AcDb2dVertex
 10
643.7350378870926
 20
1068.190155615343
 30
0.0
  0
VERTEX
  5
1D0
330
18F
100
AcDbEntity
  8
Make2D$可见线$普通线
100
AcDbVertex
100
AcDb2dVertex
 10
643.7351576997248
 20
1068.190355132963
 30
0.0
  0
VERTEX
  5
1D1
330
18F
100
AcDbEntity
  8
Make2D$可见线$普通线
100
AcDbVertex
100
AcDb2dVertex
 10
643.7352836530895
 20
1068.190554649112
 30
0.0
  0
VERTEX
  5
1D2
330
18F
100
AcDbEntity
  8
Make2D$可见线$普通线
100
AcDbVertex
100
AcDb2dVertex
 10
643.7354157468444
 20
1068.190754163809
 30
0.0
  0
VERTEX
  5
1D3
330
18F
100
AcDbEntity
  8
Make2D$可见线$普通线
100
AcDbVertex
100
AcDb2dVertex
 10
643.7355539806478
 20
1068.19095367707
 30
0.0
  0
VERTEX
  5
1D4
330
18F
100
AcDbEntity
  8
Make2D$可见线$普通线
100
AcDbVertex
100
AcDb2dVertex
 10
643.7356983541573
 20
1068.191153188912
 30
0.0
  0
VERTEX
  5
1D5
330
18F
100
AcDbEntity
  8
Make2D$可见线$普通线
100
AcDbVertex
100
AcDb2dVertex
 10
643.7358488670311
 20
1068.191352699354
 30
0.0
  0
VERTEX
  5
1D6
330
18F
100
AcDbEntity
  8
Make2D$可见线$普通线
100
AcDbVertex
100
AcDb2dVertex
 10
643.7360055189272
 20
1068.191552208412
 30
0.0
  0
VERTEX
  5
1D7
330
18F
100
AcDbEntity
  8
Make2D$可见线$普通线
100
AcDbVertex
100
AcDb2dVertex
 10
643.7361683095033
 20
1068.191751716104
 30
0.0
  0
VERTEX
  5
1D8
330
18F
100
AcDbEntity
  8
Make2D$可见线$普通线
100
AcDbVertex
100
AcDb2dVertex
 10
643.7363372384175
 20
1068.191951222448
 30
0.0
  0
VERTEX
  5
1D9
330
18F
100
AcDbEntity
  8
Make2D$可见线$普通线
100
AcDbVertex
100
AcDb2dVertex
 10
643.7366935098921
 20
1068.19235023116
 30
0.0
  0
VERTEX
  5
1DA
330
18F
100
AcDbEntity
  8
Make2D$可见线$普通线
100
AcDbVertex
100
AcDb2dVertex
 10
643.7370743306146
 20
1068.192749234687
 30
0.0
  0
VERTEX
  5
1DB
330
18F
100
AcDbEntity
  8
Make2D$可见线$普通线
100
AcDbVertex
100
AcDb2dVertex
 10
643.7374796978488
 20
1068.193148233167
 30
0.0
  0
VERTEX
  5
1DC
330
18F
100
AcDbEntity
  8
Make2D$可见线$普通线
100
AcDbVertex
100
AcDb2dVertex
 10
643.7379096088582
 20
1068.193547226741
 30
0.0
  0
VERTEX
  5
1DD
330
18F
100
AcDbEntity
  8
Make2D$可见线$普通线
100
AcDbVertex
100
AcDb2dVertex
 10
643.7383640609069
 20
1068.193946215547
 30
0.0
  0
VERTEX
  5
1DE
330
18F
100
AcDbEntity
  8
Make2D$可见线$普通线
100
AcDbVertex
100
AcDb2dVertex
 10
643.7388430512581
 20
1068.194345199725
 30
0.0
  0
VERTEX
  5
1DF
330
18F
100
AcDbEntity
  8
Make2D$可见线$普通线
100
AcDbVertex
100
AcDb2dVertex
 10
643.7393465771758
 20
1068.194744179414
 30
0.0
  0
VERTEX
  5
1E0
330
18F
100
AcDbEntity
  8
Make2D$可见线$普通线
100
AcDbVertex
100
AcDb2dVertex
 10
643.7398746359233
 20
1068.195143154753
 30
0.0
  0
VERTEX
  5
1E1
330
18F
100
AcDbEntity
  8
Make2D$可见线$普通线
100
AcDbVertex
100
AcDb2dVertex
 10
643.7404272247647
 20
1068.195542125882
 30
0.0
  0
VERTEX
  5
1E2
330
18F
100
AcDbEntity
  8
Make2D$可见线$普通线
100
AcDbVertex
100
AcDb2dVertex
 10
643.7410043409636
 20
1068.195941092939
 30
0.0
  0
VERTEX
  5
1E3
330
18F
100
AcDbEntity
  8
Make2D$可见线$普通线
100
AcDbVertex
100
AcDb2dVertex
 10
643.7416059817837
 20
1068.196340056065
 30
0.0
  0
VERTEX
  5
1E4
330
18F
100
AcDbEntity
  8
Make2D$可见线$普通线
100
AcDbVertex
100
AcDb2dVertex
 10
643.7422321444885
 20
1068.196739015398
 30
0.0
  0
VERTEX
  5
1E5
330
18F
100
AcDbEntity
  8
Make2D$可见线$普通线
100
AcDbVertex
100
AcDb2dVertex
 10
643.7435580246072
 20
1068.197536923243
 30
0.0
  0
VERTEX
  5
1E6
330
18F
100
AcDbEntity
  8
Make2D$可见线$普通线
100
AcDbVertex
100
AcDb2dVertex
 10
643.7449819594294
 20
1068.198334817589
 30
0.0
  0
VERTEX
  5
1E7
330
18F
100
AcDbEntity
  8
Make2D$可见线$普通线
100
AcDbVertex
100
AcDb2dVertex
 10
643.7465039270644
 20
1068.199132699549
 30
0.0
  0
VERTEX
  5
1E8
330
18F
100
AcDbEntity
  8
Make2D$可见线$普通线
100
AcDbVertex
100
AcDb2dVertex
 10
643.7481239056219
 20
1068.199930570238
 30
0.0
  0
VERTEX
  5
1E9
330
18F
100
AcDbEntity
  8
Make2D$可见线$普通线
100
AcDbVertex
100
AcDb2dVertex
 10
643.7498418732114
 20
1068.200728430769
 30
0.0
  0
VERTEX
  5
1EA
330
18F
100
AcDbEntity
  8
Make2D$可见线$普通线
100
AcDbVertex
100
AcDb2dVertex
 10
643.7516578079421
 20
1068.201526282258
 30
0.0
  0
VERTEX
  5
1EB
330
18F
100
AcDbEntity
  8
Make2D$可见线$普通线
100
AcDbVertex
100
AcDb2dVertex
 10
643.753571687924
 20
1068.202324125817
 30
0.0
  0
VERTEX
  5
1EC
330
18F
100
AcDbEntity
  8
Make2D$可见线$普通线
100
AcDbVertex
100
AcDb2dVertex
 10
643.757693196078
 20
1068.203919793605
 30
0.0
  0
VERTEX
  5
1ED
330
18F
100
AcDbEntity
  8
Make2D$可见线$普通线
100
AcDbVertex
100
AcDb2dVertex
 10
643.7622062225494
 20
1068.205515443046
 30
0.0
  0
VERTEX
  5
1EE
330
18F
100
AcDbEntity
  8
Make2D$可见线$普通线
100
AcDbVertex
100
AcDb2dVertex
 10
643.767110592214
 20
1068.207111083052
 30
0.0
  0
VERTEX
  5
1EF
330
18F
100
AcDbEntity
  8
Make2D$可见线$普通线
100
AcDbVertex
100
AcDb2dVertex
 10
643.7724061299476
 20
1068.208706722537
 30
0.0
  0
VERTEX
  5
1F0
330
18F
100
AcDbEntity
  8
Make2D$可见线$普通线
100
AcDbVertex
100
AcDb2dVertex
 10
643.7841700091258
 20
1068.211898035594
 30
0.0
  0
VERTEX
  5
1F1
330
18F
100
AcDbEntity
  8
Make2D$可见线$普通线
100
AcDbVertex
100
AcDb2dVertex
 10
643.7974964590908
 20
1068.215089453518
 30
0.0
  0
VERTEX
  5
1F2
330
18F
100
AcDbEntity
  8
Make2D$可见线$普通线
100
AcDbVertex
100
AcDb2dVertex
 10
643.8123840788498
 20
1068.218281047611
 30
0.0
  0
VERTEX
  5
1F3
330
18F
100
AcDbEntity
  8
Make2D$可见线$普通线
100
AcDbVertex
100
AcDb2dVertex
 10
643.8468372237776
 20
1068.224665049514
 30
0.0
  0
VERTEX
  5
1F4
330
18F
100
AcDbEntity
  8
Make2D$可见线$普通线
100
AcDbVertex
100
AcDb2dVertex
 10
643.8875182359653
 20
1068.23105061172
 30
0.0
  0
VERTEX
  5
1F5
330
18F
100
AcDbEntity
  8
Make2D$可见线$普通线
100
AcDbVertex
100
AcDb2dVertex
 10
643.9344159074692
 20
1068.237438304646
 30
0.0
  0
VERTEX
  5
1F6
330
18F
100
AcDbEntity
  8
Make2D$可见线$普通线
100
AcDbVertex
100
AcDb2dVertex
 10
644.3378012457433
 20
1068.275708529886
 30
0.0
  0
VERTEX
  5
1F7
330
18F
100
AcDbEntity
  8
Make2D$可见线$普通线
100
AcDbVertex
100
AcDb2dVertex
 10
644.7421670925256
 20
1068.301643125133
 30
0.0
  0
VERTEX
  5
1F8
330
18F
100
AcDbEntity
  8
Make2D$可见线$普通线
100
AcDbVertex
100
AcDb2dVertex
 10
646.8261862221317
 20
1068.39185238047
 30
0.0
  0
VERTEX
  5
1F9
330
18F
100
AcDbEntity
  8
Make2D$可见线$普通线
100
AcDbVertex
100
AcDb2dVertex
 10
650.2400942811356
 20
1068.494308096968
 30
0.0
  0
VERTEX
  5
1FA
330
18F
100
AcDbEntity
  8
Make2D$可见线$普通线
100
AcDbVertex
100
AcDb2dVertex
 10
660.1469356215827
 20
1068.751195953639
 30
0.0
  0
VERTEX
  5
1FB
330
18F
100
AcDbEntity
  8
Make2D$可见线$普通线
100
AcDbVertex
100
AcDb2dVertex
 10
662.1059998927325
 20
1068.81539474495
 30
0.0
  0
VERTEX
  5
1FC
330
18F
100
AcDbEntity
  8
Make2D$可见线$普通线
100
AcDbVertex
100
AcDb2dVertex
 10
663.596554669548
 20
1068.879643945752
 30
0.0
  0
VERTEX
  5
1FD
330
18F
100
AcDbEntity
  8
Make2D$可见线$普通线
100
AcDbVertex
100
AcDb2dVertex
 10
664.063624155533
 20
1068.906559484777
 30
0.0
  0
VERTEX
  5
1FE
330
18F
100
AcDbEntity
  8
Make2D$可见线$普通线
100
AcDbVertex
100
AcDb2dVertex
 10
664.529980232194
 20
1068.943847026138
 30
0.0
  0
VERTEX
  5
1FF
330
18F
100
AcDbEntity
  8
Make2D$可见线$普通线
100
AcDbVertex
100
AcDb2dVertex
 10
664.6687204849076
 20
1068.959872990268
 30
0.0
  0
VERTEX
  5
200
330
18F
100
AcDbEntity
  8
Make2D$可见线$普通线
100
AcDbVertex
100
AcDb2dVertex
 10
664.7234258372303
 20
1068.967881266557
 30
0.0
  0
VERTEX
  5
201
330
18F
100
AcDbEntity
  8
Make2D$可见线$普通线
100
AcDbVertex
100
AcDb2dVertex
 10
664.7470999822051
 20
1068.971886332625
 30
0.0
  0
VERTEX
  5
202
330
18F
100
AcDbEntity
  8
Make2D$可见线$普通线
100
AcDbVertex
100
AcDb2dVertex
 10
664.7683170729877
 20
1068.975892818971
 30
0.0
  0
VERTEX
  5
203
330
18F
100
AcDbEntity
  8
Make2D$可见线$普通线
100
AcDbVertex
100
AcDb2dVertex
 10
664.7870735845272
 20
1068.979901326842
 30
0.0
  0
VERTEX
  5
204
330
18F
100
AcDbEntity
  8
Make2D$可见线$普通线
100
AcDbVertex
100
AcDb2dVertex
 10
664.7955280215025
 20
1068.98190652674
 30
0.0
  0
VERTEX
  5
205
330
18F
100
AcDbEntity
  8
Make2D$可见线$普通线
100
AcDbVertex
100
AcDb2dVertex
 10
664.8033659917729
 20
1068.983912457487
 30
0.0
  0
VERTEX
  5
206
330
18F
100
AcDbEntity
  8
Make2D$可见线$普通线
100
AcDbVertex
100
AcDb2dVertex
 10
664.8105870547072
 20
1068.985919194239
 30
0.0
  0
VERTEX
  5
207
330
18F
100
AcDbEntity
  8
Make2D$可见线$普通线
100
AcDbVertex
100
AcDb2dVertex
 10
664.817190769674
 20
1068.987926812152
 30
0.0
  0
VERTEX
  5
208
330
18F
100
AcDbEntity
  8
Make2D$可见线$普通线
100
AcDbVertex
100
AcDb2dVertex
 10
664.8231766960419
 20
1068.989935386383
 30
0.0
  0
VERTEX
  5
209
330
18F
100
AcDbEntity
  8
Make2D$可见线$普通线
100
AcDbVertex
100
AcDb2dVertex
 10
664.8259378508037
 20
1068.990940055603
 30
0.0
  0
VERTEX
  5
20A
330
18F
100
AcDbEntity
  8
Make2D$可见线$普通线
100
AcDbVertex
100
AcDb2dVertex
 10
664.8285443931793
 20
1068.991944992086
 30
0.0
  0
VERTEX
  5
20B
330
18F
100
AcDbEntity
  8
Make2D$可见线$普通线
100
AcDbVertex
100
AcDb2dVertex
 10
664.8309962680895
 20
1068.992950205226
 30
0.0
  0
VERTEX
  5
20C
330
18F
100
AcDbEntity
  8
Make2D$可见线$普通线
100
AcDbVertex
100
AcDb2dVertex
 10
664.8332934204553
 20
1068.993955704418
 30
0.0
  0
VERTEX
  5
20D
330
18F
100
AcDbEntity
  8
Make2D$可见线$普通线
100
AcDbVertex
100
AcDb2dVertex
 10
664.8354357951979
 20
1068.994961499056
 30
0.0
  0
VERTEX
  5
20E
330
18F
100
AcDbEntity
  8
Make2D$可见线$普通线
100
AcDbVertex
100
AcDb2dVertex
 10
664.8374233372383
 20
1068.995967598535
 30
0.0
  0
VERTEX
  5
20F
330
18F
100
AcDbEntity
  8
Make2D$可见线$普通线
100
AcDbVertex
100
AcDb2dVertex
 10
664.8383590287831
 20
1068.996470765526
 30
0.0
  0
VERTEX
  5
210
330
18F
100
AcDbEntity
  8
Make2D$可见线$普通线
100
AcDbVertex
100
AcDb2dVertex
 10
664.8392559914976
 20
1068.996974012249
 30
0.0
  0
VERTEX
  5
211
330
18F
100
AcDbEntity
  8
Make2D$可见线$普通线
100
AcDbVertex
100
AcDb2dVertex
 10
664.8401142184971
 20
1068.99747733988
 30
0.0
  0
VERTEX
  5
212
330
18F
100
AcDbEntity
  8
Make2D$可见线$普通线
100
AcDbVertex
100
AcDb2dVertex
 10
664.8409337028969
 20
1068.997980749593
 30
0.0
  0
VERTEX
  5
213
330
18F
100
AcDbEntity
  8
Make2D$可见线$普通线
100
AcDbVertex
100
AcDb2dVertex
 10
664.8417144378119
 20
1068.998484242562
 30
0.0
  0
VERTEX
  5
214
330
18F
100
AcDbEntity
  8
Make2D$可见线$普通线
100
AcDbVertex
100
AcDb2dVertex
 10
664.8424564163573
 20
1068.998987819961
 30
0.0
  0
VERTEX
  5
215
330
18F
100
AcDbEntity
  8
Make2D$可见线$普通线
100
AcDbVertex
100
AcDb2dVertex
 10
664.8431596316483
 20
1068.999491482965
 30
0.0
  0
VERTEX
  5
216
330
18F
100
AcDbEntity
  8
Make2D$可见线$普通线
100
AcDbVertex
100
AcDb2dVertex
 10
664.8438240767999
 20
1068.999995232748
 30
0.0
  0
VERTEX
  5
217
330
18F
100
AcDbEntity
  8
Make2D$可见线$普通线
100
AcDbVertex
100
AcDb2dVertex
 10
664.8444497449275
 20
1069.000499070484
 30
0.0
  0
VERTEX
  5
218
330
18F
100
AcDbEntity
  8
Make2D$可见线$普通线
100
AcDbVertex
100
AcDb2dVertex
 10
664.8450366291459
 20
1069.001002997347
 30
0.0
  0
VERTEX
  5
219
330
18F
100
AcDbEntity
  8
Make2D$可见线$普通线
100
AcDbVertex
100
AcDb2dVertex
 10
664.8453155251376
 20
1069.001254994569
 30
0.0
  0
VERTEX
  5
21A
330
18F
100
AcDbEntity
  8
Make2D$可见线$普通线
100
AcDbVertex
100
AcDb2dVertex
 10
664.8455847225703
 20
1069.001507014513
 30
0.0
  0
VERTEX
  5
21B
330
18F
100
AcDbEntity
  8
Make2D$可见线$普通线
100
AcDbVertex
100
AcDb2dVertex
 10
664.8458442205833
 20
1069.001759057326
 30
0.0
  0
VERTEX
  5
21C
330
18F
100
AcDbEntity
  8
Make2D$可见线$普通线
100
AcDbVertex
100
AcDb2dVertex
 10
664.846094018316
 20
1069.002011123155
 30
0.0
  0
VERTEX
  5
21D
330
18F
100
AcDbEntity
  8
Make2D$可见线$普通线
100
AcDbVertex
100
AcDb2dVertex
 10
664.8463341149077
 20
1069.002263212146
 30
0.0
  0
VERTEX
  5
21E
330
18F
100
AcDbEntity
  8
Make2D$可见线$普通线
100
AcDbVertex
100
AcDb2dVertex
 10
664.846564509498
 20
1069.002515324447
 30
0.0
  0
VERTEX
  5
21F
330
18F
100
AcDbEntity
  8
Make2D$可见线$普通线
100
AcDbVertex
100
AcDb2dVertex
 10
664.8467852012261
 20
1069.002767460204
 30
0.0
  0
VERTEX
  5
220
330
18F
100
AcDbEntity
  8
Make2D$可见线$普通线
100
AcDbVertex
100
AcDb2dVertex
 10
664.8469961892315
 20
1069.003019619564
 30
0.0
  0
VERTEX
  5
221
330
18F
100
AcDbEntity
  8
Make2D$可见线$普通线
100
AcDbVertex
100
AcDb2dVertex
 10
664.8471974726535
 20
1069.003271802674
 30
0.0
  0
VERTEX
  5
222
330
18F
100
AcDbEntity
  8
Make2D$可见线$普通线
100
AcDbVertex
100
AcDb2dVertex
 10
664.8473890506316
 20
1069.003524009681
 30
0.0
  0
VERTEX
  5
223
330
18F
100
AcDbEntity
  8
Make2D$可见线$普通线
100
AcDbVertex
100
AcDb2dVertex
 10
664.8475709223053
 20
1069.003776240731
 30
0.0
  0
VERTEX
  5
224
330
18F
100
AcDbEntity
  8
Make2D$可见线$普通线
100
AcDbVertex
100
AcDb2dVertex
 10
664.8477430868136
 20
1069.004028495971
 30
0.0
  0
VERTEX
  5
225
330
18F
100
AcDbEntity
  8
Make2D$可见线$普通线
100
AcDbVertex
100
AcDb2dVertex
 10
664.8479055432961
 20
1069.004280775548
 30
0.0
  0
VERTEX
  5
226
330
18F
100
AcDbEntity
  8
Make2D$可见线$普通线
100
AcDbVertex
100
AcDb2dVertex
 10
664.8480582908924
 20
1069.004533079609
 30
0.0
  0
VERTEX
  5
227
330
18F
100
AcDbEntity
  8
Make2D$可见线$普通线
100
AcDbVertex
100
AcDb2dVertex
 10
664.8482013287414
 20
1069.0047854083
 30
0.0
  0
VERTEX
  5
228
330
18F
100
AcDbEntity
  8
Make2D$可见线$普通线
100
AcDbVertex
100
AcDb2dVertex
 10
664.8483346559831
 20
1069.005037761768
 30
0.0
  0
VERTEX
  5
229
330
18F
100
AcDbEntity
  8
Make2D$可见线$普通线
100
AcDbVertex
100
AcDb2dVertex
 10
664.8484582717565
 20
1069.005290140161
 30
0.0
  0
VERTEX
  5
22A
330
18F
100
AcDbEntity
  8
Make2D$可见线$普通线
100
AcDbVertex
100
AcDb2dVertex
 10
664.8485721752011
 20
1069.005542543624
 30
0.0
  0
VERTEX
  5
22B
330
18F
100
AcDbEntity
  8
Make2D$可见线$普通线
100
AcDbVertex
100
AcDb2dVertex
 10
664.8486763654563
 20
1069.005794972305
 30
0.0
  0
VERTEX
  5
22C
330
18F
100
AcDbEntity
  8
Make2D$可见线$普通线
100
AcDbVertex
100
AcDb2dVertex
 10
664.8487708416615
 20
1069.006047426351
 30
0.0
  0
VERTEX
  5
22D
330
18F
100
AcDbEntity
  8
Make2D$可见线$普通线
100
AcDbVertex
100
AcDb2dVertex
 10
664.848855602956
 20
1069.006299905908
 30
0.0
  0
VERTEX
  5
22E
330
18F
100
AcDbEntity
  8
Make2D$可见线$普通线
100
AcDbVertex
100
AcDb2dVertex
 10
664.8489306484792
 20
1069.006552411123
 30
0.0
  0
VERTEX
  5
22F
330
18F
100
AcDbEntity
  8
Make2D$可见线$普通线
100
AcDbVertex
100
AcDb2dVertex
 10
664.8489959773705
 20
1069.006804942143
 30
0.0
  0
VERTEX
  5
230
330
18F
100
AcDbEntity
  8
Make2D$可见线$普通线
100
AcDbVertex
100
AcDb2dVertex
 10
664.8490515887694
 20
1069.007057499114
 30
0.0
  0
VERTEX
  5
231
330
18F
100
AcDbEntity
  8
Make2D$可见线$普通线
100
AcDbVertex
100
AcDb2dVertex
 10
664.8490974818153
 20
1069.007310082184
 30
0.0
  0
VERTEX
  5
232
330
18F
100
AcDbEntity
  8
Make2D$可见线$普通线
100
AcDbVertex
100
AcDb2dVertex
 10
664.8491336556474
 20
1069.007562691499
 30
0.0
  0
VERTEX
  5
233
330
18F
100
AcDbEntity
  8
Make2D$可见线$普通线
100
AcDbVertex
100
AcDb2dVertex
 10
664.8491601094051
 20
1069.007815327206
 30
0.0
  0
VERTEX
  5
234
330
18F
100
AcDbEntity
  8
Make2D$可见线$普通线
100
AcDbVertex
100
AcDb2dVertex
 10
664.849176842228
 20
1069.008067989452
 30
0.0
 42
0.0236433991069226
  0
VERTEX
  5
235
330
18F
100
AcDbEntity
  8
Make2D$可见线$普通线
100
AcDbVertex
100
AcDb2dVertex
 10
664.8491769339428
 20
1068.015038697135
 30
0.0
  0
SEQEND
  5
236
330
18F
100
AcDbEntity
  8
Make2D$可见线$普通线
  0
POLYLINE
  5
237
330
1F
100
AcDbEntity
  8
Make2D$可见线$普通线
100
AcDb2dPolyline
 66
     1
 10
0.0
 20
0.0
 30
0.0
  0
VERTEX
  5
238
330
237
100
AcDbEntity
  8
Make2D$可见线$普通线
100
AcDbVertex
100
AcDb2dVertex
 10
648.0542092220162
 20
1125.725831863086
 30
0.0
 42
0.0769712920563375
  0
VERTEX
  5
239
330
237
100
AcDbEntity
  8
Make2D$可见线$普通线
100
AcDbVertex
100
AcDb2dVertex
 10
648.6214842427628
 20
1126.026306681512
 30
0.0
 42
0.2340495245814005
  0
VERTEX
  5
23A
330
237
100
AcDbEntity
  8
Make2D$可见线$普通线
100
AcDbVertex
100
AcDb2dVertex
 10
649.4120892155914
 20
1127.620268610708
 30
0.0
  0
VERTEX
  5
23B
330
237
100
AcDbEntity
  8
Make2D$可见线$普通线
100
AcDbVertex
100
AcDb2dVertex
 10
649.4120372747303
 20
1135.511553341075
 30
0.0
 42
-0.4142510701736052
  0
VERTEX
  5
23C
330
237
100
AcDbEntity
  8
Make2D$可见线$普通线
100
AcDbVertex
100
AcDb2dVertex
 10
650.4119730049016
 20
1136.511553341075
 30
0.0
  0
VERTEX
  5
23D
330
237
100
AcDbEntity
  8
Make2D$可见线$普通线
100
AcDbVertex
100
AcDb2dVertex
 10
658.174446929681
 20
1136.511553341075
 30
0.0
 42
-0.4142633078322617
  0
VERTEX
  5
23E
330
237
100
AcDbEntity
  8
Make2D$可见线$普通线
100
AcDbVertex
100
AcDb2dVertex
 10
659.1744253638439
 20
1135.511553341075
 30
0.0
  0
VERTEX
  5
23F
330
237
100
AcDbEntity
  8
Make2D$可见线$普通线
100
AcDbVertex
100
AcDb2dVertex
 10
659.1743735527295
 20
1127.619395509287
 30
0.0
 42
0.3146014522633388
  0
VERTEX
  5
240
330
237
100
AcDbEntity
  8
Make2D$可见线$普通线
100
AcDbVertex
100
AcDb2dVertex
 10
660.4857116857976
 20
1125.741839724007
 30
0.0
  0
SEQEND
  5
241
330
237
100
AcDbEntity
  8
Make2D$可见线$普通线
  0
POLYLINE
  5
242
330
1F
100
AcDbEntity
  8
Make2D$可见线$普通线
100
AcDb2dPolyline
 66
     1
 10
0.0
 20
0.0
 30
0.0
  0
VERTEX
  5
243
330
242
100
AcDbEntity
  8
Make2D$可见线$普通线
100
AcDbVertex
100
AcDb2dVertex
 10
642.2002872261689
 20
1079.630024991185
 30
0.0
  0
VERTEX
  5
244
330
242
100
AcDbEntity
  8
Make2D$可见线$普通线
100
AcDbVertex
100
AcDb2dVertex
 10
642.1969193592871
 20
1072.369288974562
 30
0.0
 42
0.4156084652393046
  0
VERTEX
  5
245
330
242
100
AcDbEntity
  8
Make2D$可见线$普通线
100
AcDbVertex
100
AcDb2dVertex
 10
643.1971978963727
 20
1071.369288974562
 30
0.0
  0
VERTEX
  5
246
330
242
100
AcDbEntity
  8
Make2D$可见线$普通线
100
AcDbVertex
100
AcDb2dVertex
 10
665.3829694136862
 20
1071.369288974562
 30
0.0
 42
0.4140759719759292
  0
VERTEX
  5
247
330
242
100
AcDbEntity
  8
Make2D$可见线$普通线
100
AcDbVertex
100
AcDb2dVertex
 10
666.3829039895079
 20
1072.369288974562
 30
0.0
  0
VERTEX
  5
248
330
242
100
AcDbEntity
  8
Make2D$可见线$普通线
100
AcDbVertex
100
AcDb2dVertex
 10
666.3828255988377
 20
1078.511553341075
 30
0.0
  0
SEQEND
  5
249
330
242
100
AcDbEntity
  8
Make2D$可见线$普通线
  0
POLYLINE
  5
24A
330
1F
100
AcDbEntity
  8
Make2D$可见线$普通线
100
AcDb2dPolyline
 66
     1
 10
0.0
 20
0.0
 30
0.0
  0
VERTEX
  5
24B
330
24A
100
AcDbEntity
  8
Make2D$可见线$普通线
100
AcDbVertex
100
AcDb2dVertex
 10
664.8491841838628
 20
1066.370753876442
 30
0.0
 42
-0.2382632824724497
  0
VERTEX
  5
24C
330
24A
100
AcDbEntity
  8
Make2D$可见线$普通线
100
AcDbVertex
100
AcDb2dVertex
 10
664.7995227414178
 20
1066.345356917576
 30
0.0
 42
-0.0334036303496645
  0
VERTEX
  5
24D
330
24A
100
AcDbEntity
  8
Make2D$可见线$普通线
100
AcDbVertex
100
AcDb2dVertex
 10
664.2360922485954
 20
1066.281136234111
 30
0.0
  0
VERTEX
  5
24E
330
24A
100
AcDbEntity
  8
Make2D$可见线$普通线
100
AcDbVertex
100
AcDb2dVertex
 10
663.0768625716895
 20
1066.216926054369
 30
0.0
  0
VERTEX
  5
24F
330
24A
100
AcDbEntity
  8
Make2D$可见线$普通线
100
AcDbVertex
100
AcDb2dVertex
 10
661.3910011688026
 20
1066.152707438709
 30
0.0
  0
VERTEX
  5
250
330
24A
100
AcDbEntity
  8
Make2D$可见线$普通线
100
AcDbVertex
100
AcDb2dVertex
 10
656.8689619678199
 20
1066.024261014621
 30
0.0
  0
VERTEX
  5
251
330
24A
100
AcDbEntity
  8
Make2D$可见线$普通线
100
AcDbVertex
100
AcDb2dVertex
 10
654.3039294442119
 20
1065.960038713588
 30
0.0
  0
VERTEX
  5
252
330
24A
100
AcDbEntity
  8
Make2D$可见线$普通线
100
AcDbVertex
100
AcDb2dVertex
 10
654.2915564125035
 20
1065.959732067811
 30
0.0
  0
VERTEX
  5
253
330
24A
100
AcDbEntity
  8
Make2D$可见线$普通线
100
AcDbVertex
100
AcDb2dVertex
 10
649.325730766296
 20
1065.831606838351
 30
0.0
  0
VERTEX
  5
254
330
24A
100
AcDbEntity
  8
Make2D$可见线$普通线
100
AcDbVertex
100
AcDb2dVertex
 10
646.8261862221317
 20
1065.754244448103
 30
0.0
  0
VERTEX
  5
255
330
24A
100
AcDbEntity
  8
Make2D$可见线$普通线
100
AcDbVertex
100
AcDb2dVertex
 10
645.5199069541467
 20
1065.703164351366
 30
0.0
  0
VERTEX
  5
256
330
24A
100
AcDbEntity
  8
Make2D$可见线$普通线
100
AcDbVertex
100
AcDb2dVertex
 10
644.3552437959564
 20
1065.638955227701
 30
0.0
 42
0.0326455546304043
  0
VERTEX
  5
257
330
24A
100
AcDbEntity
  8
Make2D$可见线$普通线
100
AcDbVertex
100
AcDb2dVertex
 10
643.7860187665822
 20
1065.57474779839
 30
0.0
  0
VERTEX
  5
258
330
24A
100
AcDbEntity
  8
Make2D$可见线$普通线
100
AcDbVertex
100
AcDb2dVertex
 10
643.7339286411437
 20
1065.548762637932
 30
0.0
  0
VERTEX
  5
259
330
24A
100
AcDbEntity
  8
Make2D$可见线$普通线
100
AcDbVertex
100
AcDb2dVertex
 10
643.733928641144
 20
1064.898374638459
 30
0.0
  0
SEQEND
  5
25A
330
24A
100
AcDbEntity
  8
Make2D$可见线$普通线
  0
POLYLINE
  5
25B
330
1F
100
AcDbEntity
  8
Make2D$可见线$普通线
100
AcDb2dPolyline
 66
     1
 10
0.0
 20
0.0
 30
0.0
  0
VERTEX
  5
25C
330
25B
100
AcDbEntity
  8
Make2D$可见线$普通线
100
AcDbVertex
100
AcDb2dVertex
 10
658.2319807066305
 20
1136.511553341075
 30
0.0
  0
VERTEX
  5
25D
330
25B
100
AcDbEntity
  8
Make2D$可见线$普通线
100
AcDbVertex
100
AcDb2dVertex
 10
658.4093173993831
 20
1136.511553341075
 30
0.0
 42
-0.4142135623730295
  0
VERTEX
  5
25E
330
25B
100
AcDbEntity
  8
Make2D$可见线$普通线
100
AcDbVertex
100
AcDb2dVertex
 10
659.4092845733995
 20
1135.511553340536
 30
0.0
  0
VERTEX
  5
25F
330
25B
100
AcDbEntity
  8
Make2D$可见线$普通线
100
AcDbVertex
100
AcDb2dVertex
 10
659.409284614742
 20
1127.556328368582
 30
0.0
 42
0.2834833204040152
  0
VERTEX
  5
260
330
25B
100
AcDbEntity
  8
Make2D$可见线$普通线
100
AcDbVertex
100
AcDb2dVertex
 10
660.5115501728559
 20
1125.769034359734
 30
0.0
  0
VERTEX
  5
261
330
25B
100
AcDbEntity
  8
Make2D$可见线$普通线
100
AcDbVertex
100
AcDb2dVertex
 10
660.5452179447251
 20
1125.752537219602
 30
0.0
  0
VERTEX
  5
262
330
25B
100
AcDbEntity
  8
Make2D$可见线$普通线
100
AcDbVertex
100
AcDb2dVertex
 10
660.7503607763223
 20
1125.665522455307
 30
0.0
 42
-0.3395489834387947
  0
VERTEX
  5
263
330
25B
100
AcDbEntity
  8
Make2D$可见线$普通线
100
AcDbVertex
100
AcDb2dVertex
 10
679.2915533746567
 20
1101.511553169155
 30
0.0
  0
VERTEX
  5
264
330
25B
100
AcDbEntity
  8
Make2D$可见线$普通线
100
AcDbVertex
100
AcDb2dVertex
 10
679.287633082947
 20
1100.897458223304
 30
0.0
  0
VERTEX
  5
265
330
25B
100
AcDbEntity
  8
Make2D$可见线$普通线
100
AcDbVertex
100
AcDb2dVertex
 10
679.2675655353544
 20
1100.283964381051
 30
0.0
  0
VERTEX
  5
266
330
25B
100
AcDbEntity
  8
Make2D$可见线$普通线
100
AcDbVertex
100
AcDb2dVertex
 10
679.2315154930051
 20
1099.67140836997
 30
0.0
  0
VERTEX
  5
267
330
25B
100
AcDbEntity
  8
Make2D$可见线$普通线
100
AcDbVertex
100
AcDb2dVertex
 10
679.1796477170251
 20
1099.060126917631
 30
0.0
  0
VERTEX
  5
268
330
25B
100
AcDbEntity
  8
Make2D$可见线$普通线
100
AcDbVertex
100
AcDb2dVertex
 10
679.1121269685406
 20
1098.450456751607
 30
0.0
  0
VERTEX
  5
269
330
25B
100
AcDbEntity
  8
Make2D$可见线$普通线
100
AcDbVertex
100
AcDb2dVertex
 10
679.0291180086774
 20
1097.842734599469
 30
0.0
  0
VERTEX
  5
26A
330
25B
100
AcDbEntity
  8
Make2D$可见线$普通线
100
AcDbVertex
100
AcDb2dVertex
 10
678.9307855985616
 20
1097.237297188791
 30
0.0
  0
VERTEX
  5
26B
330
25B
100
AcDbEntity
  8
Make2D$可见线$普通线
100
AcDbVertex
100
AcDb2dVertex
 10
678.8172944993191
 20
1096.634481247143
 30
0.0
  0
VERTEX
  5
26C
330
25B
100
AcDbEntity
  8
Make2D$可见线$普通线
100
AcDbVertex
100
AcDb2dVertex
 10
678.6888094720762
 20
1096.034623502097
 30
0.0
  0
VERTEX
  5
26D
330
25B
100
AcDbEntity
  8
Make2D$可见线$普通线
100
AcDbVertex
100
AcDb2dVertex
 10
678.5454952779585
 20
1095.438060681226
 30
0.0
  0
VERTEX
  5
26E
330
25B
100
AcDbEntity
  8
Make2D$可见线$普通线
100
AcDbVertex
100
AcDb2dVertex
 10
678.3875166780921
 20
1094.845129512102
 30
0.0
  0
VERTEX
  5
26F
330
25B
100
AcDbEntity
  8
Make2D$可见线$普通线
100
AcDbVertex
100
AcDb2dVertex
 10
678.2150384336032
 20
1094.256166722297
 30
0.0
  0
VERTEX
  5
270
330
25B
100
AcDbEntity
  8
Make2D$可见线$普通线
100
AcDbVertex
100
AcDb2dVertex
 10
678.0282253056178
 20
1093.671509039382
 30
0.0
  0
VERTEX
  5
271
330
25B
100
AcDbEntity
  8
Make2D$可见线$普通线
100
AcDbVertex
100
AcDb2dVertex
 10
677.8272420552615
 20
1093.091493190929
 30
0.0
  0
VERTEX
  5
272
330
25B
100
AcDbEntity
  8
Make2D$可见线$普通线
100
AcDbVertex
100
AcDb2dVertex
 10
677.6122534436608
 20
1092.516455904511
 30
0.0
  0
VERTEX
  5
273
330
25B
100
AcDbEntity
  8
Make2D$可见线$普通线
100
AcDbVertex
100
AcDb2dVertex
 10
677.3834242319415
 20
1091.9467339077
 30
0.0
  0
VERTEX
  5
274
330
25B
100
AcDbEntity
  8
Make2D$可见线$普通线
100
AcDbVertex
100
AcDb2dVertex
 10
677.1409191812296
 20
1091.382663928067
 30
0.0
  0
VERTEX
  5
275
330
25B
100
AcDbEntity
  8
Make2D$可见线$普通线
100
AcDbVertex
100
AcDb2dVertex
 10
676.8849030526511
 20
1090.824582693185
 30
0.0
  0
VERTEX
  5
276
330
25B
100
AcDbEntity
  8
Make2D$可见线$普通线
100
AcDbVertex
100
AcDb2dVertex
 10
676.615540607332
 20
1090.272826930625
 30
0.0
  0
VERTEX
  5
277
330
25B
100
AcDbEntity
  8
Make2D$可见线$普通线
100
AcDbVertex
100
AcDb2dVertex
 10
676.3329966063984
 20
1089.72773336796
 30
0.0
  0
VERTEX
  5
278
330
25B
100
AcDbEntity
  8
Make2D$可见线$普通线
100
AcDbVertex
100
AcDb2dVertex
 10
676.0374358109764
 20
1089.189638732761
 30
0.0
  0
VERTEX
  5
279
330
25B
100
AcDbEntity
  8
Make2D$可见线$普通线
100
AcDbVertex
100
AcDb2dVertex
 10
675.7290229821915
 20
1088.6588797526
 30
0.0
  0
VERTEX
  5
27A
330
25B
100
AcDbEntity
  8
Make2D$可见线$普通线
100
AcDbVertex
100
AcDb2dVertex
 10
675.4079228811703
 20
1088.135793155051
 30
0.0
  0
VERTEX
  5
27B
330
25B
100
AcDbEntity
  8
Make2D$可见线$普通线
100
AcDbVertex
100
AcDb2dVertex
 10
675.0743002690386
 20
1087.620715667683
 30
0.0
  0
VERTEX
  5
27C
330
25B
100
AcDbEntity
  8
Make2D$可见线$普通线
100
AcDbVertex
100
AcDb2dVertex
 10
674.7283199069224
 20
1087.113984018069
 30
0.0
  0
VERTEX
  5
27D
330
25B
100
AcDbEntity
  8
Make2D$可见线$普通线
100
AcDbVertex
100
AcDb2dVertex
 10
674.3701465559475
 20
1086.615934933783
 30
0.0
  0
VERTEX
  5
27E
330
25B
100
AcDbEntity
  8
Make2D$可见线$普通线
100
AcDbVertex
100
AcDb2dVertex
 10
673.9999449772401
 20
1086.126905142394
 30
0.0
  0
VERTEX
  5
27F
330
25B
100
AcDbEntity
  8
Make2D$可见线$普通线
100
AcDbVertex
100
AcDb2dVertex
 10
673.6178799319264
 20
1085.647231371476
 30
0.0
  0
VERTEX
  5
280
330
25B
100
AcDbEntity
  8
Make2D$可见线$普通线
100
AcDbVertex
100
AcDb2dVertex
 10
673.2241161811321
 20
1085.1772503486
 30
0.0
  0
VERTEX
  5
281
330
25B
100
AcDbEntity
  8
Make2D$可见线$普通线
100
AcDbVertex
100
AcDb2dVertex
 10
672.8188184859831
 20
1084.717298801339
 30
0.0
  0
VERTEX
  5
282
330
25B
100
AcDbEntity
  8
Make2D$可见线$普通线
100
AcDbVertex
100
AcDb2dVertex
 10
672.4021516076057
 20
1084.267713457263
 30
0.0
  0
VERTEX
  5
283
330
25B
100
AcDbEntity
  8
Make2D$可见线$普通线
100
AcDbVertex
100
AcDb2dVertex
 10
671.9742803071258
 20
1083.828831043946
 30
0.0
  0
VERTEX
  5
284
330
25B
100
AcDbEntity
  8
Make2D$可见线$普通线
100
AcDbVertex
100
AcDb2dVertex
 10
671.5353977566447
 20
1083.400959390061
 30
0.0
  0
VERTEX
  5
285
330
25B
100
AcDbEntity
  8
Make2D$可见线$普通线
100
AcDbVertex
100
AcDb2dVertex
 10
671.0858122616187
 20
1082.984292168399
 30
0.0
  0
VERTEX
  5
286
330
25B
100
AcDbEntity
  8
Make2D$可见线$普通线
100
AcDbVertex
100
AcDb2dVertex
 10
670.6258605509142
 20
1082.578994140422
 30
0.0
  0
VERTEX
  5
287
330
25B
100
AcDbEntity
  8
Make2D$可见线$普通线
100
AcDbVertex
100
AcDb2dVertex
 10
670.1558793533975
 20
1082.185230067588
 30
0.0
  0
VERTEX
  5
288
330
25B
100
AcDbEntity
  8
Make2D$可见线$普通线
100
AcDbVertex
100
AcDb2dVertex
 10
669.6762053979348
 20
1081.803164711356
 30
0.0
  0
VERTEX
  5
289
330
25B
100
AcDbEntity
  8
Make2D$可见线$普通线
100
AcDbVertex
100
AcDb2dVertex
 10
669.1871754133927
 20
1081.432962833186
 30
0.0
  0
VERTEX
  5
28A
330
25B
100
AcDbEntity
  8
Make2D$可见线$普通线
100
AcDbVertex
100
AcDb2dVertex
 10
668.6891261286373
 20
1081.074789194536
 30
0.0
  0
VERTEX
  5
28B
330
25B
100
AcDbEntity
  8
Make2D$可见线$普通线
100
AcDbVertex
100
AcDb2dVertex
 10
668.1823942725355
 20
1080.728808556867
 30
0.0
  0
VERTEX
  5
28C
330
25B
100
AcDbEntity
  8
Make2D$可见线$普通线
100
AcDbVertex
100
AcDb2dVertex
 10
667.6673165739531
 20
1080.395185681637
 30
0.0
  0
VERTEX
  5
28D
330
25B
100
AcDbEntity
  8
Make2D$可见线$普通线
100
AcDbVertex
100
AcDb2dVertex
 10
667.1442297617567
 20
1080.074085330307
 30
0.0
  0
VERTEX
  5
28E
330
25B
100
AcDbEntity
  8
Make2D$可见线$普通线
100
AcDbVertex
100
AcDb2dVertex
 10
666.6134705648126
 20
1079.765672264334
 30
0.0
  0
VERTEX
  5
28F
330
25B
100
AcDbEntity
  8
Make2D$可见线$普通线
100
AcDbVertex
100
AcDb2dVertex
 10
666.0753757119874
 20
1079.470111245179
 30
0.0
  0
VERTEX
  5
290
330
25B
100
AcDbEntity
  8
Make2D$可见线$普通线
100
AcDbVertex
100
AcDb2dVertex
 10
665.5302819321473
 20
1079.187567034301
 30
0.0
  0
VERTEX
  5
291
330
25B
100
AcDbEntity
  8
Make2D$可见线$普通线
100
AcDbVertex
100
AcDb2dVertex
 10
664.9785259541586
 20
1078.918204393158
 30
0.0
  0
VERTEX
  5
292
330
25B
100
AcDbEntity
  8
Make2D$可见线$普通线
100
AcDbVertex
100
AcDb2dVertex
 10
664.4204445068879
 20
1078.662188083211
 30
0.0
  0
VERTEX
  5
293
330
25B
100
AcDbEntity
  8
Make2D$可见线$普通线
100
AcDbVertex
100
AcDb2dVertex
 10
663.8563743192012
 20
1078.419682865919
 30
0.0
  0
VERTEX
  5
294
330
25B
100
AcDbEntity
  8
Make2D$可见线$普通线
100
AcDbVertex
100
AcDb2dVertex
 10
663.2866521199653
 20
1078.190853502741
 30
0.0
  0
VERTEX
  5
295
330
25B
100
AcDbEntity
  8
Make2D$可见线$普通线
100
AcDbVertex
100
AcDb2dVertex
 10
662.7116146380463
 20
1077.975864755136
 30
0.0
  0
VERTEX
  5
296
330
25B
100
AcDbEntity
  8
Make2D$可见线$普通线
100
AcDbVertex
100
AcDb2dVertex
 10
662.1315986023106
 20
1077.774881384564
 30
0.0
  0
VERTEX
  5
297
330
25B
100
AcDbEntity
  8
Make2D$可见线$普通线
100
AcDbVertex
100
AcDb2dVertex
 10
661.5469407416248
 20
1077.588068152484
 30
0.0
  0
VERTEX
  5
298
330
25B
100
AcDbEntity
  8
Make2D$可见线$普通线
100
AcDbVertex
100
AcDb2dVertex
 10
660.957977784855
 20
1077.415589820354
 30
0.0
  0
VERTEX
  5
299
330
25B
100
AcDbEntity
  8
Make2D$可见线$普通线
100
AcDbVertex
100
AcDb2dVertex
 10
660.3650464608677
 20
1077.257611149636
 30
0.0
  0
VERTEX
  5
29A
330
25B
100
AcDbEntity
  8
Make2D$可见线$普通线
100
AcDbVertex
100
AcDb2dVertex
 10
659.7684834985291
 20
1077.114296901787
 30
0.0
  0
VERTEX
  5
29B
330
25B
100
AcDbEntity
  8
Make2D$可见线$普通线
100
AcDbVertex
100
AcDb2dVertex
 10
659.1686256267058
 20
1076.985811838267
 30
0.0
  0
VERTEX
  5
29C
330
25B
100
AcDbEntity
  8
Make2D$可见线$普通线
100
AcDbVertex
100
AcDb2dVertex
 10
658.565809574264
 20
1076.872320720536
 30
0.0
  0
VERTEX
  5
29D
330
25B
100
AcDbEntity
  8
Make2D$可见线$普通线
100
AcDbVertex
100
AcDb2dVertex
 10
657.9603720700702
 20
1076.773988310052
 30
0.0
  0
VERTEX
  5
29E
330
25B
100
AcDbEntity
  8
Make2D$可见线$普通线
100
AcDbVertex
100
AcDb2dVertex
 10
657.3526498429908
 20
1076.690979368276
 30
0.0
  0
VERTEX
  5
29F
330
25B
100
AcDbEntity
  8
Make2D$可见线$普通线
100
AcDbVertex
100
AcDb2dVertex
 10
656.742979621892
 20
1076.623458656666
 30
0.0
  0
VERTEX
  5
2A0
330
25B
100
AcDbEntity
  8
Make2D$可见线$普通线
100
AcDbVertex
100
AcDb2dVertex
 10
656.1316981356402
 20
1076.571590936681
 30
0.0
  0
VERTEX
  5
2A1
330
25B
100
AcDbEntity
  8
Make2D$可见线$普通线
100
AcDbVertex
100
AcDb2dVertex
 10
655.519142113102
 20
1076.535540969782
 30
0.0
  0
VERTEX
  5
2A2
330
25B
100
AcDbEntity
  8
Make2D$可见线$普通线
100
AcDbVertex
100
AcDb2dVertex
 10
654.9056482831436
 20
1076.515473517426
 30
0.0
  0
VERTEX
  5
2A3
330
25B
100
AcDbEntity
  8
Make2D$可见线$普通线
100
AcDbVertex
100
AcDb2dVertex
 10
654.2915533746313
 20
1076.511553341075
 30
0.0
  0
VERTEX
  5
2A4
330
25B
100
AcDbEntity
  8
Make2D$可见线$普通线
100
AcDbVertex
100
AcDb2dVertex
 10
653.949025319819
 20
1076.513899960575
 30
0.0
 42
-0.4103813924134018
  0
VERTEX
  5
2A5
330
25B
100
AcDbEntity
  8
Make2D$可见线$普通线
100
AcDbVertex
100
AcDb2dVertex
 10
629.2915578746395
 20
1101.526553341311
 30
0.0
 42
-0.3418171405405857
  0
VERTEX
  5
2A6
330
25B
100
AcDbEntity
  8
Make2D$可见线$普通线
100
AcDbVertex
100
AcDb2dVertex
 10
648.0112939882505
 20
1125.739866127812
 30
0.0
  0
SEQEND
  5
2A7
330
25B
100
AcDbEntity
  8
Make2D$可见线$普通线
  0
POLYLINE
  5
2A8
330
1F
100
AcDbEntity
  8
Make2D$可见线$普通线
100
AcDb2dPolyline
 66
     1
 10
0.0
 20
0.0
 30
0.0
  0
VERTEX
  5
2A9
330
2A8
100
AcDbEntity
  8
Make2D$可见线$普通线
100
AcDbVertex
100
AcDb2dVertex
 10
644.0296255504135
 20
1067.254812786309
 30
0.0
 42
0.5284486512493334
  0
VERTEX
  5
2AA
330
2A8
100
AcDbEntity
  8
Make2D$可见线$普通线
100
AcDbVertex
100
AcDb2dVertex
 10
644.1197871302574
 20
1068.062988056107
 30
0.0
  0
VERTEX
  5
2AB
330
2A8
100
AcDbEntity
  8
Make2D$可见线$普通线
100
AcDbVertex
100
AcDb2dVertex
 10
643.9677177542733
 20
1068.153433370571
 30
0.0
  0
SEQEND
  5
2AC
330
2A8
100
AcDbEntity
  8
Make2D$可见线$普通线
  0
POLYLINE
  5
2AD
330
1F
100
AcDbEntity
  8
Make2D$可见线$普通线
100
AcDb2dPolyline
 66
     1
 10
0.0
 20
0.0
 30
0.0
  0
VERTEX
  5
2AE
330
2AD
100
AcDbEntity
  8
Make2D$可见线$普通线
100
AcDbVertex
100
AcDb2dVertex
 10
770.6830541538233
 20
1123.566691185686
 30
0.0
  0
VERTEX
  5
2AF
330
2AD
100
AcDbEntity
  8
Make2D$可见线$普通线
100
AcDbVertex
100
AcDb2dVertex
 10
770.6629226449402
 20
1123.566691185687
 30
0.0
 42
0.2361568510082914
  0
VERTEX
  5
2B0
330
2AD
100
AcDbEntity
  8
Make2D$可见线$普通线
100
AcDbVertex
100
AcDb2dVertex
 10
770.2121316822164
 20
1124.354706452308
 30
0.0
 42
-0.2468360918467981
  0
VERTEX
  5
2B1
330
2AD
100
AcDbEntity
  8
Make2D$可见线$普通线
100
AcDbVertex
100
AcDb2dVertex
 10
770.683054153823
 20
1123.566691185686
 30
0.0
 42
-0.0275899080729191
  0
VERTEX
  5
2B2
330
2AD
100
AcDbEntity
  8
Make2D$可见线$普通线
100
AcDbVertex
100
AcDb2dVertex
 10
770.6830464453237
 20
1079.456276257682
 30
0.0
 42
-0.2485358081261247
  0
VERTEX
  5
2B3
330
2AD
100
AcDbEntity
  8
Make2D$可见线$普通线
100
AcDbVertex
100
AcDb2dVertex
 10
770.1995269477057
 20
1078.654334054401
 30
0.0
  0
SEQEND
  5
2B4
330
2AD
100
AcDbEntity
  8
Make2D$可见线$普通线
  0
POLYLINE
  5
2B5
330
1F
100
AcDbEntity
  8
Make2D$可见线$普通线
100
AcDb2dPolyline
 66
     1
 10
0.0
 20
0.0
 30
0.0
  0
VERTEX
  5
2B6
330
2B5
100
AcDbEntity
  8
Make2D$可见线$普通线
100
AcDbVertex
100
AcDb2dVertex
 10
665.6890648690166
 20
1078.507552958948
 30
0.0
  0
VERTEX
  5
2B7
330
2B5
100
AcDbEntity
  8
Make2D$可见线$普通线
100
AcDbVertex
100
AcDb2dVertex
 10
665.9531978820198
 20
1078.511529092055
 30
0.0
  0
VERTEX
  5
2B8
330
2B5
100
AcDbEntity
  8
Make2D$可见线$普通线
100
AcDbVertex
100
AcDb2dVertex
 10
735.1425361102072
 20
1078.511553341075
 30
0.0
 42
0.1699275527780726
  0
VERTEX
  5
2B9
330
2B5
100
AcDbEntity
  8
Make2D$可见线$普通线
100
AcDbVertex
100
AcDb2dVertex
 10
735.7660888867417
 20
1078.729772083384
 30
0.0
 42
-0.0092063089832397
  0
VERTEX
  5
2BA
330
2B5
100
AcDbEntity
  8
Make2D$可见线$普通线
100
AcDbVertex
100
AcDb2dVertex
 10
737.3445448208312
 20
1079.942025922086
 30
0.0
  0
VERTEX
  5
2BB
330
2B5
100
AcDbEntity
  8
Make2D$可见线$普通线
100
AcDbVertex
100
AcDb2dVertex
 10
737.5421030132683
 20
1080.087762718901
 30
0.0
  0
VERTEX
  5
2BC
330
2B5
100
AcDbEntity
  8
Make2D$可见线$普通线
100
AcDbVertex
100
AcDb2dVertex
 10
737.688889680326
 20
1080.195343138513
 30
0.0
  0
VERTEX
  5
2BD
330
2B5
100
AcDbEntity
  8
Make2D$可见线$普通线
100
AcDbVertex
100
AcDb2dVertex
 10
737.7632408997389
 20
1080.249598466745
 30
0.0
  0
VERTEX
  5
2BE
330
2B5
100
AcDbEntity
  8
Make2D$可见线$普通线
100
AcDbVertex
100
AcDb2dVertex
 10
737.8383360337263
 20
1080.304143169643
 30
0.0
  0
VERTEX
  5
2BF
330
2B5
100
AcDbEntity
  8
Make2D$可见线$普通线
100
AcDbVertex
100
AcDb2dVertex
 10
737.9909312989254
 20
1080.413933453564
 30
0.0
  0
VERTEX
  5
2C0
330
2B5
100
AcDbEntity
  8
Make2D$可见线$普通线
100
AcDbVertex
100
AcDb2dVertex
 10
738.4710543992011
 20
1080.745885515169
 30
0.0
  0
VERTEX
  5
2C1
330
2B5
100
AcDbEntity
  8
Make2D$可见线$普通线
100
AcDbVertex
100
AcDb2dVertex
 10
738.691592641891
 20
1080.88960182796
 30
0.0
  0
VERTEX
  5
2C2
330
2B5
100
AcDbEntity
  8
Make2D$可见线$普通线
100
AcDbVertex
100
AcDb2dVertex
 10
738.7242233266875
 20
1080.910357847404
 30
0.0
  0
VERTEX
  5
2C3
330
2B5
100
AcDbEntity
  8
Make2D$可见线$普通线
100
AcDbVertex
100
AcDb2dVertex
 10
738.8991200869939
 20
1081.019370520594
 30
0.0
  0
VERTEX
  5
2C4
330
2B5
100
AcDbEntity
  8
Make2D$可见线$普通线
100
AcDbVertex
100
AcDb2dVertex
 10
739.4566325006645
 20
1081.342055116193
 30
0.0
  0
VERTEX
  5
2C5
330
2B5
100
AcDbEntity
  8
Make2D$可见线$普通线
100
AcDbVertex
100
AcDb2dVertex
 10
739.5546015410747
 20
1081.394964106272
 30
0.0
 42
-0.0413178590217752
  0
VERTEX
  5
2C6
330
2B5
100
AcDbEntity
  8
Make2D$可见线$普通线
100
AcDbVertex
100
AcDb2dVertex
 10
742.5421718948552
 20
1082.674751737752
 30
0.0
 42
-0.0890192933751844
  0
VERTEX
  5
2C7
330
2B5
100
AcDbEntity
  8
Make2D$可见线$普通线
100
AcDbVertex
100
AcDb2dVertex
 10
747.069964408724
 20
1083.404614856135
 30
0.0
 42
-0.0337553776057749
  0
VERTEX
  5
2C8
330
2B5
100
AcDbEntity
  8
Make2D$可见线$普通线
100
AcDbVertex
100
AcDb2dVertex
 10
749.4954144622995
 20
1083.251970738045
 30
0.0
 42
-0.0251019504715782
  0
VERTEX
  5
2C9
330
2B5
100
AcDbEntity
  8
Make2D$可见线$普通线
100
AcDbVertex
100
AcDb2dVertex
 10
752.1630068582774
 20
1082.718678612388
 30
0.0
  0
VERTEX
  5
2CA
330
2B5
100
AcDbEntity
  8
Make2D$可见线$普通线
100
AcDbVertex
100
AcDb2dVertex
 10
753.3506418711672
 20
1082.425077084325
 30
0.0
  0
VERTEX
  5
2CB
330
2B5
100
AcDbEntity
  8
Make2D$可见线$普通线
100
AcDbVertex
100
AcDb2dVertex
 10
754.530966245499
 20
1082.103342484879
 30
0.0
  0
VERTEX
  5
2CC
330
2B5
100
AcDbEntity
  8
Make2D$可见线$普通线
100
AcDbVertex
100
AcDb2dVertex
 10
755.6134136241548
 20
1081.771545410765
 30
0.0
  0
VERTEX
  5
2CD
330
2B5
100
AcDbEntity
  8
Make2D$可见线$普通线
100
AcDbVertex
100
AcDb2dVertex
 10
756.6876076599078
 20
1081.413929975555
 30
0.0
  0
VERTEX
  5
2CE
330
2B5
100
AcDbEntity
  8
Make2D$可见线$普通线
100
AcDbVertex
100
AcDb2dVertex
 10
758.2650320898236
 20
1080.855393655068
 30
0.0
  0
VERTEX
  5
2CF
330
2B5
100
AcDbEntity
  8
Make2D$可见线$普通线
100
AcDbVertex
100
AcDb2dVertex
 10
759.8318723880891
 20
1080.267819431152
 30
0.0
  0
VERTEX
  5
2D0
330
2B5
100
AcDbEntity
  8
Make2D$可见线$普通线
100
AcDbVertex
100
AcDb2dVertex
 10
759.8434938076169
 20
1080.263349615024
 30
0.0
  0
VERTEX
  5
2D1
330
2B5
100
AcDbEntity
  8
Make2D$可见线$普通线
100
AcDbVertex
100
AcDb2dVertex
 10
761.2757580014566
 20
1079.700709629099
 30
0.0
  0
VERTEX
  5
2D2
330
2B5
100
AcDbEntity
  8
Make2D$可见线$普通线
100
AcDbVertex
100
AcDb2dVertex
 10
761.7286087936261
 20
1079.519108883496
 30
0.0
  0
VERTEX
  5
2D3
330
2B5
100
AcDbEntity
  8
Make2D$可见线$普通线
100
AcDbVertex
100
AcDb2dVertex
 10
761.9448678294991
 20
1079.432030071975
 30
0.0
  0
VERTEX
  5
2D4
330
2B5
100
AcDbEntity
  8
Make2D$可见线$普通线
100
AcDbVertex
100
AcDb2dVertex
 10
762.1602498680871
 20
1079.345106953815
 30
0.0
  0
VERTEX
  5
2D5
330
2B5
100
AcDbEntity
  8
Make2D$可见线$普通线
100
AcDbVertex
100
AcDb2dVertex
 10
762.2628536223745
 20
1079.303636137839
 30
0.0
  0
VERTEX
  5
2D6
330
2B5
100
AcDbEntity
  8
Make2D$可见线$普通线
100
AcDbVertex
100
AcDb2dVertex
 10
762.3661231535224
 20
1079.261859426728
 30
0.0
  0
VERTEX
  5
2D7
330
2B5
100
AcDbEntity
  8
Make2D$可见线$普通线
100
AcDbVertex
100
AcDb2dVertex
 10
763.62997507157
 20
1078.749467937191
 30
0.0
  0
VERTEX
  5
2D8
330
2B5
100
AcDbEntity
  8
Make2D$可见线$普通线
100
AcDbVertex
100
AcDb2dVertex
 10
763.6691129140836
 20
1078.733686685415
 30
0.0
  0
VERTEX
  5
2D9
330
2B5
100
AcDbEntity
  8
Make2D$可见线$普通线
100
AcDbVertex
100
AcDb2dVertex
 10
763.7770251748907
 20
1078.690313698889
 30
0.0
  0
VERTEX
  5
2DA
330
2B5
100
AcDbEntity
  8
Make2D$可见线$普通线
100
AcDbVertex
100
AcDb2dVertex
 10
763.8898214752528
 20
1078.645215297552
 30
0.0
  0
VERTEX
  5
2DB
330
2B5
100
AcDbEntity
  8
Make2D$可见线$普通线
100
AcDbVertex
100
AcDb2dVertex
 10
764.0434682789273
 20
1078.583424378006
 30
0.0
 42
0.0956505043280801
  0
VERTEX
  5
2DC
330
2B5
100
AcDbEntity
  8
Make2D$可见线$普通线
100
AcDbVertex
100
AcDb2dVertex
 10
764.4157270973753
 20
1078.511553341075
 30
0.0
  0
VERTEX
  5
2DD
330
2B5
100
AcDbEntity
  8
Make2D$可见线$普通线
100
AcDbVertex
100
AcDb2dVertex
 10
769.66449435879
 20
1078.511395214075
 30
0.0
 42
0.3978258168315718
  0
VERTEX
  5
2DE
330
2B5
100
AcDbEntity
  8
Make2D$可见线$普通线
100
AcDbVertex
100
AcDb2dVertex
 10
770.6629226446462
 20
1079.456415491144
 30
0.0
  0
VERTEX
  5
2DF
330
2B5
100
AcDbEntity
  8
Make2D$可见线$普通线
100
AcDbVertex
100
AcDb2dVertex
 10
770.6780212432345
 20
1079.456415493808
 30
0.0
  0
SEQEND
  5
2E0
330
2B5
100
AcDbEntity
  8
Make2D$可见线$普通线
  0
POLYLINE
  5
2E1
330
1F
100
AcDbEntity
  8
Make2D$可见线$普通线
100
AcDb2dPolyline
 66
     1
 10
0.0
 20
0.0
 30
0.0
  0
VERTEX
  5
2E2
330
2E1
100
AcDbEntity
  8
Make2D$可见线$普通线
100
AcDbVertex
100
AcDb2dVertex
 10
664.5511113241697
 20
1067.302038671748
 30
0.0
  0
VERTEX
  5
2E3
330
2E1
100
AcDbEntity
  8
Make2D$可见线$普通线
100
AcDbVertex
100
AcDb2dVertex
 10
664.4922965970204
 20
1067.263788567987
 30
0.0
 42
0.6017290254270297
  0
VERTEX
  5
2E4
330
2E1
100
AcDbEntity
  8
Make2D$可见线$普通线
100
AcDbVertex
100
AcDb2dVertex
 10
664.6130673040822
 20
1066.409916750196
 30
0.0
  0
SEQEND
  5
2E5
330
2E1
100
AcDbEntity
  8
Make2D$可见线$普通线
  0
POLYLINE
  5
2E6
330
1F
100
AcDbEntity
  8
Make2D$可见线$普通线
100
AcDb2dPolyline
 66
     1
 10
0.0
 20
0.0
 30
0.0
  0
VERTEX
  5
2E7
330
2E6
100
AcDbEntity
  8
Make2D$可见线$普通线
100
AcDbVertex
100
AcDb2dVertex
 10
664.5359917649304
 20
1067.950866052074
 30
0.0
  0
VERTEX
  5
2E8
330
2E6
100
AcDbEntity
  8
Make2D$可见线$普通线
100
AcDbVertex
100
AcDb2dVertex
 10
664.0724703919757
 20
1067.913449678088
 30
0.0
  0
VERTEX
  5
2E9
330
2E6
100
AcDbEntity
  8
Make2D$可见线$普通线
100
AcDbVertex
100
AcDb2dVertex
 10
663.6082188966408
 20
1067.886568507962
 30
0.0
  0
VERTEX
  5
2EA
330
2E6
100
AcDbEntity
  8
Make2D$可见线$普通线
100
AcDbVertex
100
AcDb2dVertex
 10
661.7569266028751
 20
1067.809258085425
 30
0.0
  0
VERTEX
  5
2EB
330
2E6
100
AcDbEntity
  8
Make2D$可见线$普通线
100
AcDbVertex
100
AcDb2dVertex
 10
657.8599453800723
 20
1067.693959091646
 30
0.0
  0
VERTEX
  5
2EC
330
2E6
100
AcDbEntity
  8
Make2D$可见线$普通线
100
AcDbVertex
100
AcDb2dVertex
 10
650.2629553040135
 20
1067.501308993437
 30
0.0
  0
VERTEX
  5
2ED
330
2E6
100
AcDbEntity
  8
Make2D$可见线$普通线
100
AcDbVertex
100
AcDb2dVertex
 10
646.8261862221317
 20
1067.398253884257
 30
0.0
  0
VERTEX
  5
2EE
330
2E6
100
AcDbEntity
  8
Make2D$可见线$普通线
100
AcDbVertex
100
AcDb2dVertex
 10
644.7527462574052
 20
1067.308636230975
 30
0.0
  0
VERTEX
  5
2EF
330
2E6
100
AcDbEntity
  8
Make2D$可见线$普通线
100
AcDbVertex
100
AcDb2dVertex
 10
644.3455123074798
 20
1067.282647053801
 30
0.0
  0
VERTEX
  5
2F0
330
2E6
100
AcDbEntity
  8
Make2D$可见线$普通线
100
AcDbVertex
100
AcDb2dVertex
 10
643.9392438221511
 20
1067.244426050008
 30
0.0
  0
VERTEX
  5
2F1
330
2E6
100
AcDbEntity
  8
Make2D$可见线$普通线
100
AcDbVertex
100
AcDb2dVertex
 10
643.8912190679464
 20
1067.237962074957
 30
0.0
  0
VERTEX
  5
2F2
330
2E6
100
AcDbEntity
  8
Make2D$可见线$普通线
100
AcDbVertex
100
AcDb2dVertex
 10
643.8495594789656
 20
1067.231501890624
 30
0.0
  0
VERTEX
  5
2F3
330
2E6
100
AcDbEntity
  8
Make2D$可见线$普通线
100
AcDbVertex
100
AcDb2dVertex
 10
643.8142768092509
 20
1067.225044095315
 30
0.0
  0
VERTEX
  5
2F4
330
2E6
100
AcDbEntity
  8
Make2D$可见线$普通线
100
AcDbVertex
100
AcDb2dVertex
 10
643.7990304922566
 20
1067.221815655516
 30
0.0
  0
VERTEX
  5
2F5
330
2E6
100
AcDbEntity
  8
Make2D$可见线$普通线
100
AcDbVertex
100
AcDb2dVertex
 10
643.7853828128447
 20
1067.218587287338
 30
0.0
  0
VERTEX
  5
2F6
330
2E6
100
AcDbEntity
  8
Make2D$可见线$普通线
100
AcDbVertex
100
AcDb2dVertex
 10
643.7733352402703
 20
1067.21535881557
 30
0.0
  0
VERTEX
  5
2F7
330
2E6
100
AcDbEntity
  8
Make2D$可见线$普通线
100
AcDbVertex
100
AcDb2dVertex
 10
643.7679119531895
 20
1067.213744486086
 30
0.0
  0
VERTEX
  5
2F8
330
2E6
100
AcDbEntity
  8
Make2D$可见线$普通线
100
AcDbVertex
100
AcDb2dVertex
 10
643.7628892437888
 20
1067.212130065
 30
0.0
  0
VERTEX
  5
2F9
330
2E6
100
AcDbEntity
  8
Make2D$可见线$普通线
100
AcDbVertex
100
AcDb2dVertex
 10
643.7582672957251
 20
1067.21051553041
 30
0.0
  0
VERTEX
  5
2FA
330
2E6
100
AcDbEntity
  8
Make2D$可见线$普通线
100
AcDbVertex
100
AcDb2dVertex
 10
643.7540462926552
 20
1067.208900860415
 30
0.0
  0
VERTEX
  5
2FB
330
2E6
100
AcDbEntity
  8
Make2D$可见线$普通线
100
AcDbVertex
100
AcDb2dVertex
 10
643.7520862028858
 20
1067.208093467797
 30
0.0
  0
VERTEX
  5
2FC
330
2E6
100
AcDbEntity
  8
Make2D$可见线$普通线
100
AcDbVertex
100
AcDb2dVertex
 10
643.7502264182363
 20
1067.207286033114
 30
0.0
  0
VERTEX
  5
2FD
330
2E6
100
AcDbEntity
  8
Make2D$可见线$普通线
100
AcDbVertex
100
AcDb2dVertex
 10
643.7484669616638
 20
1067.206478553629
 30
0.0
  0
VERTEX
  5
2FE
330
2E6
100
AcDbEntity
  8
Make2D$可见线$普通线
100
AcDbVertex
100
AcDb2dVertex
 10
643.7468078561252
 20
1067.205671026605
 30
0.0
  0
VERTEX
  5
2FF
330
2E6
100
AcDbEntity
  8
Make2D$可见线$普通线
100
AcDbVertex
100
AcDb2dVertex
 10
643.7452491245779
 20
1067.204863449304
 30
0.0
  0
VERTEX
  5
300
330
2E6
100
AcDbEntity
  8
Make2D$可见线$普通线
100
AcDbVertex
100
AcDb2dVertex
 10
643.7437907899787
 20
1067.204055818987
 30
0.0
  0
VERTEX
  5
301
330
2E6
100
AcDbEntity
  8
Make2D$可见线$普通线
100
AcDbVertex
100
AcDb2dVertex
 10
643.742432875285
 20
1067.203248132917
 30
0.0
  0
VERTEX
  5
302
330
2E6
100
AcDbEntity
  8
Make2D$可见线$普通线
100
AcDbVertex
100
AcDb2dVertex
 10
643.7417915825768
 20
1067.20284426812
 30
0.0
  0
VERTEX
  5
303
330
2E6
100
AcDbEntity
  8
Make2D$可见线$普通线
100
AcDbVertex
100
AcDb2dVertex
 10
643.7411754034538
 20
1067.202440388358
 30
0.0
  0
VERTEX
  5
304
330
2E6
100
AcDbEntity
  8
Make2D$可见线$普通线
100
AcDbVertex
100
AcDb2dVertex
 10
643.7405843407859
 20
1067.202036493289
 30
0.0
  0
VERTEX
  5
305
330
2E6
100
AcDbEntity
  8
Make2D$可见线$普通线
100
AcDbVertex
100
AcDb2dVertex
 10
643.7400183974423
 20
1067.20163258257
 30
0.0
  0
VERTEX
  5
306
330
2E6
100
AcDbEntity
  8
Make2D$可见线$普通线
100
AcDbVertex
100
AcDb2dVertex
 10
643.739477576293
 20
1067.20122865586
 30
0.0
  0
VERTEX
  5
307
330
2E6
100
AcDbEntity
  8
Make2D$可见线$普通线
100
AcDbVertex
100
AcDb2dVertex
 10
643.7389618802074
 20
1067.200824712817
 30
0.0
  0
VERTEX
  5
308
330
2E6
100
AcDbEntity
  8
Make2D$可见线$普通线
100
AcDbVertex
100
AcDb2dVertex
 10
643.7384713120553
 20
1067.200420753098
 30
0.0
  0
VERTEX
  5
309
330
2E6
100
AcDbEntity
  8
Make2D$可见线$普通线
100
AcDbVertex
100
AcDb2dVertex
 10
643.7380058747063
 20
1067.20001677636
 30
0.0
  0
VERTEX
  5
30A
330
2E6
100
AcDbEntity
  8
Make2D$可见线$普通线
100
AcDbVertex
100
AcDb2dVertex
 10
643.7375655710301
 20
1067.199612782262
 30
0.0
  0
VERTEX
  5
30B
330
2E6
100
AcDbEntity
  8
Make2D$可见线$普通线
100
AcDbVertex
100
AcDb2dVertex
 10
643.7371504038963
 20
1067.199208770462
 30
0.0
  0
VERTEX
  5
30C
330
2E6
100
AcDbEntity
  8
Make2D$可见线$普通线
100
AcDbVertex
100
AcDb2dVertex
 10
643.7367603761745
 20
1067.198804740617
 30
0.0
  0
VERTEX
  5
30D
330
2E6
100
AcDbEntity
  8
Make2D$可见线$普通线
100
AcDbVertex
100
AcDb2dVertex
 10
643.7363954907343
 20
1067.198400692385
 30
0.0
  0
VERTEX
  5
30E
330
2E6
100
AcDbEntity
  8
Make2D$可见线$普通线
100
AcDbVertex
100
AcDb2dVertex
 10
643.7362224772666
 20
1067.198198661267
 30
0.0
  0
VERTEX
  5
30F
330
2E6
100
AcDbEntity
  8
Make2D$可见线$普通线
100
AcDbVertex
100
AcDb2dVertex
 10
643.7360557504454
 20
1067.197996625424
 30
0.0
  0
VERTEX
  5
310
330
2E6
100
AcDbEntity
  8
Make2D$可见线$普通线
100
AcDbVertex
100
AcDb2dVertex
 10
643.7358953106295
 20
1067.197794584813
 30
0.0
  0
VERTEX
  5
311
330
2E6
100
AcDbEntity
  8
Make2D$可见线$普通线
100
AcDbVertex
100
AcDb2dVertex
 10
643.7357411581775
 20
1067.197592539392
 30
0.0
  0
VERTEX
  5
312
330
2E6
100
AcDbEntity
  8
Make2D$可见线$普通线
100
AcDbVertex
100
AcDb2dVertex
 10
643.7355932934481
 20
1067.197390489117
 30
0.0
  0
VERTEX
  5
313
330
2E6
100
AcDbEntity
  8
Make2D$可见线$普通线
100
AcDbVertex
100
AcDb2dVertex
 10
643.7354517168002
 20
1067.197188433946
 30
0.0
  0
VERTEX
  5
314
330
2E6
100
AcDbEntity
  8
Make2D$可见线$普通线
100
AcDbVertex
100
AcDb2dVertex
 10
643.7353164285921
 20
1067.196986373836
 30
0.0
  0
VERTEX
  5
315
330
2E6
100
AcDbEntity
  8
Make2D$可见线$普通线
100
AcDbVertex
100
AcDb2dVertex
 10
643.735187429183
 20
1067.196784308744
 30
0.0
  0
VERTEX
  5
316
330
2E6
100
AcDbEntity
  8
Make2D$可见线$普通线
100
AcDbVertex
100
AcDb2dVertex
 10
643.7350647189312
 20
1067.196582238628
 30
0.0
  0
VERTEX
  5
317
330
2E6
100
AcDbEntity
  8
Make2D$可见线$普通线
100
AcDbVertex
100
AcDb2dVertex
 10
643.7349482981956
 20
1067.196380163445
 30
0.0
  0
VERTEX
  5
318
330
2E6
100
AcDbEntity
  8
Make2D$可见线$普通线
100
AcDbVertex
100
AcDb2dVertex
 10
643.734838167335
 20
1067.196178083151
 30
0.0
  0
VERTEX
  5
319
330
2E6
100
AcDbEntity
  8
Make2D$可见线$普通线
100
AcDbVertex
100
AcDb2dVertex
 10
643.7347343267079
 20
1067.195975997705
 30
0.0
  0
VERTEX
  5
31A
330
2E6
100
AcDbEntity
  8
Make2D$可见线$普通线
100
AcDbVertex
100
AcDb2dVertex
 10
643.7346367766731
 20
1067.195773907063
 30
0.0
  0
VERTEX
  5
31B
330
2E6
100
AcDbEntity
  8
Make2D$可见线$普通线
100
AcDbVertex
100
AcDb2dVertex
 10
643.7345455175891
 20
1067.195571811183
 30
0.0
  0
VERTEX
  5
31C
330
2E6
100
AcDbEntity
  8
Make2D$可见线$普通线
100
AcDbVertex
100
AcDb2dVertex
 10
643.7344605498151
 20
1067.195369710022
 30
0.0
  0
VERTEX
  5
31D
330
2E6
100
AcDbEntity
  8
Make2D$可见线$普通线
100
AcDbVertex
100
AcDb2dVertex
 10
643.7343818737093
 20
1067.195167603536
 30
0.0
  0
VERTEX
  5
31E
330
2E6
100
AcDbEntity
  8
Make2D$可见线$普通线
100
AcDbVertex
100
AcDb2dVertex
 10
643.7343094896306
 20
1067.194965491684
 30
0.0
  0
VERTEX
  5
31F
330
2E6
100
AcDbEntity
  8
Make2D$可见线$普通线
100
AcDbVertex
100
AcDb2dVertex
 10
643.7342433979378
 20
1067.194763374423
 30
0.0
  0
VERTEX
  5
320
330
2E6
100
AcDbEntity
  8
Make2D$可见线$普通线
100
AcDbVertex
100
AcDb2dVertex
 10
643.7341835989895
 20
1067.194561251709
 30
0.0
  0
VERTEX
  5
321
330
2E6
100
AcDbEntity
  8
Make2D$可见线$普通线
100
AcDbVertex
100
AcDb2dVertex
 10
643.7341300931444
 20
1067.1943591235
 30
0.0
  0
VERTEX
  5
322
330
2E6
100
AcDbEntity
  8
Make2D$可见线$普通线
100
AcDbVertex
100
AcDb2dVertex
 10
643.7340828807612
 20
1067.194156989754
 30
0.0
  0
VERTEX
  5
323
330
2E6
100
AcDbEntity
  8
Make2D$可见线$普通线
100
AcDbVertex
100
AcDb2dVertex
 10
643.7340419621986
 20
1067.193954850427
 30
0.0
  0
VERTEX
  5
324
330
2E6
100
AcDbEntity
  8
Make2D$可见线$普通线
100
AcDbVertex
100
AcDb2dVertex
 10
643.7340073378155
 20
1067.193752705477
 30
0.0
  0
VERTEX
  5
325
330
2E6
100
AcDbEntity
  8
Make2D$可见线$普通线
100
AcDbVertex
100
AcDb2dVertex
 10
643.7339790079702
 20
1067.19355055486
 30
0.0
  0
VERTEX
  5
326
330
2E6
100
AcDbEntity
  8
Make2D$可见线$普通线
100
AcDbVertex
100
AcDb2dVertex
 10
643.7339569730217
 20
1067.193348398534
 30
0.0
  0
VERTEX
  5
327
330
2E6
100
AcDbEntity
  8
Make2D$可见线$普通线
100
AcDbVertex
100
AcDb2dVertex
 10
643.7339412333288
 20
1067.193146236457
 30
0.0
  0
VERTEX
  5
328
330
2E6
100
AcDbEntity
  8
Make2D$可见线$普通线
100
AcDbVertex
100
AcDb2dVertex
 10
643.7339317892499
 20
1067.192944068585
 30
0.0
  0
VERTEX
  5
329
330
2E6
100
AcDbEntity
  8
Make2D$可见线$普通线
100
AcDbVertex
100
AcDb2dVertex
 10
643.7339286411438
 20
1067.192741894876
 30
0.0
  0
VERTEX
  5
32A
330
2E6
100
AcDbEntity
  8
Make2D$可见线$普通线
100
AcDbVertex
100
AcDb2dVertex
 10
643.733928641144
 20
1066.542344154161
 30
0.0
  0
SEQEND
  5
32B
330
2E6
100
AcDbEntity
  8
Make2D$可见线$普通线
  0
POLYLINE
  5
32C
330
1F
100
AcDbEntity
  8
Make2D$可见线$普通线
100
AcDb2dPolyline
 66
     1
 10
0.0
 20
0.0
 30
0.0
  0
VERTEX
  5
32D
330
32C
100
AcDbEntity
  8
Make2D$可见线$普通线
100
AcDbVertex
100
AcDb2dVertex
 10
544.9470520817887
 20
1112.089316448299
 30
0.0
  0
VERTEX
  5
32E
330
32C
100
AcDbEntity
  8
Make2D$可见线$普通线
100
AcDbVertex
100
AcDb2dVertex
 10
525.2983201678313
 20
1112.089316448299
 30
0.0
  0
VERTEX
  5
32F
330
32C
100
AcDbEntity
  8
Make2D$可见线$普通线
100
AcDbVertex
100
AcDb2dVertex
 10
525.2983201678313
 20
1090.933790233851
 30
0.0
  0
VERTEX
  5
330
330
32C
100
AcDbEntity
  8
Make2D$可见线$普通线
100
AcDbVertex
100
AcDb2dVertex
 10
544.9470520817887
 20
1090.933790233851
 30
0.0
  0
SEQEND
  5
331
330
32C
100
AcDbEntity
  8
Make2D$可见线$普通线
  0
POLYLINE
  5
332
330
1F
100
AcDbEntity
  8
Make2D$可见线$普通线
100
AcDb2dPolyline
 66
     1
 10
0.0
 20
0.0
 30
0.0
  0
VERTEX
  5
333
330
332
100
AcDbEntity
  8
Make2D$可见线$普通线
100
AcDbVertex
100
AcDb2dVertex
 10
544.9470520817887
 20
1101.511553341075
 30
0.0
  0
VERTEX
  5
334
330
332
100
AcDbEntity
  8
Make2D$可见线$普通线
100
AcDbVertex
100
AcDb2dVertex
 10
544.9470851487042
 20
1071.013632888825
 30
0.0
  0
VERTEX
  5
335
330
332
100
AcDbEntity
  8
Make2D$可见线$普通线
100
AcDbVertex
100
AcDb2dVertex
 10
574.6869431529225
 20
1071.271634762652
 30
0.0
 42
0.4117189958351672
  0
VERTEX
  5
336
330
332
100
AcDbEntity
  8
Make2D$可见线$普通线
100
AcDbVertex
100
AcDb2dVertex
 10
576.6836972927696
 20
1073.285168349052
 30
0.0
  0
VERTEX
  5
337
330
332
100
AcDbEntity
  8
Make2D$可见线$普通线
100
AcDbVertex
100
AcDb2dVertex
 10
576.6836972927695
 20
1129.73446140267
 30
0.0
 42
0.4119707543277275
  0
VERTEX
  5
338
330
332
100
AcDbEntity
  8
Make2D$可见线$普通线
100
AcDbVertex
100
AcDb2dVertex
 10
574.6869431529225
 20
1131.751471919498
 30
0.0
  0
VERTEX
  5
339
330
332
100
AcDbEntity
  8
Make2D$可见线$普通线
100
AcDbVertex
100
AcDb2dVertex
 10
544.9470851487042
 20
1132.009473793325
 30
0.0
  0
VERTEX
  5
33A
330
332
100
AcDbEntity
  8
Make2D$可见线$普通线
100
AcDbVertex
100
AcDb2dVertex
 10
544.9470520817887
 20
1101.511553341075
 30
0.0
  0
SEQEND
  5
33B
330
332
100
AcDbEntity
  8
Make2D$可见线$普通线
  0
POLYLINE
  5
33C
330
1F
100
AcDbEntity
  8
Make2D$可见线$普通线
100
AcDb2dPolyline
 66
     1
 10
0.0
 20
0.0
 30
0.0
  0
VERTEX
  5
33D
330
33C
100
AcDbEntity
  8
Make2D$可见线$普通线
100
AcDbVertex
100
AcDb2dVertex
 10
582.2242705446814
 20
1116.62312290701
 30
0.0
  0
VERTEX
  5
33E
330
33C
100
AcDbEntity
  8
Make2D$可见线$普通线
100
AcDbVertex
100
AcDb2dVertex
 10
581.1705213011318
 20
1117.884937287821
 30
0.0
  0
VERTEX
  5
33F
330
33C
100
AcDbEntity
  8
Make2D$可见线$普通线
100
AcDbVertex
100
AcDb2dVertex
 10
581.1705213011318
 20
1085.138169394329
 30
0.0
  0
VERTEX
  5
340
330
33C
100
AcDbEntity
  8
Make2D$可见线$普通线
100
AcDbVertex
100
AcDb2dVertex
 10
582.2242705446814
 20
1086.39998377514
 30
0.0
  0
VERTEX
  5
341
330
33C
100
AcDbEntity
  8
Make2D$可见线$普通线
100
AcDbVertex
100
AcDb2dVertex
 10
592.8053895412153
 20
1086.39998377514
 30
0.0
  0
VERTEX
  5
342
330
33C
100
AcDbEntity
  8
Make2D$可见线$普通线
100
AcDbVertex
100
AcDb2dVertex
 10
592.8053895412153
 20
1116.62312290701
 30
0.0
  0
VERTEX
  5
343
330
33C
100
AcDbEntity
  8
Make2D$可见线$普通线
100
AcDbVertex
100
AcDb2dVertex
 10
582.2242705446814
 20
1116.62312290701
 30
0.0
  0
VERTEX
  5
344
330
33C
100
AcDbEntity
  8
Make2D$可见线$普通线
100
AcDbVertex
100
AcDb2dVertex
 10
582.2242705446814
 20
1086.39998377514
 30
0.0
  0
SEQEND
  5
345
330
33C
100
AcDbEntity
  8
Make2D$可见线$普通线
  0
POLYLINE
  5
346
330
1F
100
AcDbEntity
  8
Make2D$可见线$普通线
100
AcDb2dPolyline
 66
     1
 10
0.0
 20
0.0
 30
0.0
  0
VERTEX
  5
347
330
346
100
AcDbEntity
  8
Make2D$可见线$普通线
100
AcDbVertex
100
AcDb2dVertex
 10
525.2930619972561
 20
1112.084058277723
 30
0.0
  0
VERTEX
  5
348
330
346
100
AcDbEntity
  8
Make2D$可见线$普通线
100
AcDbVertex
100
AcDb2dVertex
 10
524.2915533746315
 20
1111.077791944925
 30
0.0
  0
VERTEX
  5
349
330
346
100
AcDbEntity
  8
Make2D$可见线$普通线
100
AcDbVertex
100
AcDb2dVertex
 10
524.2915533746316
 20
1091.94531473723
 30
0.0
  0
VERTEX
  5
34A
330
346
100
AcDbEntity
  8
Make2D$可见线$普通线
100
AcDbVertex
100
AcDb2dVertex
 10
525.2930619972561
 20
1090.939048404426
 30
0.0
  0
SEQEND
  5
34B
330
346
100
AcDbEntity
  8
Make2D$可见线$普通线
  0
POLYLINE
  5
34C
330
1F
100
AcDbEntity
  8
Make2D$可见线$普通线
100
AcDb2dPolyline
 66
     1
 10
0.0
 20
0.0
 30
0.0
  0
VERTEX
  5
34D
330
34C
100
AcDbEntity
  8
Make2D$可见线$普通线
100
AcDbVertex
100
AcDb2dVertex
 10
664.0135677455064
 20
1071.369288974562
 30
0.0
 42
0.4137505519907062
  0
VERTEX
  5
34E
330
34C
100
AcDbEntity
  8
Make2D$可见线$普通线
100
AcDbVertex
100
AcDb2dVertex
 10
663.5101843489063
 20
1070.865905577962
 30
0.0
  0
VERTEX
  5
34F
330
34C
100
AcDbEntity
  8
Make2D$可见线$普通线
100
AcDbVertex
100
AcDb2dVertex
 10
663.5101843489063
 20
1069.855782895452
 30
0.0
 42
0.359021590583013
  0
VERTEX
  5
350
330
34C
100
AcDbEntity
  8
Make2D$可见线$普通线
100
AcDbVertex
100
AcDb2dVertex
 10
663.9235764913332
 20
1069.359749450138
 30
0.0
  0
SEQEND
  5
351
330
34C
100
AcDbEntity
  8
Make2D$可见线$普通线
  0
POLYLINE
  5
352
330
1F
100
AcDbEntity
  8
Make2D$可见线$普通线
100
AcDb2dPolyline
 66
     1
 10
0.0
 20
0.0
 30
0.0
  0
VERTEX
  5
353
330
352
100
AcDbEntity
  8
Make2D$可见线$普通线
100
AcDbVertex
100
AcDb2dVertex
 10
644.0312363048436
 20
1063.192119110924
 30
0.0
  0
VERTEX
  5
354
330
352
100
AcDbEntity
  8
Make2D$可见线$普通线
100
AcDbVertex
100
AcDb2dVertex
 10
643.7860161779912
 20
1063.228359564195
 30
0.0
 42
-0.2356274959155989
  0
VERTEX
  5
355
330
352
100
AcDbEntity
  8
Make2D$可见线$普通线
100
AcDbVertex
100
AcDb2dVertex
 10
643.7339286411438
 20
1063.254352384629
 30
0.0
 42
-0.1889798312947966
  0
VERTEX
  5
356
330
352
100
AcDbEntity
  8
Make2D$可见线$普通线
100
AcDbVertex
100
AcDb2dVertex
 10
643.8463570835213
 20
1063.292578722296
 30
0.0
  0
VERTEX
  5
357
330
352
100
AcDbEntity
  8
Make2D$可见线$普通线
100
AcDbVertex
100
AcDb2dVertex
 10
644.0174166663069
 20
1063.314226185332
 30
0.0
  0
VERTEX
  5
358
330
352
100
AcDbEntity
  8
Make2D$可见线$普通线
100
AcDbVertex
100
AcDb2dVertex
 10
644.188946795308
 20
1063.332155363268
 30
0.0
  0
VERTEX
  5
359
330
352
100
AcDbEntity
  8
Make2D$可见线$普通线
100
AcDbVertex
100
AcDb2dVertex
 10
644.3608260827802
 20
1063.346352233151
 30
0.0
  0
VERTEX
  5
35A
330
352
100
AcDbEntity
  8
Make2D$可见线$普通线
100
AcDbVertex
100
AcDb2dVertex
 10
645.8040576184677
 20
1063.421015144371
 30
0.0
  0
VERTEX
  5
35B
330
352
100
AcDbEntity
  8
Make2D$可见线$普通线
100
AcDbVertex
100
AcDb2dVertex
 10
647.5845607917098
 20
1063.485250440277
 30
0.0
  0
VERTEX
  5
35C
330
352
100
AcDbEntity
  8
Make2D$可见线$普通线
100
AcDbVertex
100
AcDb2dVertex
 10
652.2194101964654
 20
1063.613676623794
 30
0.0
  0
VERTEX
  5
35D
330
352
100
AcDbEntity
  8
Make2D$可见线$普通线
100
AcDbVertex
100
AcDb2dVertex
 10
659.7084319679283
 20
1063.806342367251
 30
0.0
  0
VERTEX
  5
35E
330
352
100
AcDbEntity
  8
Make2D$可见线$普通线
100
AcDbVertex
100
AcDb2dVertex
 10
661.7569266028751
 20
1063.870874642652
 30
0.0
  0
VERTEX
  5
35F
330
352
100
AcDbEntity
  8
Make2D$可见线$普通线
100
AcDbVertex
100
AcDb2dVertex
 10
663.3408274754416
 20
1063.934788644432
 30
0.0
  0
VERTEX
  5
360
330
352
100
AcDbEntity
  8
Make2D$可见线$普通线
100
AcDbVertex
100
AcDb2dVertex
 10
664.3909230943405
 20
1063.998997765847
 30
0.0
 42
0.0564179540716862
  0
VERTEX
  5
361
330
352
100
AcDbEntity
  8
Make2D$可见线$普通线
100
AcDbVertex
100
AcDb2dVertex
 10
664.8358671412815
 20
1064.063225506348
 30
0.0
  0
VERTEX
  5
362
330
352
100
AcDbEntity
  8
Make2D$可见线$普通线
100
AcDbVertex
100
AcDb2dVertex
 10
664.8491841838628
 20
1064.076364490875
 30
0.0
  0
VERTEX
  5
363
330
352
100
AcDbEntity
  8
Make2D$可见线$普通线
100
AcDbVertex
100
AcDb2dVertex
 10
664.8491841838627
 20
1064.726744452297
 30
0.0
  0
SEQEND
  5
364
330
352
100
AcDbEntity
  8
Make2D$可见线$普通线
  0
POLYLINE
  5
365
330
1F
100
AcDbEntity
  8
Make2D$可见线$普通线
100
AcDb2dPolyline
 66
     1
 10
0.0
 20
0.0
 30
0.0
  0
VERTEX
  5
366
330
365
100
AcDbEntity
  8
Make2D$可见线$普通线
100
AcDbVertex
100
AcDb2dVertex
 10
644.0123340621707
 20
1065.603778437961
 30
0.0
 42
0.5947444308870187
  0
VERTEX
  5
367
330
365
100
AcDbEntity
  8
Make2D$可见线$普通线
100
AcDbVertex
100
AcDb2dVertex
 10
644.0608263796205
 20
1066.461800129108
 30
0.0
  0
VERTEX
  5
368
330
365
100
AcDbEntity
  8
Make2D$可见线$普通线
100
AcDbVertex
100
AcDb2dVertex
 10
644.0296902359828
 20
1066.480285422189
 30
0.0
  0
VERTEX
  5
369
330
365
100
AcDbEntity
  8
Make2D$可见线$普通线
100
AcDbVertex
100
AcDb2dVertex
 10
643.8500634391747
 20
1066.503515131789
 30
0.0
 42
-0.1868687718576961
  0
VERTEX
  5
36A
330
365
100
AcDbEntity
  8
Make2D$可见线$普通线
100
AcDbVertex
100
AcDb2dVertex
 10
643.7339286411436
 20
1066.542344154161
 30
0.0
 42
-0.2382747581453648
  0
VERTEX
  5
36B
330
365
100
AcDbEntity
  8
Make2D$可见线$普通线
100
AcDbVertex
100
AcDb2dVertex
 10
643.7835926113255
 20
1066.567750427694
 30
0.0
 42
-0.0334195083938893
  0
VERTEX
  5
36C
330
365
100
AcDbEntity
  8
Make2D$可见线$普通线
100
AcDbVertex
100
AcDb2dVertex
 10
644.3469076164695
 20
1066.6319621328
 30
0.0
  0
VERTEX
  5
36D
330
365
100
AcDbEntity
  8
Make2D$可见线$普通线
100
AcDbVertex
100
AcDb2dVertex
 10
645.5061599381448
 20
1066.696176611212
 30
0.0
  0
VERTEX
  5
36E
330
365
100
AcDbEntity
  8
Make2D$可见线$普通线
100
AcDbVertex
100
AcDb2dVertex
 10
647.1924556642634
 20
1066.760410771107
 30
0.0
  0
VERTEX
  5
36F
330
365
100
AcDbEntity
  8
Make2D$可见线$普通线
100
AcDbVertex
100
AcDb2dVertex
 10
651.7140205272511
 20
1066.888842354668
 30
0.0
  0
VERTEX
  5
370
330
365
100
AcDbEntity
  8
Make2D$可见线$普通线
100
AcDbVertex
100
AcDb2dVertex
 10
654.2791833807948
 20
1066.953067985338
 30
0.0
  0
VERTEX
  5
371
330
365
100
AcDbEntity
  8
Make2D$可见线$普通线
100
AcDbVertex
100
AcDb2dVertex
 10
654.2915564125035
 20
1066.953374630066
 30
0.0
  0
VERTEX
  5
372
330
365
100
AcDbEntity
  8
Make2D$可见线$普通线
100
AcDbVertex
100
AcDb2dVertex
 10
659.2573070660977
 20
1067.081497753264
 30
0.0
  0
VERTEX
  5
373
330
365
100
AcDbEntity
  8
Make2D$可见线$普通线
100
AcDbVertex
100
AcDb2dVertex
 10
661.756926602875
 20
1067.158864478267
 30
0.0
  0
VERTEX
  5
374
330
365
100
AcDbEntity
  8
Make2D$可见线$普通线
100
AcDbVertex
100
AcDb2dVertex
 10
663.0631152384743
 20
1067.209938308849
 30
0.0
  0
VERTEX
  5
375
330
365
100
AcDbEntity
  8
Make2D$可见线$普通线
100
AcDbVertex
100
AcDb2dVertex
 10
664.2277553269428
 20
1067.274143129677
 30
0.0
 42
0.0326607952133618
  0
VERTEX
  5
376
330
365
100
AcDbEntity
  8
Make2D$可见线$普通线
100
AcDbVertex
100
AcDb2dVertex
 10
664.7970966470155
 20
1067.338359547418
 30
0.0
  0
VERTEX
  5
377
330
365
100
AcDbEntity
  8
Make2D$可见线$普通线
100
AcDbVertex
100
AcDb2dVertex
 10
664.8491841838628
 20
1067.364352374306
 30
0.0
  0
VERTEX
  5
378
330
365
100
AcDbEntity
  8
Make2D$可见线$普通线
100
AcDbVertex
100
AcDb2dVertex
 10
664.8491841838628
 20
1068.014733968304
 30
0.0
 42
-0.1427936817365769
  0
VERTEX
  5
379
330
365
100
AcDbEntity
  8
Make2D$可见线$普通线
100
AcDbVertex
100
AcDb2dVertex
 10
664.6180599956764
 20
1067.959925522604
 30
0.0
  0
SEQEND
  5
37A
330
365
100
AcDbEntity
  8
Make2D$可见线$普通线
  0
POLYLINE
  5
37B
330
1F
100
AcDbEntity
  8
Make2D$可见线$普通线
100
AcDb2dPolyline
 66
     1
 10
0.0
 20
0.0
 30
0.0
  0
VERTEX
  5
37C
330
37B
100
AcDbEntity
  8
Make2D$可见线$普通线
100
AcDbVertex
100
AcDb2dVertex
 10
664.8491841838628
 20
1069.008221266433
 30
0.0
  0
VERTEX
  5
37D
330
37B
100
AcDbEntity
  8
Make2D$可见线$普通线
100
AcDbVertex
100
AcDb2dVertex
 10
664.8491841838628
 20
1069.352399498851
 30
0.0
  0
VERTEX
  5
37E
330
37B
100
AcDbEntity
  8
Make2D$可见线$普通线
100
AcDbVertex
100
AcDb2dVertex
 10
643.7339286411438
 20
1069.352399498851
 30
0.0
  0
VERTEX
  5
37F
330
37B
100
AcDbEntity
  8
Make2D$可见线$普通线
100
AcDbVertex
100
AcDb2dVertex
 10
643.7339286411438
 20
1068.186364478041
 30
0.0
  0
SEQEND
  5
380
330
37B
100
AcDbEntity
  8
Make2D$可见线$普通线
  0
POLYLINE
  5
381
330
1F
100
AcDbEntity
  8
Make2D$可见线$普通线
100
AcDb2dPolyline
 66
     1
 10
0.0
 20
0.0
 30
0.0
  0
VERTEX
  5
382
330
381
100
AcDbEntity
  8
Make2D$可见线$普通线
100
AcDbVertex
100
AcDb2dVertex
 10
664.5561707703521
 20
1063.144529173607
 30
0.0
 42
-0.129758747267334
  0
VERTEX
  5
383
330
381
100
AcDbEntity
  8
Make2D$可见线$普通线
100
AcDbVertex
100
AcDb2dVertex
 10
664.8491841838628
 20
1063.08274191565
 30
0.0
  0
VERTEX
  5
384
330
381
100
AcDbEntity
  8
Make2D$可见线$普通线
100
AcDbVertex
100
AcDb2dVertex
 10
664.8491841838629
 20
1062.432344170941
 30
0.0
 42
-0.1868687718667447
  0
VERTEX
  5
385
330
381
100
AcDbEntity
  8
Make2D$可见线$普通线
100
AcDbVertex
100
AcDb2dVertex
 10
664.733049385832
 20
1062.393515148566
 30
0.0
 42
-0.0167642341831293
  0
VERTEX
  5
386
330
381
100
AcDbEntity
  8
Make2D$可见线$普通线
100
AcDbVertex
100
AcDb2dVertex
 10
663.0689525149228
 20
1062.278184831965
 30
0.0
  0
VERTEX
  5
387
330
381
100
AcDbEntity
  8
Make2D$可见线$普通线
100
AcDbVertex
100
AcDb2dVertex
 10
643.7573517601041
 20
1062.278184831965
 30
0.0
  0
VERTEX
  5
388
330
381
100
AcDbEntity
  8
Make2D$可见线$普通线
100
AcDbVertex
100
AcDb2dVertex
 10
643.7532287236195
 20
1062.258884749489
 30
0.0
  0
VERTEX
  5
389
330
381
100
AcDbEntity
  8
Make2D$可见线$普通线
100
AcDbVertex
100
AcDb2dVertex
 10
644.7253178086582
 20
1061.291553374628
 30
0.0
  0
VERTEX
  5
38A
330
381
100
AcDbEntity
  8
Make2D$可见线$普通线
100
AcDbVertex
100
AcDb2dVertex
 10
663.8625527265264
 20
1061.291553374629
 30
0.0
  0
VERTEX
  5
38B
330
381
100
AcDbEntity
  8
Make2D$可见线$普通线
100
AcDbVertex
100
AcDb2dVertex
 10
664.3252905667944
 20
1061.754291214896
 30
0.0
  0
VERTEX
  5
38C
330
381
100
AcDbEntity
  8
Make2D$可见线$普通线
100
AcDbVertex
100
AcDb2dVertex
 10
664.3252465575765
 20
1061.754248858928
 30
0.0
  0
VERTEX
  5
38D
330
381
100
AcDbEntity
  8
Make2D$可见线$普通线
100
AcDbVertex
100
AcDb2dVertex
 10
664.3251992746804
 20
1061.754206535692
 30
0.0
  0
VERTEX
  5
38E
330
381
100
AcDbEntity
  8
Make2D$可见线$普通线
100
AcDbVertex
100
AcDb2dVertex
 10
664.3251487181709
 20
1061.754164245122
 30
0.0
  0
VERTEX
  5
38F
330
381
100
AcDbEntity
  8
Make2D$可见线$普通线
100
AcDbVertex
100
AcDb2dVertex
 10
664.3250948881133
 20
1061.754121987148
 30
0.0
  0
VERTEX
  5
390
330
381
100
AcDbEntity
  8
Make2D$可见线$普通线
100
AcDbVertex
100
AcDb2dVertex
 10
664.3250377845726
 20
1061.754079761704
 30
0.0
  0
VERTEX
  5
391
330
381
100
AcDbEntity
  8
Make2D$可见线$普通线
100
AcDbVertex
100
AcDb2dVertex
 10
664.324977407614
 20
1061.754037568722
 30
0.0
  0
VERTEX
  5
392
330
381
100
AcDbEntity
  8
Make2D$可见线$普通线
100
AcDbVertex
100
AcDb2dVertex
 10
664.3249137573025
 20
1061.753995408134
 30
0.0
  0
VERTEX
  5
393
330
381
100
AcDbEntity
  8
Make2D$可见线$普通线
100
AcDbVertex
100
AcDb2dVertex
 10
664.3248468337033
 20
1061.753953279873
 30
0.0
  0
VERTEX
  5
394
330
381
100
AcDbEntity
  8
Make2D$可见线$普通线
100
AcDbVertex
100
AcDb2dVertex
 10
664.3247766368813
 20
1061.753911183871
 30
0.0
  0
VERTEX
  5
395
330
381
100
AcDbEntity
  8
Make2D$可见线$普通线
100
AcDbVertex
100
AcDb2dVertex
 10
664.3247031669018
 20
1061.75386912006
 30
0.0
  0
VERTEX
  5
396
330
381
100
AcDbEntity
  8
Make2D$可见线$普通线
100
AcDbVertex
100
AcDb2dVertex
 10
664.3246264238298
 20
1061.753827088373
 30
0.0
  0
VERTEX
  5
397
330
381
100
AcDbEntity
  8
Make2D$可见线$普通线
100
AcDbVertex
100
AcDb2dVertex
 10
664.3245464077305
 20
1061.753785088742
 30
0.0
  0
VERTEX
  5
398
330
381
100
AcDbEntity
  8
Make2D$可见线$普通线
100
AcDbVertex
100
AcDb2dVertex
 10
664.3243765567099
 20
1061.753701185376
 30
0.0
  0
VERTEX
  5
399
330
381
100
AcDbEntity
  8
Make2D$可见线$普通线
100
AcDbVertex
100
AcDb2dVertex
 10
664.3241936143611
 20
1061.753617409423
 30
0.0
  0
VERTEX
  5
39A
330
381
100
AcDbEntity
  8
Make2D$可见线$普通线
100
AcDbVertex
100
AcDb2dVertex
 10
664.3239975812046
 20
1061.753533760341
 30
0.0
  0
VERTEX
  5
39B
330
381
100
AcDbEntity
  8
Make2D$可见线$普通线
100
AcDbVertex
100
AcDb2dVertex
 10
664.3237884577613
 20
1061.753450237589
 30
0.0
  0
VERTEX
  5
39C
330
381
100
AcDbEntity
  8
Make2D$可见线$普通线
100
AcDbVertex
100
AcDb2dVertex
 10
664.323566244552
 20
1061.753366840625
 30
0.0
  0
VERTEX
  5
39D
330
381
100
AcDbEntity
  8
Make2D$可见线$普通线
100
AcDbVertex
100
AcDb2dVertex
 10
664.3233309420974
 20
1061.753283568909
 30
0.0
  0
VERTEX
  5
39E
330
381
100
AcDbEntity
  8
Make2D$可见线$普通线
100
AcDbVertex
100
AcDb2dVertex
 10
664.3228210715354
 20
1061.753117399053
 30
0.0
  0
VERTEX
  5
39F
330
381
100
AcDbEntity
  8
Make2D$可见线$普通线
100
AcDbVertex
100
AcDb2dVertex
 10
664.3222588502413
 20
1061.752951723693
 30
0.0
  0
VERTEX
  5
3A0
330
381
100
AcDbEntity
  8
Make2D$可见线$普通线
100
AcDbVertex
100
AcDb2dVertex
 10
664.3216442823816
 20
1061.752786538497
 30
0.0
  0
VERTEX
  5
3A1
330
381
100
AcDbEntity
  8
Make2D$可见线$普通线
100
AcDbVertex
100
AcDb2dVertex
 10
664.3209773721225
 20
1061.752621839137
 30
0.0
  0
VERTEX
  5
3A2
330
381
100
AcDbEntity
  8
Make2D$可见线$普通线
100
AcDbVertex
100
AcDb2dVertex
 10
664.3194865410702
 20
1061.752293880604
 30
0.0
  0
VERTEX
  5
3A3
330
381
100
AcDbEntity
  8
Make2D$可见线$普通线
100
AcDbVertex
100
AcDb2dVertex
 10
664.3177863904139
 20
1061.751967813456
 30
0.0
  0
VERTEX
  5
3A4
330
381
100
AcDbEntity
  8
Make2D$可见线$普通线
100
AcDbVertex
100
AcDb2dVertex
 10
664.315876953483
 20
1061.751643603056
 30
0.0
  0
VERTEX
  5
3A5
330
381
100
AcDbEntity
  8
Make2D$可见线$普通线
100
AcDbVertex
100
AcDb2dVertex
 10
664.3114303541151
 20
1061.751000613947
 30
0.0
  0
VERTEX
  5
3A6
330
381
100
AcDbEntity
  8
Make2D$可见线$普通线
100
AcDbVertex
100
AcDb2dVertex
 10
664.3061470096018
 20
1061.750364636176
 30
0.0
  0
VERTEX
  5
3A7
330
381
100
AcDbEntity
  8
Make2D$可见线$普通线
100
AcDbVertex
100
AcDb2dVertex
 10
664.2930711516804
 20
1061.749112606246
 30
0.0
  0
VERTEX
  5
3A8
330
381
100
AcDbEntity
  8
Make2D$可见线$普通线
100
AcDbVertex
100
AcDb2dVertex
 10
664.2568902260468
 20
1061.746680489998
 30
0.0
  0
VERTEX
  5
3A9
330
381
100
AcDbEntity
  8
Make2D$可见线$普通线
100
AcDbVertex
100
AcDb2dVertex
 10
664.2073512412421
 20
1061.744329519845
 30
0.0
  0
VERTEX
  5
3AA
330
381
100
AcDbEntity
  8
Make2D$可见线$普通线
100
AcDbVertex
100
AcDb2dVertex
 10
662.9234099226351
 20
1061.725420677034
 30
0.0
  0
VERTEX
  5
3AB
330
381
100
AcDbEntity
  8
Make2D$可见线$普通线
100
AcDbVertex
100
AcDb2dVertex
 10
660.6350897517696
 20
1061.720709812993
 30
0.0
  0
VERTEX
  5
3AC
330
381
100
AcDbEntity
  8
Make2D$可见线$普通线
100
AcDbVertex
100
AcDb2dVertex
 10
657.4090487584612
 20
1061.737646155764
 30
0.0
  0
VERTEX
  5
3AD
330
381
100
AcDbEntity
  8
Make2D$可见线$普通线
100
AcDbVertex
100
AcDb2dVertex
 10
655.254224670153
 20
1061.773068178487
 30
0.0
  0
VERTEX
  5
3AE
330
381
100
AcDbEntity
  8
Make2D$可见线$普通线
100
AcDbVertex
100
AcDb2dVertex
 10
654.2915564125034
 20
1061.809658063001
 30
0.0
  0
VERTEX
  5
3AF
330
381
100
AcDbEntity
  8
Make2D$可见线$普通线
100
AcDbVertex
100
AcDb2dVertex
 10
654.0448033186756
 20
1061.827888434469
 30
0.0
  0
VERTEX
  5
3B0
330
381
100
AcDbEntity
  8
Make2D$可见线$普通线
100
AcDbVertex
100
AcDb2dVertex
 10
653.9628219265549
 20
1061.837232772671
 30
0.0
  0
VERTEX
  5
3B1
330
381
100
AcDbEntity
  8
Make2D$可见线$普通线
100
AcDbVertex
100
AcDb2dVertex
 10
653.9423099517682
 20
1061.840052148289
 30
0.0
  0
VERTEX
  5
3B2
330
381
100
AcDbEntity
  8
Make2D$可见线$普通线
100
AcDbVertex
100
AcDb2dVertex
 10
653.921880124994
 20
1061.843278456566
 30
0.0
  0
VERTEX
  5
3B3
330
381
100
AcDbEntity
  8
Make2D$可见线$普通线
100
AcDbVertex
100
AcDb2dVertex
 10
653.9117170930726
 20
1061.845111837931
 30
0.0
  0
VERTEX
  5
3B4
330
381
100
AcDbEntity
  8
Make2D$可见线$普通线
100
AcDbVertex
100
AcDb2dVertex
 10
653.9015998893078
 20
1061.847128105435
 30
0.0
  0
VERTEX
  5
3B5
330
381
100
AcDbEntity
  8
Make2D$可见线$普通线
100
AcDbVertex
100
AcDb2dVertex
 10
653.8915369440836
 20
1061.84935431007
 30
0.0
  0
VERTEX
  5
3B6
330
381
100
AcDbEntity
  8
Make2D$可见线$普通线
100
AcDbVertex
100
AcDb2dVertex
 10
653.8815366877847
 20
1061.851817502828
 30
0.0
  0
VERTEX
  5
3B7
330
381
100
AcDbEntity
  8
Make2D$可见线$普通线
100
AcDbVertex
100
AcDb2dVertex
 10
653.8765403643456
 20
1061.853182544877
 30
0.0
  0
VERTEX
  5
3B8
330
381
100
AcDbEntity
  8
Make2D$可见线$普通线
100
AcDbVertex
100
AcDb2dVertex
 10
653.8740565648866
 20
1061.853945381067
 30
0.0
  0
VERTEX
  5
3B9
330
381
100
AcDbEntity
  8
Make2D$可见线$普通线
100
AcDbVertex
100
AcDb2dVertex
 10
653.8728195899569
 20
1061.854356555329
 30
0.0
  0
VERTEX
  5
3BA
330
381
100
AcDbEntity
  8
Make2D$可见线$普通线
100
AcDbVertex
100
AcDb2dVertex
 10
653.8715864065068
 20
1061.854791253654
 30
0.0
  0
VERTEX
  5
3BB
330
381
100
AcDbEntity
  8
Make2D$可见线$普通线
100
AcDbVertex
100
AcDb2dVertex
 10
653.8703573957464
 20
1061.855252241007
 30
0.0
  0
VERTEX
  5
3BC
330
381
100
AcDbEntity
  8
Make2D$可见线$普通线
100
AcDbVertex
100
AcDb2dVertex
 10
653.8691329388854
 20
1061.855742282353
 30
0.0
  0
VERTEX
  5
3BD
330
381
100
AcDbEntity
  8
Make2D$可见线$普通线
100
AcDbVertex
100
AcDb2dVertex
 10
653.8679134171338
 20
1061.856264142654
 30
0.0
  0
VERTEX
  5
3BE
330
381
100
AcDbEntity
  8
Make2D$可见线$普通线
100
AcDbVertex
100
AcDb2dVertex
 10
653.8666992117014
 20
1061.856820586877
 30
0.0
  0
VERTEX
  5
3BF
330
381
100
AcDbEntity
  8
Make2D$可见线$普通线
100
AcDbVertex
100
AcDb2dVertex
 10
653.8654907037984
 20
1061.857414379985
 30
0.0
  0
VERTEX
  5
3C0
330
381
100
AcDbEntity
  8
Make2D$可见线$普通线
100
AcDbVertex
100
AcDb2dVertex
 10
653.8642882746343
 20
1061.858048286942
 30
0.0
  0
VERTEX
  5
3C1
330
381
100
AcDbEntity
  8
Make2D$可见线$普通线
100
AcDbVertex
100
AcDb2dVertex
 10
653.8630923054191
 20
1061.858725072713
 30
0.0
  0
VERTEX
  5
3C2
330
381
100
AcDbEntity
  8
Make2D$可见线$普通线
100
AcDbVertex
100
AcDb2dVertex
 10
653.8619031773628
 20
1061.859447502261
 30
0.0
  0
VERTEX
  5
3C3
330
381
100
AcDbEntity
  8
Make2D$可见线$普通线
100
AcDbVertex
100
AcDb2dVertex
 10
653.8612702456915
 20
1061.859853791481
 30
0.0
  0
VERTEX
  5
3C4
330
381
100
AcDbEntity
  8
Make2D$可见线$普通线
100
AcDbVertex
100
AcDb2dVertex
 10
653.8606439895912
 20
1061.860273154802
 30
0.0
  0
VERTEX
  5
3C5
330
381
100
AcDbEntity
  8
Make2D$可见线$普通线
100
AcDbVertex
100
AcDb2dVertex
 10
653.8600290144839
 20
1061.860704790922
 30
0.0
  0
VERTEX
  5
3C6
330
381
100
AcDbEntity
  8
Make2D$可见线$普通线
100
AcDbVertex
100
AcDb2dVertex
 10
653.8594299257918
 20
1061.861147898534
 30
0.0
  0
VERTEX
  5
3C7
330
381
100
AcDbEntity
  8
Make2D$可见线$普通线
100
AcDbVertex
100
AcDb2dVertex
 10
653.8588513289369
 20
1061.861601676334
 30
0.0
  0
VERTEX
  5
3C8
330
381
100
AcDbEntity
  8
Make2D$可见线$普通线
100
AcDbVertex
100
AcDb2dVertex
 10
653.8582978293412
 20
1061.862065323019
 30
0.0
  0
VERTEX
  5
3C9
330
381
100
AcDbEntity
  8
Make2D$可见线$普通线
100
AcDbVertex
100
AcDb2dVertex
 10
653.8580319302099
 20
1061.862300596785
 30
0.0
  0
VERTEX
  5
3CA
330
381
100
AcDbEntity
  8
Make2D$可见线$普通线
100
AcDbVertex
100
AcDb2dVertex
 10
653.8577740324268
 20
1061.862538037283
 30
0.0
  0
VERTEX
  5
3CB
330
381
100
AcDbEntity
  8
Make2D$可见线$普通线
100
AcDbVertex
100
AcDb2dVertex
 10
653.8575247116696
 20
1061.862777544349
 30
0.0
  0
VERTEX
  5
3CC
330
381
100
AcDbEntity
  8
Make2D$可见线$普通线
100
AcDbVertex
100
AcDb2dVertex
 10
653.8572845436158
 20
1061.863019017821
 30
0.0
  0
VERTEX
  5
3CD
330
381
100
AcDbEntity
  8
Make2D$可见线$普通线
100
AcDbVertex
100
AcDb2dVertex
 10
653.8570541039435
 20
1061.863262357535
 30
0.0
  0
VERTEX
  5
3CE
330
381
100
AcDbEntity
  8
Make2D$可见线$普通线
100
AcDbVertex
100
AcDb2dVertex
 10
653.8568339683304
 20
1061.863507463329
 30
0.0
  0
VERTEX
  5
3CF
330
381
100
AcDbEntity
  8
Make2D$可见线$普通线
100
AcDbVertex
100
AcDb2dVertex
 10
653.856624712454
 20
1061.863754235039
 30
0.0
  0
VERTEX
  5
3D0
330
381
100
AcDbEntity
  8
Make2D$可见线$普通线
100
AcDbVertex
100
AcDb2dVertex
 10
653.8564269119925
 20
1061.864002572502
 30
0.0
  0
VERTEX
  5
3D1
330
381
100
AcDbEntity
  8
Make2D$可见线$普通线
100
AcDbVertex
100
AcDb2dVertex
 10
653.8562411426232
 20
1061.864252375555
 30
0.0
  0
VERTEX
  5
3D2
330
381
100
AcDbEntity
  8
Make2D$可见线$普通线
100
AcDbVertex
100
AcDb2dVertex
 10
653.8561529494975
 20
1061.864377795378
 30
0.0
  0
VERTEX
  5
3D3
330
381
100
AcDbEntity
  8
Make2D$可见线$普通线
100
AcDbVertex
100
AcDb2dVertex
 10
653.856067980024
 20
1061.864503544036
 30
0.0
  0
VERTEX
  5
3D4
330
381
100
AcDbEntity
  8
Make2D$可见线$普通线
100
AcDbVertex
100
AcDb2dVertex
 10
653.8559863061625
 20
1061.86462960901
 30
0.0
  0
VERTEX
  5
3D5
330
381
100
AcDbEntity
  8
Make2D$可见线$普通线
100
AcDbVertex
100
AcDb2dVertex
 10
653.8559079998729
 20
1061.86475597778
 30
0.0
  0
VERTEX
  5
3D6
330
381
100
AcDbEntity
  8
Make2D$可见线$普通线
100
AcDbVertex
100
AcDb2dVertex
 10
653.8558331331145
 20
1061.864882637825
 30
0.0
  0
VERTEX
  5
3D7
330
381
100
AcDbEntity
  8
Make2D$可见线$普通线
100
AcDbVertex
100
AcDb2dVertex
 10
653.8557617778474
 20
1061.865009576625
 30
0.0
  0
VERTEX
  5
3D8
330
381
100
AcDbEntity
  8
Make2D$可见线$普通线
100
AcDbVertex
100
AcDb2dVertex
 10
653.8556940060311
 20
1061.86513678166
 30
0.0
  0
VERTEX
  5
3D9
330
381
100
AcDbEntity
  8
Make2D$可见线$普通线
100
AcDbVertex
100
AcDb2dVertex
 10
653.8556298896253
 20
1061.865264240408
 30
0.0
  0
VERTEX
  5
3DA
330
381
100
AcDbEntity
  8
Make2D$可见线$普通线
100
AcDbVertex
100
AcDb2dVertex
 10
653.8555695005898
 20
1061.86539194035
 30
0.0
  0
VERTEX
  5
3DB
330
381
100
AcDbEntity
  8
Make2D$可见线$普通线
100
AcDbVertex
100
AcDb2dVertex
 10
653.8555129108845
 20
1061.865519868966
 30
0.0
  0
VERTEX
  5
3DC
330
381
100
AcDbEntity
  8
Make2D$可见线$普通线
100
AcDbVertex
100
AcDb2dVertex
 10
653.8554601924687
 20
1061.865648013735
 30
0.0
  0
VERTEX
  5
3DD
330
381
100
AcDbEntity
  8
Make2D$可见线$普通线
100
AcDbVertex
100
AcDb2dVertex
 10
653.8554114173025
 20
1061.865776362136
 30
0.0
  0
VERTEX
  5
3DE
330
381
100
AcDbEntity
  8
Make2D$可见线$普通线
100
AcDbVertex
100
AcDb2dVertex
 10
653.8553666573455
 20
1061.865904901649
 30
0.0
  0
VERTEX
  5
3DF
330
381
100
AcDbEntity
  8
Make2D$可见线$普通线
100
AcDbVertex
100
AcDb2dVertex
 10
653.8553259845573
 20
1061.866033619754
 30
0.0
  0
VERTEX
  5
3E0
330
381
100
AcDbEntity
  8
Make2D$可见线$普通线
100
AcDbVertex
100
AcDb2dVertex
 10
653.8552894708978
 20
1061.86616250393
 30
0.0
  0
VERTEX
  5
3E1
330
381
100
AcDbEntity
  8
Make2D$可见线$普通线
100
AcDbVertex
100
AcDb2dVertex
 10
653.8552571883265
 20
1061.866291541657
 30
0.0
  0
VERTEX
  5
3E2
330
381
100
AcDbEntity
  8
Make2D$可见线$普通线
100
AcDbVertex
100
AcDb2dVertex
 10
653.8552292088033
 20
1061.866420720415
 30
0.0
  0
VERTEX
  5
3E3
330
381
100
AcDbEntity
  8
Make2D$可见线$普通线
100
AcDbVertex
100
AcDb2dVertex
 10
653.8552056042879
 20
1061.866550027683
 30
0.0
  0
VERTEX
  5
3E4
330
381
100
AcDbEntity
  8
Make2D$可见线$普通线
100
AcDbVertex
100
AcDb2dVertex
 10
653.8551864467402
 20
1061.866679450941
 30
0.0
  0
VERTEX
  5
3E5
330
381
100
AcDbEntity
  8
Make2D$可见线$普通线
100
AcDbVertex
100
AcDb2dVertex
 10
653.8551718081194
 20
1061.866808977668
 30
0.0
  0
VERTEX
  5
3E6
330
381
100
AcDbEntity
  8
Make2D$可见线$普通线
100
AcDbVertex
100
AcDb2dVertex
 10
653.8551662058942
 20
1061.86687377592
 30
0.0
  0
VERTEX
  5
3E7
330
381
100
AcDbEntity
  8
Make2D$可见线$普通线
100
AcDbVertex
100
AcDb2dVertex
 10
653.8551617603857
 20
1061.866938595345
 30
0.0
  0
VERTEX
  5
3E8
330
381
100
AcDbEntity
  8
Make2D$可见线$普通线
100
AcDbVertex
100
AcDb2dVertex
 10
653.8551584805889
 20
1061.867003434376
 30
0.0
  0
VERTEX
  5
3E9
330
381
100
AcDbEntity
  8
Make2D$可见线$普通线
100
AcDbVertex
100
AcDb2dVertex
 10
653.8551563754986
 20
1061.86706829145
 30
0.0
  0
VERTEX
  5
3EA
330
381
100
AcDbEntity
  8
Make2D$可见线$普通线
100
AcDbVertex
100
AcDb2dVertex
 10
653.8551554343644
 20
1061.867136767227
 30
0.0
  0
VERTEX
  5
3EB
330
381
100
AcDbEntity
  8
Make2D$可见线$普通线
100
AcDbVertex
100
AcDb2dVertex
 10
653.8551558018687
 20
1061.867205259607
 30
0.0
  0
VERTEX
  5
3EC
330
381
100
AcDbEntity
  8
Make2D$可见线$普通线
100
AcDbVertex
100
AcDb2dVertex
 10
653.8551574678622
 20
1061.867273766834
 30
0.0
  0
VERTEX
  5
3ED
330
381
100
AcDbEntity
  8
Make2D$可见线$普通线
100
AcDbVertex
100
AcDb2dVertex
 10
653.8551604221956
 20
1061.867342287152
 30
0.0
  0
VERTEX
  5
3EE
330
381
100
AcDbEntity
  8
Make2D$可见线$普通线
100
AcDbVertex
100
AcDb2dVertex
 10
653.8551646547194
 20
1061.867410818807
 30
0.0
  0
VERTEX
  5
3EF
330
381
100
AcDbEntity
  8
Make2D$可见线$普通线
100
AcDbVertex
100
AcDb2dVertex
 10
653.855170155284
 20
1061.867479360043
 30
0.0
  0
VERTEX
  5
3F0
330
381
100
AcDbEntity
  8
Make2D$可见线$普通线
100
AcDbVertex
100
AcDb2dVertex
 10
653.8551769137405
 20
1061.867547909104
 30
0.0
  0
VERTEX
  5
3F1
330
381
100
AcDbEntity
  8
Make2D$可见线$普通线
100
AcDbVertex
100
AcDb2dVertex
 10
653.8551849199393
 20
1061.867616464236
 30
0.0
  0
VERTEX
  5
3F2
330
381
100
AcDbEntity
  8
Make2D$可见线$普通线
100
AcDbVertex
100
AcDb2dVertex
 10
653.8551941637312
 20
1061.867685023683
 30
0.0
  0
VERTEX
  5
3F3
330
381
100
AcDbEntity
  8
Make2D$可见线$普通线
100
AcDbVertex
100
AcDb2dVertex
 10
653.8552046349666
 20
1061.86775358569
 30
0.0
  0
VERTEX
  5
3F4
330
381
100
AcDbEntity
  8
Make2D$可见线$普通线
100
AcDbVertex
100
AcDb2dVertex
 10
653.8552292191707
 20
1061.867890710362
 30
0.0
  0
VERTEX
  5
3F5
330
381
100
AcDbEntity
  8
Make2D$可见线$普通线
100
AcDbVertex
100
AcDb2dVertex
 10
653.8552585913571
 20
1061.86802782421
 30
0.0
  0
VERTEX
  5
3F6
330
381
100
AcDbEntity
  8
Make2D$可见线$普通线
100
AcDbVertex
100
AcDb2dVertex
 10
653.855292670331
 20
1061.868164913191
 30
0.0
  0
VERTEX
  5
3F7
330
381
100
AcDbEntity
  8
Make2D$可见线$普通线
100
AcDbVertex
100
AcDb2dVertex
 10
653.8553313748971
 20
1061.868301963263
 30
0.0
  0
VERTEX
  5
3F8
330
381
100
AcDbEntity
  8
Make2D$可见线$普通线
100
AcDbVertex
100
AcDb2dVertex
 10
653.8553746238607
 20
1061.868438960384
 30
0.0
  0
VERTEX
  5
3F9
330
381
100
AcDbEntity
  8
Make2D$可见线$普通线
100
AcDbVertex
100
AcDb2dVertex
 10
653.855422336027
 20
1061.868575890511
 30
0.0
  0
VERTEX
  5
3FA
330
381
100
AcDbEntity
  8
Make2D$可见线$普通线
100
AcDbVertex
100
AcDb2dVertex
 10
653.8554744302012
 20
1061.868712739602
 30
0.0
  0
VERTEX
  5
3FB
330
381
100
AcDbEntity
  8
Make2D$可见线$普通线
100
AcDbVertex
100
AcDb2dVertex
 10
653.8555308251882
 20
1061.868849493615
 30
0.0
  0
VERTEX
  5
3FC
330
381
100
AcDbEntity
  8
Make2D$可见线$普通线
100
AcDbVertex
100
AcDb2dVertex
 10
653.8555914397934
 20
1061.868986138506
 30
0.0
  0
VERTEX
  5
3FD
330
381
100
AcDbEntity
  8
Make2D$可见线$普通线
100
AcDbVertex
100
AcDb2dVertex
 10
653.8556561928217
 20
1061.869122660235
 30
0.0
  0
VERTEX
  5
3FE
330
381
100
AcDbEntity
  8
Make2D$可见线$普通线
100
AcDbVertex
100
AcDb2dVertex
 10
653.8557250030783
 20
1061.869259044759
 30
0.0
  0
VERTEX
  5
3FF
330
381
100
AcDbEntity
  8
Make2D$可见线$普通线
100
AcDbVertex
100
AcDb2dVertex
 10
653.8557977893684
 20
1061.869395278034
 30
0.0
  0
VERTEX
  5
400
330
381
100
AcDbEntity
  8
Make2D$可见线$普通线
100
AcDbVertex
100
AcDb2dVertex
 10
653.8558744704969
 20
1061.86953134602
 30
0.0
  0
VERTEX
  5
401
330
381
100
AcDbEntity
  8
Make2D$可见线$普通线
100
AcDbVertex
100
AcDb2dVertex
 10
653.8559549652691
 20
1061.869667234673
 30
0.0
  0
VERTEX
  5
402
330
381
100
AcDbEntity
  8
Make2D$可见线$普通线
100
AcDbVertex
100
AcDb2dVertex
 10
653.8560391924902
 20
1061.869802929951
 30
0.0
  0
VERTEX
  5
403
330
381
100
AcDbEntity
  8
Make2D$可见线$普通线
100
AcDbVertex
100
AcDb2dVertex
 10
653.8561270709652
 20
1061.869938417811
 30
0.0
  0
VERTEX
  5
404
330
381
100
AcDbEntity
  8
Make2D$可见线$普通线
100
AcDbVertex
100
AcDb2dVertex
 10
653.8562185194992
 20
1061.870073684213
 30
0.0
  0
VERTEX
  5
405
330
381
100
AcDbEntity
  8
Make2D$可见线$普通线
100
AcDbVertex
100
AcDb2dVertex
 10
653.8563134568974
 20
1061.870208715112
 30
0.0
  0
VERTEX
  5
406
330
381
100
AcDbEntity
  8
Make2D$可见线$普通线
100
AcDbVertex
100
AcDb2dVertex
 10
653.8564118019649
 20
1061.870343496467
 30
0.0
  0
VERTEX
  5
407
330
381
100
AcDbEntity
  8
Make2D$可见线$普通线
100
AcDbVertex
100
AcDb2dVertex
 10
653.8566183903283
 20
1061.870612254375
 30
0.0
  0
VERTEX
  5
408
330
381
100
AcDbEntity
  8
Make2D$可见线$普通线
100
AcDbVertex
100
AcDb2dVertex
 10
653.8568376350305
 20
1061.870879845598
 30
0.0
  0
VERTEX
  5
409
330
381
100
AcDbEntity
  8
Make2D$可见线$普通线
100
AcDbVertex
100
AcDb2dVertex
 10
653.8570688865125
 20
1061.871146157796
 30
0.0
  0
VERTEX
  5
40A
330
381
100
AcDbEntity
  8
Make2D$可见线$普通线
100
AcDbVertex
100
AcDb2dVertex
 10
653.8573114952151
 20
1061.871411078631
 30
0.0
  0
VERTEX
  5
40B
330
381
100
AcDbEntity
  8
Make2D$可见线$普通线
100
AcDbVertex
100
AcDb2dVertex
 10
653.8575648115794
 20
1061.871674495764
 30
0.0
  0
VERTEX
  5
40C
330
381
100
AcDbEntity
  8
Make2D$可见线$普通线
100
AcDbVertex
100
AcDb2dVertex
 10
653.8578281860466
 20
1061.871936296857
 30
0.0
  0
VERTEX
  5
40D
330
381
100
AcDbEntity
  8
Make2D$可见线$普通线
100
AcDbVertex
100
AcDb2dVertex
 10
653.8581009690577
 20
1061.87219636957
 30
0.0
  0
VERTEX
  5
40E
330
381
100
AcDbEntity
  8
Make2D$可见线$普通线
100
AcDbVertex
100
AcDb2dVertex
 10
653.8583825110534
 20
1061.872454601565
 30
0.0
  0
VERTEX
  5
40F
330
381
100
AcDbEntity
  8
Make2D$可见线$普通线
100
AcDbVertex
100
AcDb2dVertex
 10
653.8589692737634
 20
1061.872965094044
 30
0.0
  0
VERTEX
  5
410
330
381
100
AcDbEntity
  8
Make2D$可见线$普通线
100
AcDbVertex
100
AcDb2dVertex
 10
653.8595832777044
 20
1061.873466875583
 30
0.0
  0
VERTEX
  5
411
330
381
100
AcDbEntity
  8
Make2D$可见线$普通线
100
AcDbVertex
100
AcDb2dVertex
 10
653.8602193264046
 20
1061.873959047472
 30
0.0
  0
VERTEX
  5
412
330
381
100
AcDbEntity
  8
Make2D$可见线$普通线
100
AcDbVertex
100
AcDb2dVertex
 10
653.8608722233922
 20
1061.874440711
 30
0.0
  0
VERTEX
  5
413
330
381
100
AcDbEntity
  8
Make2D$可见线$普通线
100
AcDbVertex
100
AcDb2dVertex
 10
653.8622077763416
 20
1061.87536891813
 30
0.0
  0
VERTEX
  5
414
330
381
100
AcDbEntity
  8
Make2D$可见线$普通线
100
AcDbVertex
100
AcDb2dVertex
 10
653.8630707747595
 20
1061.875936883689
 30
0.0
  0
VERTEX
  5
415
330
381
100
AcDbEntity
  8
Make2D$可见线$普通线
100
AcDbVertex
100
AcDb2dVertex
 10
653.863935794948
 20
1061.876483799629
 30
0.0
  0
VERTEX
  5
416
330
381
100
AcDbEntity
  8
Make2D$可见线$普通线
100
AcDbVertex
100
AcDb2dVertex
 10
653.8648027905199
 20
1061.877010309553
 30
0.0
  0
VERTEX
  5
417
330
381
100
AcDbEntity
  8
Make2D$可见线$普通线
100
AcDbVertex
100
AcDb2dVertex
 10
653.8656717150878
 20
1061.877517057061
 30
0.0
  0
VERTEX
  5
418
330
381
100
AcDbEntity
  8
Make2D$可见线$普通线
100
AcDbVertex
100
AcDb2dVertex
 10
653.8674151656634
 20
1061.878473839231
 30
0.0
  0
VERTEX
  5
419
330
381
100
AcDbEntity
  8
Make2D$可见线$普通线
100
AcDbVertex
100
AcDb2dVertex
 10
653.8691657755774
 20
1061.879359294946
 30
0.0
  0
VERTEX
  5
41A
330
381
100
AcDbEntity
  8
Make2D$可见线$普通线
100
AcDbVertex
100
AcDb2dVertex
 10
653.8709231737323
 20
1061.880178573009
 30
0.0
  0
VERTEX
  5
41B
330
381
100
AcDbEntity
  8
Make2D$可见线$普通线
100
AcDbVertex
100
AcDb2dVertex
 10
653.8726869890307
 20
1061.880936822225
 30
0.0
  0
VERTEX
  5
41C
330
381
100
AcDbEntity
  8
Make2D$可见线$普通线
100
AcDbVertex
100
AcDb2dVertex
 10
653.8744568503753
 20
1061.881639191401
 30
0.0
  0
VERTEX
  5
41D
330
381
100
AcDbEntity
  8
Make2D$可见线$普通线
100
AcDbVertex
100
AcDb2dVertex
 10
653.8762323866683
 20
1061.882290829341
 30
0.0
  0
VERTEX
  5
41E
330
381
100
AcDbEntity
  8
Make2D$可见线$普通线
100
AcDbVertex
100
AcDb2dVertex
 10
653.8780132268125
 20
1061.88289688485
 30
0.0
  0
VERTEX
  5
41F
330
381
100
AcDbEntity
  8
Make2D$可见线$普通线
100
AcDbVertex
100
AcDb2dVertex
 10
653.8797989997106
 20
1061.883462506733
 30
0.0
  0
VERTEX
  5
420
330
381
100
AcDbEntity
  8
Make2D$可见线$普通线
100
AcDbVertex
100
AcDb2dVertex
 10
653.883383859378
 20
1061.884493044843
 30
0.0
  0
VERTEX
  5
421
330
381
100
AcDbEntity
  8
Make2D$可见线$普通线
100
AcDbVertex
100
AcDb2dVertex
 10
653.89059644347
 20
1061.886295464981
 30
0.0
  0
VERTEX
  5
422
330
381
100
AcDbEntity
  8
Make2D$可见线$普通线
100
AcDbVertex
100
AcDb2dVertex
 10
653.9106072800271
 20
1061.890748520627
 30
0.0
  0
VERTEX
  5
423
330
381
100
AcDbEntity
  8
Make2D$可见线$普通线
100
AcDbVertex
100
AcDb2dVertex
 10
653.9308341533506
 20
1061.894749865006
 30
0.0
  0
VERTEX
  5
424
330
381
100
AcDbEntity
  8
Make2D$可见线$普通线
100
AcDbVertex
100
AcDb2dVertex
 10
653.971671806675
 20
1061.901712867253
 30
0.0
  0
VERTEX
  5
425
330
381
100
AcDbEntity
  8
Make2D$可见线$普通线
100
AcDbVertex
100
AcDb2dVertex
 10
654.0514019040322
 20
1061.912734287683
 30
0.0
  0
VERTEX
  5
426
330
381
100
AcDbEntity
  8
Make2D$可见线$普通线
100
AcDbVertex
100
AcDb2dVertex
 10
654.2915564125034
 20
1061.935588170676
 30
0.0
 42
-0.0078396438350675
  0
VERTEX
  5
427
330
381
100
AcDbEntity
  8
Make2D$可见线$普通线
100
AcDbVertex
100
AcDb2dVertex
 10
659.4381106635651
 20
1062.155424934915
 30
0.0
  0
VERTEX
  5
428
330
381
100
AcDbEntity
  8
Make2D$可见线$普通线
100
AcDbVertex
100
AcDb2dVertex
 10
661.1104219300094
 20
1062.209763584427
 30
0.0
  0
VERTEX
  5
429
330
381
100
AcDbEntity
  8
Make2D$可见线$普通线
100
AcDbVertex
100
AcDb2dVertex
 10
661.3361794435999
 20
1062.217236218847
 30
0.0
  0
VERTEX
  5
42A
330
381
100
AcDbEntity
  8
Make2D$可见线$普通线
100
AcDbVertex
100
AcDb2dVertex
 10
662.7544566059469
 20
1062.2663151023
 30
0.0
  0
SEQEND
  5
42B
330
381
100
AcDbEntity
  8
Make2D$可见线$普通线
  0
POLYLINE
  5
42C
330
1F
100
AcDbEntity
  8
Make2D$可见线$普通线
100
AcDb2dPolyline
 66
     1
 10
0.0
 20
0.0
 30
0.0
  0
VERTEX
  5
42D
330
42C
100
AcDbEntity
  8
Make2D$可见线$普通线
100
AcDbVertex
100
AcDb2dVertex
 10
664.5564693052428
 20
1066.432507486666
 30
0.0
  0
VERTEX
  5
42E
330
42C
100
AcDbEntity
  8
Make2D$可见线$普通线
100
AcDbVertex
100
AcDb2dVertex
 10
664.7331255143051
 20
1066.409578812925
 30
0.0
 42
-0.1868770858035912
  0
VERTEX
  5
42F
330
42C
100
AcDbEntity
  8
Make2D$可见线$普通线
100
AcDbVertex
100
AcDb2dVertex
 10
664.8491841838628
 20
1066.370753876442
 30
0.0
  0
VERTEX
  5
430
330
42C
100
AcDbEntity
  8
Make2D$可见线$普通线
100
AcDbVertex
100
AcDb2dVertex
 10
664.8491841838628
 20
1065.72036278572
 30
0.0
  0
VERTEX
  5
431
330
42C
100
AcDbEntity
  8
Make2D$可见线$普通线
100
AcDbVertex
100
AcDb2dVertex
 10
664.8491810352647
 20
1065.720160571347
 30
0.0
  0
VERTEX
  5
432
330
42C
100
AcDbEntity
  8
Make2D$可见线$普通线
100
AcDbVertex
100
AcDb2dVertex
 10
664.8491715897096
 20
1065.719958363298
 30
0.0
  0
VERTEX
  5
433
330
42C
100
AcDbEntity
  8
Make2D$可见线$普通线
100
AcDbVertex
100
AcDb2dVertex
 10
664.8491558475565
 20
1065.719756161527
 30
0.0
  0
VERTEX
  5
434
330
42C
100
AcDbEntity
  8
Make2D$可见线$普通线
100
AcDbVertex
100
AcDb2dVertex
 10
664.849133809164
 20
1065.719553965987
 30
0.0
  0
VERTEX
  5
435
330
42C
100
AcDbEntity
  8
Make2D$可见线$普通线
100
AcDbVertex
100
AcDb2dVertex
 10
664.849105474891
 20
1065.719351776635
 30
0.0
  0
VERTEX
  5
436
330
42C
100
AcDbEntity
  8
Make2D$可见线$普通线
100
AcDbVertex
100
AcDb2dVertex
 10
664.8490708450961
 20
1065.719149593425
 30
0.0
  0
VERTEX
  5
437
330
42C
100
AcDbEntity
  8
Make2D$可见线$普通线
100
AcDbVertex
100
AcDb2dVertex
 10
664.8490299201384
 20
1065.71894741631
 30
0.0
  0
VERTEX
  5
438
330
42C
100
AcDbEntity
  8
Make2D$可见线$普通线
100
AcDbVertex
100
AcDb2dVertex
 10
664.8489827003764
 20
1065.718745245247
 30
0.0
  0
VERTEX
  5
439
330
42C
100
AcDbEntity
  8
Make2D$可见线$普通线
100
AcDbVertex
100
AcDb2dVertex
 10
664.8489291861692
 20
1065.718543080188
 30
0.0
  0
VERTEX
  5
43A
330
42C
100
AcDbEntity
  8
Make2D$可见线$普通线
100
AcDbVertex
100
AcDb2dVertex
 10
664.8488693778756
 20
1065.718340921088
 30
0.0
  0
VERTEX
  5
43B
330
42C
100
AcDbEntity
  8
Make2D$可见线$普通线
100
AcDbVertex
100
AcDb2dVertex
 10
664.8488032758544
 20
1065.718138767903
 30
0.0
  0
VERTEX
  5
43C
330
42C
100
AcDbEntity
  8
Make2D$可见线$普通线
100
AcDbVertex
100
AcDb2dVertex
 10
664.848730880464
 20
1065.717936620587
 30
0.0
  0
VERTEX
  5
43D
330
42C
100
AcDbEntity
  8
Make2D$可见线$普通线
100
AcDbVertex
100
AcDb2dVertex
 10
664.8486521920638
 20
1065.717734479094
 30
0.0
  0
VERTEX
  5
43E
330
42C
100
AcDbEntity
  8
Make2D$可见线$普通线
100
AcDbVertex
100
AcDb2dVertex
 10
664.8485672110121
 20
1065.717532343378
 30
0.0
  0
VERTEX
  5
43F
330
42C
100
AcDbEntity
  8
Make2D$可见线$普通线
100
AcDbVertex
100
AcDb2dVertex
 10
664.8484759376681
 20
1065.717330213395
 30
0.0
  0
VERTEX
  5
440
330
42C
100
AcDbEntity
  8
Make2D$可见线$普通线
100
AcDbVertex
100
AcDb2dVertex
 10
664.8483783723905
 20
1065.717128089098
 30
0.0
  0
VERTEX
  5
441
330
42C
100
AcDbEntity
  8
Make2D$可见线$普通线
100
AcDbVertex
100
AcDb2dVertex
 10
664.8482745155379
 20
1065.716925970443
 30
0.0
  0
VERTEX
  5
442
330
42C
100
AcDbEntity
  8
Make2D$可见线$普通线
100
AcDbVertex
100
AcDb2dVertex
 10
664.8481643674694
 20
1065.716723857383
 30
0.0
  0
VERTEX
  5
443
330
42C
100
AcDbEntity
  8
Make2D$可见线$普通线
100
AcDbVertex
100
AcDb2dVertex
 10
664.8480479285436
 20
1065.716521749874
 30
0.0
  0
VERTEX
  5
444
330
42C
100
AcDbEntity
  8
Make2D$可见线$普通线
100
AcDbVertex
100
AcDb2dVertex
 10
664.8479251991195
 20
1065.716319647869
 30
0.0
  0
VERTEX
  5
445
330
42C
100
AcDbEntity
  8
Make2D$可见线$普通线
100
AcDbVertex
100
AcDb2dVertex
 10
664.8477961795558
 20
1065.716117551324
 30
0.0
  0
VERTEX
  5
446
330
42C
100
AcDbEntity
  8
Make2D$可见线$普通线
100
AcDbVertex
100
AcDb2dVertex
 10
664.8476608702111
 20
1065.715915460192
 30
0.0
  0
VERTEX
  5
447
330
42C
100
AcDbEntity
  8
Make2D$可见线$普通线
100
AcDbVertex
100
AcDb2dVertex
 10
664.8475192714445
 20
1065.715713374429
 30
0.0
  0
VERTEX
  5
448
330
42C
100
AcDbEntity
  8
Make2D$可见线$普通线
100
AcDbVertex
100
AcDb2dVertex
 10
664.8473713836147
 20
1065.715511293989
 30
0.0
  0
VERTEX
  5
449
330
42C
100
AcDbEntity
  8
Make2D$可见线$普通线
100
AcDbVertex
100
AcDb2dVertex
 10
664.8472172070806
 20
1065.715309218826
 30
0.0
  0
VERTEX
  5
44A
330
42C
100
AcDbEntity
  8
Make2D$可见线$普通线
100
AcDbVertex
100
AcDb2dVertex
 10
664.8470567422008
 20
1065.715107148895
 30
0.0
  0
VERTEX
  5
44B
330
42C
100
AcDbEntity
  8
Make2D$可见线$普通线
100
AcDbVertex
100
AcDb2dVertex
 10
664.8468899893344
 20
1065.71490508415
 30
0.0
  0
VERTEX
  5
44C
330
42C
100
AcDbEntity
  8
Make2D$可见线$普通线
100
AcDbVertex
100
AcDb2dVertex
 10
664.8467169488399
 20
1065.714703024546
 30
0.0
  0
VERTEX
  5
44D
330
42C
100
AcDbEntity
  8
Make2D$可见线$普通线
100
AcDbVertex
100
AcDb2dVertex
 10
664.8463520064025
 20
1065.71429892058
 30
0.0
  0
VERTEX
  5
44E
330
42C
100
AcDbEntity
  8
Make2D$可见线$普通线
100
AcDbVertex
100
AcDb2dVertex
 10
664.845961917759
 20
1065.713894836631
 30
0.0
  0
VERTEX
  5
44F
330
42C
100
AcDbEntity
  8
Make2D$可见线$普通线
100
AcDbVertex
100
AcDb2dVertex
 10
664.8455466857798
 20
1065.713490772337
 30
0.0
  0
VERTEX
  5
450
330
42C
100
AcDbEntity
  8
Make2D$可见线$普通线
100
AcDbVertex
100
AcDb2dVertex
 10
664.8451063133356
 20
1065.713086727333
 30
0.0
  0
VERTEX
  5
451
330
42C
100
AcDbEntity
  8
Make2D$可见线$普通线
100
AcDbVertex
100
AcDb2dVertex
 10
664.8446408032966
 20
1065.712682701255
 30
0.0
  0
VERTEX
  5
452
330
42C
100
AcDbEntity
  8
Make2D$可见线$普通线
100
AcDbVertex
100
AcDb2dVertex
 10
664.8441501585334
 20
1065.71227869374
 30
0.0
  0
VERTEX
  5
453
330
42C
100
AcDbEntity
  8
Make2D$可见线$普通线
100
AcDbVertex
100
AcDb2dVertex
 10
664.8436343819163
 20
1065.711874704424
 30
0.0
  0
VERTEX
  5
454
330
42C
100
AcDbEntity
  8
Make2D$可见线$普通线
100
AcDbVertex
100
AcDb2dVertex
 10
664.8430934763161
 20
1065.711470732942
 30
0.0
  0
VERTEX
  5
455
330
42C
100
AcDbEntity
  8
Make2D$可见线$普通线
100
AcDbVertex
100
AcDb2dVertex
 10
664.8425274446031
 20
1065.711066778932
 30
0.0
  0
VERTEX
  5
456
330
42C
100
AcDbEntity
  8
Make2D$可见线$普通线
100
AcDbVertex
100
AcDb2dVertex
 10
664.8419362896475
 20
1065.710662842029
 30
0.0
  0
VERTEX
  5
457
330
42C
100
AcDbEntity
  8
Make2D$可见线$普通线
100
AcDbVertex
100
AcDb2dVertex
 10
664.8413200143202
 20
1065.710258921869
 30
0.0
  0
VERTEX
  5
458
330
42C
100
AcDbEntity
  8
Make2D$可见线$普通线
100
AcDbVertex
100
AcDb2dVertex
 10
664.8406786214912
 20
1065.709855018089
 30
0.0
  0
VERTEX
  5
459
330
42C
100
AcDbEntity
  8
Make2D$可见线$普通线
100
AcDbVertex
100
AcDb2dVertex
 10
664.8393204948112
 20
1065.709047258211
 30
0.0
  0
VERTEX
  5
45A
330
42C
100
AcDbEntity
  8
Make2D$可见线$普通线
100
AcDbVertex
100
AcDb2dVertex
 10
664.837861932571
 20
1065.708239559485
 30
0.0
  0
VERTEX
  5
45B
330
42C
100
AcDbEntity
  8
Make2D$可见线$普通线
100
AcDbVertex
100
AcDb2dVertex
 10
664.8363029577345
 20
1065.707431919
 30
0.0
  0
VERTEX
  5
45C
330
42C
100
AcDbEntity
  8
Make2D$可见线$普通线
100
AcDbVertex
100
AcDb2dVertex
 10
664.8346435932652
 20
1065.706624333845
 30
0.0
  0
VERTEX
  5
45D
330
42C
100
AcDbEntity
  8
Make2D$可见线$普通线
100
AcDbVertex
100
AcDb2dVertex
 10
664.8328838621271
 20
1065.705816801109
 30
0.0
  0
VERTEX
  5
45E
330
42C
100
AcDbEntity
  8
Make2D$可见线$普通线
100
AcDbVertex
100
AcDb2dVertex
 10
664.8310237872837
 20
1065.705009317882
 30
0.0
  0
VERTEX
  5
45F
330
42C
100
AcDbEntity
  8
Make2D$可见线$普通线
100
AcDbVertex
100
AcDb2dVertex
 10
664.8290633916988
 20
1065.704201881253
 30
0.0
  0
VERTEX
  5
460
330
42C
100
AcDbEntity
  8
Make2D$可见线$普通线
100
AcDbVertex
100
AcDb2dVertex
 10
664.8248417301596
 20
1065.702587136144
 30
0.0
  0
VERTEX
  5
461
330
42C
100
AcDbEntity
  8
Make2D$可见线$普通线
100
AcDbVertex
100
AcDb2dVertex
 10
664.8202190612192
 20
1065.700972542496
 30
0.0
  0
VERTEX
  5
462
330
42C
100
AcDbEntity
  8
Make2D$可见线$普通线
100
AcDbVertex
100
AcDb2dVertex
 10
664.8151955685876
 20
1065.699358077024
 30
0.0
  0
VERTEX
  5
463
330
42C
100
AcDbEntity
  8
Make2D$可见线$普通线
100
AcDbVertex
100
AcDb2dVertex
 10
664.8097714359743
 20
1065.697743716441
 30
0.0
  0
VERTEX
  5
464
330
42C
100
AcDbEntity
  8
Make2D$可见线$普通线
100
AcDbVertex
100
AcDb2dVertex
 10
664.797721985643
 20
1065.694515216793
 30
0.0
  0
VERTEX
  5
465
330
42C
100
AcDbEntity
  8
Make2D$可见线$普通线
100
AcDbVertex
100
AcDb2dVertex
 10
664.7840721799039
 20
1065.691286857264
 30
0.0
  0
VERTEX
  5
466
330
42C
100
AcDbEntity
  8
Make2D$可见线$普通线
100
AcDbVertex
100
AcDb2dVertex
 10
664.7688234884358
 20
1065.688058451561
 30
0.0
  0
VERTEX
  5
467
330
42C
100
AcDbEntity
  8
Make2D$可见线$普通线
100
AcDbVertex
100
AcDb2dVertex
 10
664.7335353270275
 20
1065.681600756472
 30
0.0
  0
VERTEX
  5
468
330
42C
100
AcDbEntity
  8
Make2D$可见线$普通线
100
AcDbVertex
100
AcDb2dVertex
 10
664.6918692588483
 20
1065.675140641196
 30
0.0
  0
VERTEX
  5
469
330
42C
100
AcDbEntity
  8
Make2D$可见线$普通线
100
AcDbVertex
100
AcDb2dVertex
 10
664.6438370413281
 20
1065.668676615406
 30
0.0
  0
VERTEX
  5
46A
330
42C
100
AcDbEntity
  8
Make2D$可见线$普通线
100
AcDbVertex
100
AcDb2dVertex
 10
664.2375125074335
 20
1065.63045222739
 30
0.0
  0
VERTEX
  5
46B
330
42C
100
AcDbEntity
  8
Make2D$可见线$普通线
100
AcDbVertex
100
AcDb2dVertex
 10
663.8302223824794
 20
1065.604462136994
 30
0.0
  0
VERTEX
  5
46C
330
42C
100
AcDbEntity
  8
Make2D$可见线$普通线
100
AcDbVertex
100
AcDb2dVertex
 10
661.7569266028751
 20
1065.514844158356
 30
0.0
  0
VERTEX
  5
46D
330
42C
100
AcDbEntity
  8
Make2D$可见线$普通线
100
AcDbVertex
100
AcDb2dVertex
 10
658.32054714818
 20
1065.411808051553
 30
0.0
  0
VERTEX
  5
46E
330
42C
100
AcDbEntity
  8
Make2D$可见线$普通线
100
AcDbVertex
100
AcDb2dVertex
 10
648.4159066679125
 20
1065.154938317238
 30
0.0
  0
VERTEX
  5
46F
330
42C
100
AcDbEntity
  8
Make2D$可见线$普通线
100
AcDbVertex
100
AcDb2dVertex
 10
646.4607592168345
 20
1065.090725502154
 30
0.0
  0
VERTEX
  5
470
330
42C
100
AcDbEntity
  8
Make2D$可见线$普通线
100
AcDbVertex
100
AcDb2dVertex
 10
644.974645733265
 20
1065.026497761653
 30
0.0
  0
VERTEX
  5
471
330
42C
100
AcDbEntity
  8
Make2D$可见线$普通线
100
AcDbVertex
100
AcDb2dVertex
 10
644.5106378698086
 20
1064.999634052175
 30
0.0
  0
VERTEX
  5
472
330
42C
100
AcDbEntity
  8
Make2D$可见线$普通线
100
AcDbVertex
100
AcDb2dVertex
 10
644.0473557997443
 20
1064.962288640237
 30
0.0
  0
SEQEND
  5
473
330
42C
100
AcDbEntity
  8
Make2D$可见线$普通线
  0
POLYLINE
  5
474
330
1F
100
AcDbEntity
  8
Make2D$可见线$普通线
100
AcDb2dPolyline
 66
     1
 10
0.0
 20
0.0
 30
0.0
  0
VERTEX
  5
475
330
474
100
AcDbEntity
  8
Make2D$可见线$普通线
100
AcDbVertex
100
AcDb2dVertex
 10
664.5566332160085
 20
1064.788474987852
 30
0.0
 42
-0.0603129505382051
  0
VERTEX
  5
476
330
474
100
AcDbEntity
  8
Make2D$可见线$普通线
100
AcDbVertex
100
AcDb2dVertex
 10
664.8358437942876
 20
1064.739892735767
 30
0.0
  0
VERTEX
  5
477
330
474
100
AcDbEntity
  8
Make2D$可见线$普通线
100
AcDbVertex
100
AcDb2dVertex
 10
664.8491841838627
 20
1064.726744452297
 30
0.0
  0
VERTEX
  5
478
330
474
100
AcDbEntity
  8
Make2D$可见线$普通线
100
AcDbVertex
100
AcDb2dVertex
 10
664.8491811096461
 20
1064.726544913855
 30
0.0
  0
VERTEX
  5
479
330
474
100
AcDbEntity
  8
Make2D$可见线$普通线
100
AcDbVertex
100
AcDb2dVertex
 10
664.8491718872247
 20
1064.726345376726
 30
0.0
  0
VERTEX
  5
47A
330
474
100
AcDbEntity
  8
Make2D$可见线$普通线
100
AcDbVertex
100
AcDb2dVertex
 10
664.8491565169404
 20
1064.726145840897
 30
0.0
  0
VERTEX
  5
47B
330
474
100
AcDbEntity
  8
Make2D$可见线$普通线
100
AcDbVertex
100
AcDb2dVertex
 10
664.8491349991355
 20
1064.725946306351
 30
0.0
  0
VERTEX
  5
47C
330
474
100
AcDbEntity
  8
Make2D$可见线$普通线
100
AcDbVertex
100
AcDb2dVertex
 10
664.8491073341519
 20
1064.725746773075
 30
0.0
  0
VERTEX
  5
47D
330
474
100
AcDbEntity
  8
Make2D$可见线$普通线
100
AcDbVertex
100
AcDb2dVertex
 10
664.8490735223321
 20
1064.725547241053
 30
0.0
  0
VERTEX
  5
47E
330
474
100
AcDbEntity
  8
Make2D$可见线$普通线
100
AcDbVertex
100
AcDb2dVertex
 10
664.8490335640181
 20
1064.72534771027
 30
0.0
  0
VERTEX
  5
47F
330
474
100
AcDbEntity
  8
Make2D$可见线$普通线
100
AcDbVertex
100
AcDb2dVertex
 10
664.8489874595521
 20
1064.725148180712
 30
0.0
  0
VERTEX
  5
480
330
474
100
AcDbEntity
  8
Make2D$可见线$普通线
100
AcDbVertex
100
AcDb2dVertex
 10
664.8489352092761
 20
1064.724948652363
 30
0.0
  0
VERTEX
  5
481
330
474
100
AcDbEntity
  8
Make2D$可见线$普通线
100
AcDbVertex
100
AcDb2dVertex
 10
664.8488768135325
 20
1064.724749125209
 30
0.0
  0
VERTEX
  5
482
330
474
100
AcDbEntity
  8
Make2D$可见线$普通线
100
AcDbVertex
100
AcDb2dVertex
 10
664.8488122726633
 20
1064.724549599234
 30
0.0
  0
VERTEX
  5
483
330
474
100
AcDbEntity
  8
Make2D$可见线$普通线
100
AcDbVertex
100
AcDb2dVertex
 10
664.8487415870106
 20
1064.724350074425
 30
0.0
  0
VERTEX
  5
484
330
474
100
AcDbEntity
  8
Make2D$可见线$普通线
100
AcDbVertex
100
AcDb2dVertex
 10
664.8486647569168
 20
1064.724150550766
 30
0.0
  0
VERTEX
  5
485
330
474
100
AcDbEntity
  8
Make2D$可见线$普通线
100
AcDbVertex
100
AcDb2dVertex
 10
664.8485817827238
 20
1064.723951028242
 30
0.0
  0
VERTEX
  5
486
330
474
100
AcDbEntity
  8
Make2D$可见线$普通线
100
AcDbVertex
100
AcDb2dVertex
 10
664.848492664774
 20
1064.723751506838
 30
0.0
  0
VERTEX
  5
487
330
474
100
AcDbEntity
  8
Make2D$可见线$普通线
100
AcDbVertex
100
AcDb2dVertex
 10
664.8483974034093
 20
1064.723551986539
 30
0.0
  0
VERTEX
  5
488
330
474
100
AcDbEntity
  8
Make2D$可见线$普通线
100
AcDbVertex
100
AcDb2dVertex
 10
664.848295998972
 20
1064.723352467331
 30
0.0
  0
VERTEX
  5
489
330
474
100
AcDbEntity
  8
Make2D$可见线$普通线
100
AcDbVertex
100
AcDb2dVertex
 10
664.8481884518043
 20
1064.723152949198
 30
0.0
  0
VERTEX
  5
48A
330
474
100
AcDbEntity
  8
Make2D$可见线$普通线
100
AcDbVertex
100
AcDb2dVertex
 10
664.8480747622482
 20
1064.722953432126
 30
0.0
  0
VERTEX
  5
48B
330
474
100
AcDbEntity
  8
Make2D$可见线$普通线
100
AcDbVertex
100
AcDb2dVertex
 10
664.8479549306461
 20
1064.722753916101
 30
0.0
  0
VERTEX
  5
48C
330
474
100
AcDbEntity
  8
Make2D$可见线$普通线
100
AcDbVertex
100
AcDb2dVertex
 10
664.84782895734
 20
1064.722554401106
 30
0.0
  0
VERTEX
  5
48D
330
474
100
AcDbEntity
  8
Make2D$可见线$普通线
100
AcDbVertex
100
AcDb2dVertex
 10
664.8476968426719
 20
1064.722354887127
 30
0.0
  0
VERTEX
  5
48E
330
474
100
AcDbEntity
  8
Make2D$可见线$普通线
100
AcDbVertex
100
AcDb2dVertex
 10
664.8475585869841
 20
1064.722155374149
 30
0.0
  0
VERTEX
  5
48F
330
474
100
AcDbEntity
  8
Make2D$可见线$普通线
100
AcDbVertex
100
AcDb2dVertex
 10
664.8474141906188
 20
1064.721955862157
 30
0.0
  0
VERTEX
  5
490
330
474
100
AcDbEntity
  8
Make2D$可见线$普通线
100
AcDbVertex
100
AcDb2dVertex
 10
664.8472636539182
 20
1064.721756351137
 30
0.0
  0
VERTEX
  5
491
330
474
100
AcDbEntity
  8
Make2D$可见线$普通线
100
AcDbVertex
100
AcDb2dVertex
 10
664.8471069772244
 20
1064.721556841073
 30
0.0
  0
VERTEX
  5
492
330
474
100
AcDbEntity
  8
Make2D$可见线$普通线
100
AcDbVertex
100
AcDb2dVertex
 10
664.8469441608795
 20
1064.721357331951
 30
0.0
  0
VERTEX
  5
493
330
474
100
AcDbEntity
  8
Make2D$可见线$普通线
100
AcDbVertex
100
AcDb2dVertex
 10
664.8467752052256
 20
1064.721157823756
 30
0.0
  0
VERTEX
  5
494
330
474
100
AcDbEntity
  8
Make2D$可见线$普通线
100
AcDbVertex
100
AcDb2dVertex
 10
664.8464188773601
 20
1064.720758810086
 30
0.0
  0
VERTEX
  5
495
330
474
100
AcDbEntity
  8
Make2D$可见线$普通线
100
AcDbVertex
100
AcDb2dVertex
 10
664.8460379963647
 20
1064.720359799945
 30
0.0
  0
VERTEX
  5
496
330
474
100
AcDbEntity
  8
Make2D$可见线$普通线
100
AcDbVertex
100
AcDb2dVertex
 10
664.8456325649768
 20
1064.719960793213
 30
0.0
  0
VERTEX
  5
497
330
474
100
AcDbEntity
  8
Make2D$可见线$普通线
100
AcDbVertex
100
AcDb2dVertex
 10
664.8452025859337
 20
1064.719561789771
 30
0.0
  0
VERTEX
  5
498
330
474
100
AcDbEntity
  8
Make2D$可见线$普通线
100
AcDbVertex
100
AcDb2dVertex
 10
664.8447480619726
 20
1064.7191627895
 30
0.0
  0
VERTEX
  5
499
330
474
100
AcDbEntity
  8
Make2D$可见线$普通线
100
AcDbVertex
100
AcDb2dVertex
 10
664.8442689958308
 20
1064.718763792281
 30
0.0
  0
VERTEX
  5
49A
330
474
100
AcDbEntity
  8
Make2D$可见线$普通线
100
AcDbVertex
100
AcDb2dVertex
 10
664.8437653902456
 20
1064.718364797995
 30
0.0
  0
VERTEX
  5
49B
330
474
100
AcDbEntity
  8
Make2D$可见线$普通线
100
AcDbVertex
100
AcDb2dVertex
 10
664.843237247954
 20
1064.717965806523
 30
0.0
  0
VERTEX
  5
49C
330
474
100
AcDbEntity
  8
Make2D$可见线$普通线
100
AcDbVertex
100
AcDb2dVertex
 10
664.8426845716936
 20
1064.717566817745
 30
0.0
  0
VERTEX
  5
49D
330
474
100
AcDbEntity
  8
Make2D$可见线$普通线
100
AcDbVertex
100
AcDb2dVertex
 10
664.8421073642013
 20
1064.717167831544
 30
0.0
  0
VERTEX
  5
49E
330
474
100
AcDbEntity
  8
Make2D$可见线$普通线
100
AcDbVertex
100
AcDb2dVertex
 10
664.8415056282147
 20
1064.716768847798
 30
0.0
  0
VERTEX
  5
49F
330
474
100
AcDbEntity
  8
Make2D$可见线$普通线
100
AcDbVertex
100
AcDb2dVertex
 10
664.8408793664707
 20
1064.716369866391
 30
0.0
  0
VERTEX
  5
4A0
330
474
100
AcDbEntity
  8
Make2D$可见线$普通线
100
AcDbVertex
100
AcDb2dVertex
 10
664.8395532766604
 20
1064.715571910112
 30
0.0
  0
VERTEX
  5
4A1
330
474
100
AcDbEntity
  8
Make2D$可见线$普通线
100
AcDbVertex
100
AcDb2dVertex
 10
664.8381291166681
 20
1064.714773961753
 30
0.0
  0
VERTEX
  5
4A2
330
474
100
AcDbEntity
  8
Make2D$可见线$普通线
100
AcDbVertex
100
AcDb2dVertex
 10
664.836606908392
 20
1064.713976020363
 30
0.0
  0
VERTEX
  5
4A3
330
474
100
AcDbEntity
  8
Make2D$可见线$普通线
100
AcDbVertex
100
AcDb2dVertex
 10
664.8349866737301
 20
1064.713178084988
 30
0.0
  0
VERTEX
  5
4A4
330
474
100
AcDbEntity
  8
Make2D$可见线$普通线
100
AcDbVertex
100
AcDb2dVertex
 10
664.8332684345804
 20
1064.712380154676
 30
0.0
  0
VERTEX
  5
4A5
330
474
100
AcDbEntity
  8
Make2D$可见线$普通线
100
AcDbVertex
100
AcDb2dVertex
 10
664.831452212841
 20
1064.711582228475
 30
0.0
  0
VERTEX
  5
4A6
330
474
100
AcDbEntity
  8
Make2D$可见线$普通线
100
AcDbVertex
100
AcDb2dVertex
 10
664.8295380304097
 20
1064.71078430543
 30
0.0
  0
VERTEX
  5
4A7
330
474
100
AcDbEntity
  8
Make2D$可见线$普通线
100
AcDbVertex
100
AcDb2dVertex
 10
664.8254158710639
 20
1064.709188465004
 30
0.0
  0
VERTEX
  5
4A8
330
474
100
AcDbEntity
  8
Make2D$可见线$普通线
100
AcDbVertex
100
AcDb2dVertex
 10
664.8209021317272
 20
1064.707592625774
 30
0.0
  0
VERTEX
  5
4A9
330
474
100
AcDbEntity
  8
Make2D$可见线$普通线
100
AcDbVertex
100
AcDb2dVertex
 10
664.8159969875836
 20
1064.705996780121
 30
0.0
  0
VERTEX
  5
4AA
330
474
100
AcDbEntity
  8
Make2D$可见线$普通线
100
AcDbVertex
100
AcDb2dVertex
 10
664.8107006138173
 20
1064.704400920422
 30
0.0
  0
VERTEX
  5
4AB
330
474
100
AcDbEntity
  8
Make2D$可见线$普通线
100
AcDbVertex
100
AcDb2dVertex
 10
664.7989348781525
 20
1064.701209128403
 30
0.0
  0
VERTEX
  5
4AC
330
474
100
AcDbEntity
  8
Make2D$可见线$普通线
100
AcDbVertex
100
AcDb2dVertex
 10
664.7856063262059
 20
1064.698017188743
 30
0.0
  0
VERTEX
  5
4AD
330
474
100
AcDbEntity
  8
Make2D$可见线$普通线
100
AcDbVertex
100
AcDb2dVertex
 10
664.7707163594503
 20
1064.694825040472
 30
0.0
  0
VERTEX
  5
4AE
330
474
100
AcDbEntity
  8
Make2D$可见线$普通线
100
AcDbVertex
100
AcDb2dVertex
 10
664.7362577874027
 20
1064.688439874206
 30
0.0
  0
VERTEX
  5
4AF
330
474
100
AcDbEntity
  8
Make2D$可见线$普通线
100
AcDbVertex
100
AcDb2dVertex
 10
664.6955703737924
 20
1064.682053141828
 30
0.0
  0
VERTEX
  5
4B0
330
474
100
AcDbEntity
  8
Make2D$可见线$普通线
100
AcDbVertex
100
AcDb2dVertex
 10
664.6486653304014
 20
1064.675664355561
 30
0.0
  0
VERTEX
  5
4B1
330
474
100
AcDbEntity
  8
Make2D$可见线$普通线
100
AcDbVertex
100
AcDb2dVertex
 10
664.245224006858
 20
1064.637392076577
 30
0.0
  0
VERTEX
  5
4B2
330
474
100
AcDbEntity
  8
Make2D$可见线$普通线
100
AcDbVertex
100
AcDb2dVertex
 10
663.8408022604483
 20
1064.611455231895
 30
0.0
  0
VERTEX
  5
4B3
330
474
100
AcDbEntity
  8
Make2D$可见线$普通线
100
AcDbVertex
100
AcDb2dVertex
 10
661.756926602875
 20
1064.521262642127
 30
0.0
  0
VERTEX
  5
4B4
330
474
100
AcDbEntity
  8
Make2D$可见线$普通线
100
AcDbVertex
100
AcDb2dVertex
 10
658.3434077988761
 20
1064.418809100178
 30
0.0
  0
VERTEX
  5
4B5
330
474
100
AcDbEntity
  8
Make2D$可见线$普通线
100
AcDbVertex
100
AcDb2dVertex
 10
648.4364817035055
 20
1064.161926062757
 30
0.0
  0
VERTEX
  5
4B6
330
474
100
AcDbEntity
  8
Make2D$可见线$普通线
100
AcDbVertex
100
AcDb2dVertex
 10
646.477377740958
 20
1064.097707447097
 30
0.0
  0
VERTEX
  5
4B7
330
474
100
AcDbEntity
  8
Make2D$可见线$普通线
100
AcDbVertex
100
AcDb2dVertex
 10
644.9863104092253
 20
1064.033474275065
 30
0.0
  0
VERTEX
  5
4B8
330
474
100
AcDbEntity
  8
Make2D$可见线$普通线
100
AcDbVertex
100
AcDb2dVertex
 10
644.5194818136563
 20
1064.006566216017
 30
0.0
  0
VERTEX
  5
4B9
330
474
100
AcDbEntity
  8
Make2D$可见线$普通线
100
AcDbVertex
100
AcDb2dVertex
 10
644.0533688403789
 20
1063.969261023009
 30
0.0
  0
VERTEX
  5
4BA
330
474
100
AcDbEntity
  8
Make2D$可见线$普通线
100
AcDbVertex
100
AcDb2dVertex
 10
643.9145261330043
 20
1063.953196246378
 30
0.0
  0
VERTEX
  5
4BB
330
474
100
AcDbEntity
  8
Make2D$可见线$普通线
100
AcDbVertex
100
AcDb2dVertex
 10
643.859780125697
 20
1063.945165677198
 30
0.0
  0
VERTEX
  5
4BC
330
474
100
AcDbEntity
  8
Make2D$可见线$普通线
100
AcDbVertex
100
AcDb2dVertex
 10
643.8360883039404
 20
1063.941149254634
 30
0.0
  0
VERTEX
  5
4BD
330
474
100
AcDbEntity
  8
Make2D$可见线$普通线
100
AcDbVertex
100
AcDb2dVertex
 10
643.8148553064209
 20
1063.937131466656
 30
0.0
  0
VERTEX
  5
4BE
330
474
100
AcDbEntity
  8
Make2D$可见线$普通线
100
AcDbVertex
100
AcDb2dVertex
 10
643.7960846603675
 20
1063.93311185819
 30
0.0
  0
VERTEX
  5
4BF
330
474
100
AcDbEntity
  8
Make2D$可见线$普通线
100
AcDbVertex
100
AcDb2dVertex
 10
643.7876238213995
 20
1063.931101229064
 30
0.0
  0
VERTEX
  5
4C0
330
474
100
AcDbEntity
  8
Make2D$可见线$普通线
100
AcDbVertex
100
AcDb2dVertex
 10
643.7797798930092
 20
1063.929089974163
 30
0.0
  0
VERTEX
  5
4C1
330
474
100
AcDbEntity
  8
Make2D$可见线$普通线
100
AcDbVertex
100
AcDb2dVertex
 10
643.7725533160999
 20
1063.927078036603
 30
0.0
  0
VERTEX
  5
4C2
330
474
100
AcDbEntity
  8
Make2D$可见线$普通线
100
AcDbVertex
100
AcDb2dVertex
 10
643.7659445315754
 20
1063.9250653595
 30
0.0
  0
VERTEX
  5
4C3
330
474
100
AcDbEntity
  8
Make2D$可见线$普通线
100
AcDbVertex
100
AcDb2dVertex
 10
643.7599539803393
 20
1063.923051885971
 30
0.0
  0
VERTEX
  5
4C4
330
474
100
AcDbEntity
  8
Make2D$可见线$普通线
100
AcDbVertex
100
AcDb2dVertex
 10
643.7571906799869
 20
1063.922044832769
 30
0.0
  0
VERTEX
  5
4C5
330
474
100
AcDbEntity
  8
Make2D$可见线$普通线
100
AcDbVertex
100
AcDb2dVertex
 10
643.7545821032954
 20
1063.92103755913
 30
0.0
  0
VERTEX
  5
4C6
330
474
100
AcDbEntity
  8
Make2D$可见线$普通线
100
AcDbVertex
100
AcDb2dVertex
 10
643.7521283053777
 20
1063.920030057941
 30
0.0
  0
VERTEX
  5
4C7
330
474
100
AcDbEntity
  8
Make2D$可见线$普通线
100
AcDbVertex
100
AcDb2dVertex
 10
643.7498293413471
 20
1063.919022322093
 30
0.0
  0
VERTEX
  5
4C8
330
474
100
AcDbEntity
  8
Make2D$可见线$普通线
100
AcDbVertex
100
AcDb2dVertex
 10
643.7476852663162
 20
1063.918014344475
 30
0.0
  0
VERTEX
  5
4C9
330
474
100
AcDbEntity
  8
Make2D$可见线$普通线
100
AcDbVertex
100
AcDb2dVertex
 10
643.745696135398
 20
1063.917006117977
 30
0.0
  0
VERTEX
  5
4CA
330
474
100
AcDbEntity
  8
Make2D$可见线$普通线
100
AcDbVertex
100
AcDb2dVertex
 10
643.7447596912041
 20
1063.916501909175
 30
0.0
  0
VERTEX
  5
4CB
330
474
100
AcDbEntity
  8
Make2D$可见线$普通线
100
AcDbVertex
100
AcDb2dVertex
 10
643.7438620037057
 20
1063.915997635487
 30
0.0
  0
VERTEX
  5
4CC
330
474
100
AcDbEntity
  8
Make2D$可见线$普通线
100
AcDbVertex
100
AcDb2dVertex
 10
643.7430030797921
 20
1063.915493296024
 30
0.0
  0
VERTEX
  5
4CD
330
474
100
AcDbEntity
  8
Make2D$可见线$普通线
100
AcDbVertex
100
AcDb2dVertex
 10
643.7421829263521
 20
1063.914988889896
 30
0.0
  0
VERTEX
  5
4CE
330
474
100
AcDbEntity
  8
Make2D$可见线$普通线
100
AcDbVertex
100
AcDb2dVertex
 10
643.7414015502751
 20
1063.914484416215
 30
0.0
  0
VERTEX
  5
4CF
330
474
100
AcDbEntity
  8
Make2D$可见线$普通线
100
AcDbVertex
100
AcDb2dVertex
 10
643.7406589584501
 20
1063.913979874093
 30
0.0
  0
VERTEX
  5
4D0
330
474
100
AcDbEntity
  8
Make2D$可见线$普通线
100
AcDbVertex
100
AcDb2dVertex
 10
643.7399551577662
 20
1063.91347526264
 30
0.0
  0
VERTEX
  5
4D1
330
474
100
AcDbEntity
  8
Make2D$可见线$普通线
100
AcDbVertex
100
AcDb2dVertex
 10
643.7392901551127
 20
1063.912970580967
 30
0.0
  0
VERTEX
  5
4D2
330
474
100
AcDbEntity
  8
Make2D$可见线$普通线
100
AcDbVertex
100
AcDb2dVertex
 10
643.7386639573787
 20
1063.912465828187
 30
0.0
  0
VERTEX
  5
4D3
330
474
100
AcDbEntity
  8
Make2D$可见线$普通线
100
AcDbVertex
100
AcDb2dVertex
 10
643.7380765714529
 20
1063.911961003409
 30
0.0
  0
VERTEX
  5
4D4
330
474
100
AcDbEntity
  8
Make2D$可见线$普通线
100
AcDbVertex
100
AcDb2dVertex
 10
643.7377974350711
 20
1063.911708563743
 30
0.0
  0
VERTEX
  5
4D5
330
474
100
AcDbEntity
  8
Make2D$可见线$普通线
100
AcDbVertex
100
AcDb2dVertex
 10
643.7375280042249
 20
1063.911456105745
 30
0.0
  0
VERTEX
  5
4D6
330
474
100
AcDbEntity
  8
Make2D$可见线$普通线
100
AcDbVertex
100
AcDb2dVertex
 10
643.7372682797754
 20
1063.911203629303
 30
0.0
  0
VERTEX
  5
4D7
330
474
100
AcDbEntity
  8
Make2D$可见线$普通线
100
AcDbVertex
100
AcDb2dVertex
 10
643.7370182625838
 20
1063.910951134306
 30
0.0
  0
VERTEX
  5
4D8
330
474
100
AcDbEntity
  8
Make2D$可见线$普通线
100
AcDbVertex
100
AcDb2dVertex
 10
643.736777953511
 20
1063.910698620644
 30
0.0
  0
VERTEX
  5
4D9
330
474
100
AcDbEntity
  8
Make2D$可见线$普通线
100
AcDbVertex
100
AcDb2dVertex
 10
643.7365473534185
 20
1063.910446088204
 30
0.0
  0
VERTEX
  5
4DA
330
474
100
AcDbEntity
  8
Make2D$可见线$普通线
100
AcDbVertex
100
AcDb2dVertex
 10
643.7363264631671
 20
1063.910193536877
 30
0.0
  0
VERTEX
  5
4DB
330
474
100
AcDbEntity
  8
Make2D$可见线$普通线
100
AcDbVertex
100
AcDb2dVertex
 10
643.736115283618
 20
1063.90994096655
 30
0.0
  0
VERTEX
  5
4DC
330
474
100
AcDbEntity
  8
Make2D$可见线$普通线
100
AcDbVertex
100
AcDb2dVertex
 10
643.7359138156326
 20
1063.909688377113
 30
0.0
  0
VERTEX
  5
4DD
330
474
100
AcDbEntity
  8
Make2D$可见线$普通线
100
AcDbVertex
100
AcDb2dVertex
 10
643.7357220600717
 20
1063.909435768454
 30
0.0
  0
VERTEX
  5
4DE
330
474
100
AcDbEntity
  8
Make2D$可见线$普通线
100
AcDbVertex
100
AcDb2dVertex
 10
643.7355400177967
 20
1063.909183140463
 30
0.0
  0
VERTEX
  5
4DF
330
474
100
AcDbEntity
  8
Make2D$可见线$普通线
100
AcDbVertex
100
AcDb2dVertex
 10
643.7353676896686
 20
1063.908930493029
 30
0.0
  0
VERTEX
  5
4E0
330
474
100
AcDbEntity
  8
Make2D$可见线$普通线
100
AcDbVertex
100
AcDb2dVertex
 10
643.7352050765486
 20
1063.908677826039
 30
0.0
  0
VERTEX
  5
4E1
330
474
100
AcDbEntity
  8
Make2D$可见线$普通线
100
AcDbVertex
100
AcDb2dVertex
 10
643.7350521792979
 20
1063.908425139384
 30
0.0
  0
VERTEX
  5
4E2
330
474
100
AcDbEntity
  8
Make2D$可见线$普通线
100
AcDbVertex
100
AcDb2dVertex
 10
643.7349089987775
 20
1063.908172432952
 30
0.0
  0
VERTEX
  5
4E3
330
474
100
AcDbEntity
  8
Make2D$可见线$普通线
100
AcDbVertex
100
AcDb2dVertex
 10
643.7347755358487
 20
1063.907919706632
 30
0.0
  0
VERTEX
  5
4E4
330
474
100
AcDbEntity
  8
Make2D$可见线$普通线
100
AcDbVertex
100
AcDb2dVertex
 10
643.7346517913725
 20
1063.907666960313
 30
0.0
  0
VERTEX
  5
4E5
330
474
100
AcDbEntity
  8
Make2D$可见线$普通线
100
AcDbVertex
100
AcDb2dVertex
 10
643.73453776621
 20
1063.907414193884
 30
0.0
  0
VERTEX
  5
4E6
330
474
100
AcDbEntity
  8
Make2D$可见线$普通线
100
AcDbVertex
100
AcDb2dVertex
 10
643.7344334612225
 20
1063.907161407233
 30
0.0
  0
VERTEX
  5
4E7
330
474
100
AcDbEntity
  8
Make2D$可见线$普通线
100
AcDbVertex
100
AcDb2dVertex
 10
643.7343388772711
 20
1063.90690860025
 30
0.0
  0
VERTEX
  5
4E8
330
474
100
AcDbEntity
  8
Make2D$可见线$普通线
100
AcDbVertex
100
AcDb2dVertex
 10
643.7342540152168
 20
1063.906655772824
 30
0.0
  0
VERTEX
  5
4E9
330
474
100
AcDbEntity
  8
Make2D$可见线$普通线
100
AcDbVertex
100
AcDb2dVertex
 10
643.7341788759209
 20
1063.906402924842
 30
0.0
  0
VERTEX
  5
4EA
330
474
100
AcDbEntity
  8
Make2D$可见线$普通线
100
AcDbVertex
100
AcDb2dVertex
 10
643.7341134602444
 20
1063.906150056196
 30
0.0
  0
VERTEX
  5
4EB
330
474
100
AcDbEntity
  8
Make2D$可见线$普通线
100
AcDbVertex
100
AcDb2dVertex
 10
643.7340577690487
 20
1063.905897166772
 30
0.0
  0
VERTEX
  5
4EC
330
474
100
AcDbEntity
  8
Make2D$可见线$普通线
100
AcDbVertex
100
AcDb2dVertex
 10
643.7340118031948
 20
1063.90564425646
 30
0.0
  0
VERTEX
  5
4ED
330
474
100
AcDbEntity
  8
Make2D$可见线$普通线
100
AcDbVertex
100
AcDb2dVertex
 10
643.7339755635436
 20
1063.90539132515
 30
0.0
  0
VERTEX
  5
4EE
330
474
100
AcDbEntity
  8
Make2D$可见线$普通线
100
AcDbVertex
100
AcDb2dVertex
 10
643.7339490509565
 20
1063.905138372729
 30
0.0
  0
VERTEX
  5
4EF
330
474
100
AcDbEntity
  8
Make2D$可见线$普通线
100
AcDbVertex
100
AcDb2dVertex
 10
643.7339322662947
 20
1063.904885399087
 30
0.0
  0
VERTEX
  5
4F0
330
474
100
AcDbEntity
  8
Make2D$可见线$普通线
100
AcDbVertex
100
AcDb2dVertex
 10
643.733928641144
 20
1063.263908861158
 30
0.0
  0
SEQEND
  5
4F1
330
474
100
AcDbEntity
  8
Make2D$可见线$普通线
  0
ENDSEC
  0
SECTION
  2
OBJECTS
  0
DICTIONARY
  5
C
330
0
100
AcDbDictionary
281
     1
  3
ACAD_GROUP
350
D
  3
ACAD_LAYOUT
350
1A
  3
ACAD_MATERIAL
350
3B
  3
ACAD_MLEADERSTYLE
350
51C
  3
ACAD_MLINESTYLE
350
17
  3
ACAD_PLOTSETTINGS
350
19
  3
ACAD_PLOTSTYLENAME
350
E
  3
ACAD_SCALELIST
350
3F
  3
ACAD_TABLESTYLE
350
51B
  3
ACAD_VISUALSTYLE
350
2A
  3
AcDbVariableDictionary
350
4F2
  0
DICTIONARY
  5
D
102
{ACAD_REACTORS
330
C
102
}
330
C
100
AcDbDictionary
281
     1
  0
DICTIONARY
  5
1A
102
{ACAD_REACTORS
330
C
102
}
330
C
100
AcDbDictionary
281
     1
  3
Layout1
350
1E
  3
Layout2
350
26
  3
Model
350
22
  0
DICTIONARY
  5
3B
102
{ACAD_REACTORS
330
C
102
}
330
C
100
AcDbDictionary
281
     1
  3
ByBlock
350
3D
  3
ByLayer
350
3C
  3
Global
350
3E
  0
DICTIONARY
  5
51C
102
{ACAD_REACTORS
330
C
102
}
330
C
100
AcDbDictionary
281
     1
  0
DICTIONARY
  5
17
102
{ACAD_REACTORS
330
C
102
}
330
C
100
AcDbDictionary
281
     1
  3
Standard
350
18
  0
DICTIONARY
  5
19
102
{ACAD_REACTORS
330
C
102
}
330
C
100
AcDbDictionary
281
     1
  0
ACDBDICTIONARYWDFLT
  5
E
102
{ACAD_REACTORS
330
C
102
}
330
C
100
AcDbDictionary
281
     1
  3
Normal
350
F
100
AcDbDictionaryWithDefault
340
F
  0
DICTIONARY
  5
3F
102
{ACAD_REACTORS
330
C
102
}
330
C
100
AcDbDictionary
281
     1
  3
A0
350
40
  3
A1
350
41
  3
A2
350
42
  3
A3
350
43
  3
A4
350
44
  3
A5
350
45
  3
A6
350
46
  3
A7
350
47
  3
A8
350
48
  3
A9
350
49
  3
B0
350
4A
  3
B1
350
4B
  3
B2
350
4C
  3
B3
350
4D
  3
B4
350
4E
  3
B5
350
4F
  3
B6
350
50
  3
B7
350
51
  3
B8
350
52
  3
B9
350
53
  3
C0
350
54
  3
C1
350
55
  3
C2
350
56
  3
C3
350
57
  3
C4
350
58
  3
C5
350
59
  3
C6
350
5A
  3
C7
350
5B
  3
C8
350
5C
  3
C9
350
5D
  3
D0
350
5E
  3
D1
350
5F
  3
D2
350
60
  0
DICTIONARY
  5
51B
102
{ACAD_REACTORS
330
C
102
}
330
C
100
AcDbDictionary
281
     1
  0
DICTIONARY
  5
2A
102
{ACAD_REACTORS
330
C
102
}
330
C
100
AcDbDictionary
281
     1
  3
2dWireframe
350
2F
  3
3D Hidden
350
31
  3
3dWireframe
350
30
  3
Basic
350
32
  3
Brighten
350
36
  3
ColorChange
350
3A
  3
Conceptual
350
34
  3
Dim
350
35
  3
Facepattern
350
39
  3
Flat
350
2B
  3
FlatWithEdges
350
2C
  3
Gouraud
350
2D
  3
GouraudWithEdges
350
2E
  3
Linepattern
350
38
  3
Realistic
350
33
  3
Thicken
350
37
  0
DICTIONARY
  5
4F2
102
{ACAD_REACTORS
330
C
102
}
330
C
100
AcDbDictionary
281
     1
  3
CANNOSCALE
350
4F3
  3
MSLTSCALE
350
4F4
  0
LAYOUT
  5
1E
102
{ACAD_REACTORS
330
1A
102
}
330
1A
100
AcDbPlotSettings
  1

  2
none_device
  4

  6

 40
0.0
 41
0.0
 42
0.0
 43
0.0
 44
0.0
 45
0.0
 46
0.0
 47
0.0
 48
0.0
 49
0.0
140
0.0
141
0.0
142
1.0
143
1.0
 70
   688
 72
     0
 73
     0
 74
     5
  7

 75
    16
 76
     0
 77
     2
 78
   300
147
1.0
148
0.0
149
0.0
100
AcDbLayout
  1
Layout1
 70
     1
 71
     1
 10
0.0
 20
0.0
 11
12.0
 21
9.0
 12
0.0
 22
0.0
 32
0.0
 14
1.000000000000000E+20
 24
1.000000000000000E+20
 34
1.000000000000000E+20
 15
-1.000000000000000E+20
 25
-1.000000000000000E+20
 35
-1.000000000000000E+20
146
0.0
 13
0.0
 23
0.0
 33
0.0
 16
1.0
 26
0.0
 36
0.0
 17
0.0
 27
1.0
 37
0.0
 76
     0
330
1B
  0
LAYOUT
  5
26
102
{ACAD_REACTORS
330
1A
102
}
330
1A
100
AcDbPlotSettings
  1

  2
none_device
  4

  6

 40
0.0
 41
0.0
 42
0.0
 43
0.0
 44
0.0
 45
0.0
 46
0.0
 47
0.0
 48
0.0
 49
0.0
140
0.0
141
0.0
142
1.0
143
1.0
 70
   688
 72
     0
 73
     0
 74
     5
  7

 75
    16
 76
     0
 77
     2
 78
   300
147
1.0
148
0.0
149
0.0
100
AcDbLayout
  1
Layout2
 70
     1
 71
     2
 10
0.0
 20
0.0
 11
0.0
 21
0.0
 12
0.0
 22
0.0
 32
0.0
 14
0.0
 24
0.0
 34
0.0
 15
0.0
 25
0.0
 35
0.0
146
0.0
 13
0.0
 23
0.0
 33
0.0
 16
1.0
 26
0.0
 36
0.0
 17
0.0
 27
1.0
 37
0.0
 76
     0
330
23
  0
LAYOUT
  5
22
102
{ACAD_REACTORS
330
1A
102
}
330
1A
100
AcDbPlotSettings
  1

  2
none_device
  4
Letter_(8.50_x_11.00_Inches)
  6

 40
6.35
 41
6.35
 42
6.35000508
 43
6.35000508
 44
215.9
 45
279.4
 46
0.0
 47
0.0
 48
0.0
 49
0.0
140
0.0
141
0.0
142
1.0
143
1.0
 70
  1712
 72
     0
 73
     0
 74
     0
  7

 75
     0
 76
     0
 77
     2
 78
   300
147
1.0
148
0.0
149
0.0
100
AcDbLayout
  1
Model
 70
     1
 71
     0
 10
0.0
 20
0.0
 11
12.0
 21
9.0
 12
0.0
 22
0.0
 32
0.0
 14
524.2915533746315
 24
1061.291553374628
 34
0.0
 15
771.2915514460404
 25
1136.511553343823
 35
0.0
146
0.0
 13
0.0
 23
0.0
 33
0.0
 16
1.0
 26
0.0
 36
0.0
 17
0.0
 27
1.0
 37
0.0
 76
     0
330
1F
331
29
  0
MATERIAL
  5
3D
102
{ACAD_REACTORS
330
3B
102
}
102
{ACAD_XDICTIONARY
360
517
102
}
330
3B
100
AcDbMaterial
  1
ByBlock
  0
MATERIAL
  5
3C
102
{ACAD_REACTORS
330
3B
102
}
102
{ACAD_XDICTIONARY
360
515
102
}
330
3B
100
AcDbMaterial
  1
ByLayer
  0
MATERIAL
  5
3E
102
{ACAD_REACTORS
330
3B
102
}
102
{ACAD_XDICTIONARY
360
519
102
}
330
3B
100
AcDbMaterial
  1
Global
  0
MLINESTYLE
  5
18
102
{ACAD_REACTORS
330
17
102
}
330
17
100
AcDbMlineStyle
  2
Standard
 70
     0
  3

 62
   256
 51
90.0
 52
90.0
 71
     2
 49
0.5
 62
   256
  6
BYLAYER
 49
-0.5
 62
   256
  6
BYLAYER
  0
ACDBPLACEHOLDER
  5
F
102
{ACAD_REACTORS
330
E
102
}
330
E
  0
SCALE
  5
40
102
{ACAD_REACTORS
330
3F
102
}
330
3F
100
AcDbScale
 70
     0
300
1:1
140
1.0
141
1.0
290
     1
  0
SCALE
  5
41
102
{ACAD_REACTORS
330
3F
102
}
330
3F
100
AcDbScale
 70
     0
300
1:2
140
1.0
141
2.0
290
     0
  0
SCALE
  5
42
102
{ACAD_REACTORS
330
3F
102
}
330
3F
100
AcDbScale
 70
     0
300
1:4
140
1.0
141
4.0
290
     0
  0
SCALE
  5
43
102
{ACAD_REACTORS
330
3F
102
}
330
3F
100
AcDbScale
 70
     0
300
1:5
140
1.0
141
5.0
290
     0
  0
SCALE
  5
44
102
{ACAD_REACTORS
330
3F
102
}
330
3F
100
AcDbScale
 70
     0
300
1:8
140
1.0
141
8.0
290
     0
  0
SCALE
  5
45
102
{ACAD_REACTORS
330
3F
102
}
330
3F
100
AcDbScale
 70
     0
300
1:10
140
1.0
141
10.0
290
     0
  0
SCALE
  5
46
102
{ACAD_REACTORS
330
3F
102
}
330
3F
100
AcDbScale
 70
     0
300
1:16
140
1.0
141
16.0
290
     0
  0
SCALE
  5
47
102
{ACAD_REACTORS
330
3F
102
}
330
3F
100
AcDbScale
 70
     0
300
1:20
140
1.0
141
20.0
290
     0
  0
SCALE
  5
48
102
{ACAD_REACTORS
330
3F
102
}
330
3F
100
AcDbScale
 70
     0
300
1:30
140
1.0
141
30.0
290
     0
  0
SCALE
  5
49
102
{ACAD_REACTORS
330
3F
102
}
330
3F
100
AcDbScale
 70
     0
300
1:40
140
1.0
141
40.0
290
     0
  0
SCALE
  5
4A
102
{ACAD_REACTORS
330
3F
102
}
330
3F
100
AcDbScale
 70
     0
300
1:50
140
1.0
141
50.0
290
     0
  0
SCALE
  5
4B
102
{ACAD_REACTORS
330
3F
102
}
330
3F
100
AcDbScale
 70
     0
300
1:100
140
1.0
141
100.0
290
     0
  0
SCALE
  5
4C
102
{ACAD_REACTORS
330
3F
102
}
330
3F
100
AcDbScale
 70
     0
300
2:1
140
2.0
141
1.0
290
     0
  0
SCALE
  5
4D
102
{ACAD_REACTORS
330
3F
102
}
330
3F
100
AcDbScale
 70
     0
300
4:1
140
4.0
141
1.0
290
     0
  0
SCALE
  5
4E
102
{ACAD_REACTORS
330
3F
102
}
330
3F
100
AcDbScale
 70
     0
300
8:1
140
8.0
141
1.0
290
     0
  0
SCALE
  5
4F
102
{ACAD_REACTORS
330
3F
102
}
330
3F
100
AcDbScale
 70
     0
300
10:1
140
10.0
141
1.0
290
     0
  0
SCALE
  5
50
102
{ACAD_REACTORS
330
3F
102
}
330
3F
100
AcDbScale
 70
     0
300
100:1
140
100.0
141
1.0
290
     0
  0
SCALE
  5
51
102
{ACAD_REACTORS
330
3F
102
}
330
3F
100
AcDbScale
 70
     0
300
1/128" = 1'-0"
140
0.0078125
141
12.0
290
     0
  0
SCALE
  5
52
102
{ACAD_REACTORS
330
3F
102
}
330
3F
100
AcDbScale
 70
     0
300
1/64" = 1'-0"
140
0.015625
141
12.0
290
     0
  0
SCALE
  5
53
102
{ACAD_REACTORS
330
3F
102
}
330
3F
100
AcDbScale
 70
     0
300
1/32" = 1'-0"
140
0.03125
141
12.0
290
     0
  0
SCALE
  5
54
102
{ACAD_REACTORS
330
3F
102
}
330
3F
100
AcDbScale
 70
     0
300
1/16" = 1'-0"
140
0.0625
141
12.0
290
     0
  0
SCALE
  5
55
102
{ACAD_REACTORS
330
3F
102
}
330
3F
100
AcDbScale
 70
     0
300
3/32" = 1'-0"
140
0.09375
141
12.0
290
     0
  0
SCALE
  5
56
102
{ACAD_REACTORS
330
3F
102
}
330
3F
100
AcDbScale
 70
     0
300
1/8" = 1'-0"
140
0.125
141
12.0
290
     0
  0
SCALE
  5
57
102
{ACAD_REACTORS
330
3F
102
}
330
3F
100
AcDbScale
 70
     0
300
3/16" = 1'-0"
140
0.1875
141
12.0
290
     0
  0
SCALE
  5
58
102
{ACAD_REACTORS
330
3F
102
}
330
3F
100
AcDbScale
 70
     0
300
1/4" = 1'-0"
140
0.25
141
12.0
290
     0
  0
SCALE
  5
59
102
{ACAD_REACTORS
330
3F
102
}
330
3F
100
AcDbScale
 70
     0
300
3/8" = 1'-0"
140
0.375
141
12.0
290
     0
  0
SCALE
  5
5A
102
{ACAD_REACTORS
330
3F
102
}
330
3F
100
AcDbScale
 70
     0
300
1/2" = 1'-0"
140
0.5
141
12.0
290
     0
  0
SCALE
  5
5B
102
{ACAD_REACTORS
330
3F
102
}
330
3F
100
AcDbScale
 70
     0
300
3/4" = 1'-0"
140
0.75
141
12.0
290
     0
  0
SCALE
  5
5C
102
{ACAD_REACTORS
330
3F
102
}
330
3F
100
AcDbScale
 70
     0
300
1" = 1'-0"
140
1.0
141
12.0
290
     0
  0
SCALE
  5
5D
102
{ACAD_REACTORS
330
3F
102
}
330
3F
100
AcDbScale
 70
     0
300
1-1/2" = 1'-0"
140
1.5
141
12.0
290
     0
  0
SCALE
  5
5E
102
{ACAD_REACTORS
330
3F
102
}
330
3F
100
AcDbScale
 70
     0
300
3" = 1'-0"
140
3.0
141
12.0
290
     0
  0
SCALE
  5
5F
102
{ACAD_REACTORS
330
3F
102
}
330
3F
100
AcDbScale
 70
     0
300
6" = 1'-0"
140
6.0
141
12.0
290
     0
  0
SCALE
  5
60
102
{ACAD_REACTORS
330
3F
102
}
330
3F
100
AcDbScale
 70
     0
300
1'-0" = 1'-0"
140
12.0
141
12.0
290
     0
  0
VISUALSTYLE
  5
2F
102
{ACAD_REACTORS
330
2A
102
}
102
{ACAD_XDICTIONARY
360
4FD
102
}
330
2A
100
AcDbVisualStyle
  2
2dWireframe
 70
     4
 71
     0
 72
     2
 73
     0
 90
        0
 40
0.6
 41
30.0
 62
     5
 63
     7
421
 16777215
 74
     1
 91
        4
 64
     7
 65
   257
 75
     1
175
     1
 42
1.0
 92
        0
 66
   257
 43
1.0
 76
     1
 77
     6
 78
     2
 67
     7
 79
     5
170
     0
171
     0
290
     0
174
     0
 93
        1
 44
0.0
173
     0
291
     0
 45
0.0
1001
ACAD
1000
AcDbSavedByObjectVersion
1070
     0
  0
VISUALSTYLE
  5
31
102
{ACAD_REACTORS
330
2A
102
}
102
{ACAD_XDICTIONARY
360
501
102
}
330
2A
100
AcDbVisualStyle
  2
3D Hidden
 70
     6
 71
     1
 72
     2
 73
     2
 90
        0
 40
0.6
 41
30.0
 62
     5
 63
     7
421
 16777215
 74
     2
 91
        2
 64
     7
 65
   257
 75
     2
175
     1
 42
40.0
 92
        0
 66
   257
 43
1.0
 76
     1
 77
     6
 78
     2
 67
     7
 79
     3
170
     0
171
     0
290
     0
174
     0
 93
        1
 44
0.0
173
     0
291
     0
 45
0.0
1001
ACAD
1000
AcDbSavedByObjectVersion
1070
     0
  0
VISUALSTYLE
  5
30
102
{ACAD_REACTORS
330
2A
102
}
102
{ACAD_XDICTIONARY
360
4FF
102
}
330
2A
100
AcDbVisualStyle
  2
3dWireframe
 70
     5
 71
     0
 72
     2
 73
     0
 90
        0
 40
0.6
 41
30.0
 62
     5
 63
     7
421
 16777215
 74
     1
 91
        4
 64
     7
 65
   257
 75
     1
175
     1
 42
1.0
 92
        0
 66
   257
 43
1.0
 76
     1
 77
     6
 78
     2
 67
     7
 79
     5
170
     0
171
     0
290
     0
174
     0
 93
        1
 44
0.0
173
     0
291
     0
 45
0.0
1001
ACAD
1000
AcDbSavedByObjectVersion
1070
     0
  0
VISUALSTYLE
  5
32
102
{ACAD_REACTORS
330
2A
102
}
102
{ACAD_XDICTIONARY
360
503
102
}
330
2A
100
AcDbVisualStyle
  2
Basic
 70
     7
 71
     1
 72
     0
 73
     1
 90
        0
 40
0.6
 41
30.0
 62
     5
 63
     7
421
 16777215
 74
     0
 91
        4
 64
     7
 65
   257
 75
     1
175
     1
 42
1.0
 92
        8
 66
     7
 43
1.0
 76
     1
 77
     6
 78
     2
 67
     7
 79
     5
170
     0
171
     0
290
     0
174
     0
 93
        1
 44
0.0
173
     0
291
     1
 45
0.0
1001
ACAD
1000
AcDbSavedByObjectVersion
1070
     0
  0
VISUALSTYLE
  5
36
102
{ACAD_REACTORS
330
2A
102
}
102
{ACAD_XDICTIONARY
360
50B
102
}
330
2A
100
AcDbVisualStyle
  2
Brighten
 70
    12
 71
     2
 72
     2
 73
     0
 90
        0
 40
0.6
 41
30.0
 62
     5
 63
     7
421
 16777215
 74
     1
 91
        4
 64
     7
 65
   257
 75
     1
175
     1
 42
1.0
 92
        8
 66
     7
 43
1.0
 76
     1
 77
     6
 78
     2
 67
     7
 79
     5
170
     0
171
     0
290
     0
174
     0
 93
        1
 44
50.0
173
     0
291
     1
 45
0.0
1001
ACAD
1000
AcDbSavedByObjectVersion
1070
     0
  0
VISUALSTYLE
  5
3A
102
{ACAD_REACTORS
330
2A
102
}
102
{ACAD_XDICTIONARY
360
513
102
}
330
2A
100
AcDbVisualStyle
  2
ColorChange
 70
    16
 71
     2
 72
     2
 73
     3
 90
        0
 40
0.6
 41
30.0
 62
     5
 63
     8
421
  8421504
 74
     1
 91
        4
 64
     7
 65
   257
 75
     1
175
     1
 42
1.0
 92
        8
 66
     8
424
  8421504
 43
1.0
 76
     1
 77
     6
 78
     2
 67
     7
 79
     5
170
     0
171
     0
290
     0
174
     0
 93
        1
 44
0.0
173
     0
291
     1
 45
0.0
1001
ACAD
1000
AcDbSavedByObjectVersion
1070
     0
  0
VISUALSTYLE
  5
34
102
{ACAD_REACTORS
330
2A
102
}
102
{ACAD_XDICTIONARY
360
507
102
}
330
2A
100
AcDbVisualStyle
  2
Conceptual
 70
     9
 71
     3
 72
     2
 73
     0
 90
        0
 40
0.6
 41
30.0
 62
     5
 63
     7
421
 16777215
 74
     2
 91
        2
 64
     7
 65
   257
 75
     1
175
     1
 42
40.0
 92
        8
 66
     7
 43
1.0
 76
     1
 77
     6
 78
     2
 67
     7
 79
     3
170
     0
171
     0
290
     0
174
     0
 93
        1
 44
0.0
173
     0
291
     0
 45
0.0
1001
ACAD
1000
AcDbSavedByObjectVersion
1070
     0
  0
VISUALSTYLE
  5
35
102
{ACAD_REACTORS
330
2A
102
}
102
{ACAD_XDICTIONARY
360
509
102
}
330
2A
100
AcDbVisualStyle
  2
Dim
 70
    11
 71
     2
 72
     2
 73
     0
 90
        0
 40
0.6
 41
30.0
 62
     5
 63
     7
421
 16777215
 74
     1
 91
        4
 64
     7
 65
   257
 75
     1
175
     1
 42
1.0
 92
        8
 66
     7
 43
1.0
 76
     1
 77
     6
 78
     2
 67
     7
 79
     5
170
     0
171
     0
290
     0
174
     0
 93
        1
 44
-50.0
173
     0
291
     1
 45
0.0
1001
ACAD
1000
AcDbSavedByObjectVersion
1070
     0
  0
VISUALSTYLE
  5
39
102
{ACAD_REACTORS
330
2A
102
}
102
{ACAD_XDICTIONARY
360
511
102
}
330
2A
100
AcDbVisualStyle
  2
Facepattern
 70
    15
 71
     2
 72
     2
 73
     0
 90
        0
 40
0.6
 41
30.0
 62
     5
 63
     7
421
 16777215
 74
     1
 91
        4
 64
     7
 65
   257
 75
     1
175
     1
 42
1.0
 92
        8
 66
     7
 43
1.0
 76
     1
 77
     6
 78
     2
 67
     7
 79
     5
170
     0
171
     0
290
     0
174
     0
 93
        1
 44
0.0
173
     0
291
     1
 45
0.0
1001
ACAD
1000
AcDbSavedByObjectVersion
1070
     0
  0
VISUALSTYLE
  5
2B
102
{ACAD_REACTORS
330
2A
102
}
102
{ACAD_XDICTIONARY
360
4F5
102
}
330
2A
100
AcDbVisualStyle
  2
Flat
 70
     0
 71
     2
 72
     1
 73
     1
 90
        2
 40
0.6
 41
30.0
 62
     5
 63
     7
421
 16777215
 74
     0
 91
        4
 64
     7
 65
   257
 75
     1
175
     1
 42
1.0
 92
        8
 66
     7
 43
1.0
 76
     1
 77
     6
 78
     2
 67
     7
 79
     5
170
     0
171
     0
290
     0
174
     0
 93
       13
 44
0.0
173
     0
291
     1
 45
0.0
1001
ACAD
1000
AcDbSavedByObjectVersion
1070
     0
  0
VISUALSTYLE
  5
2C
102
{ACAD_REACTORS
330
2A
102
}
102
{ACAD_XDICTIONARY
360
4F7
102
}
330
2A
100
AcDbVisualStyle
  2
FlatWithEdges
 70
     1
 71
     2
 72
     1
 73
     1
 90
        2
 40
0.6
 41
30.0
 62
     5
 63
     7
421
 16777215
 74
     1
 91
        4
 64
     7
 65
   257
 75
     1
175
     1
 42
1.0
 92
        0
 66
   257
 43
1.0
 76
     1
 77
     6
 78
     2
 67
     7
 79
     5
170
     0
171
     0
290
     0
174
     0
 93
       13
 44
0.0
173
     0
291
     1
 45
0.0
1001
ACAD
1000
AcDbSavedByObjectVersion
1070
     0
  0
VISUALSTYLE
  5
2D
102
{ACAD_REACTORS
330
2A
102
}
102
{ACAD_XDICTIONARY
360
4F9
102
}
330
2A
100
AcDbVisualStyle
  2
Gouraud
 70
     2
 71
     2
 72
     2
 73
     1
 90
        2
 40
0.6
 41
30.0
 62
     5
 63
     7
421
 16777215
 74
     0
 91
        4
 64
     7
 65
   257
 75
     1
175
     1
 42
1.0
 92
        0
 66
     7
 43
1.0
 76
     1
 77
     6
 78
     2
 67
     7
 79
     5
170
     0
171
     0
290
     0
174
     0
 93
       13
 44
0.0
173
     0
291
     1
 45
0.0
1001
ACAD
1000
AcDbSavedByObjectVersion
1070
     0
  0
VISUALSTYLE
  5
2E
102
{ACAD_REACTORS
330
2A
102
}
102
{ACAD_XDICTIONARY
360
4FB
102
}
330
2A
100
AcDbVisualStyle
  2
GouraudWithEdges
 70
     3
 71
     2
 72
     2
 73
     1
 90
        2
 40
0.6
 41
30.0
 62
     5
 63
     7
421
 16777215
 74
     1
 91
        4
 64
     7
 65
   257
 75
     1
175
     1
 42
1.0
 92
        0
 66
   257
 43
1.0
 76
     1
 77
     6
 78
     2
 67
     7
 79
     5
170
     0
171
     0
290
     0
174
     0
 93
       13
 44
0.0
173
     0
291
     1
 45
0.0
1001
ACAD
1000
AcDbSavedByObjectVersion
1070
     0
  0
VISUALSTYLE
  5
38
102
{ACAD_REACTORS
330
2A
102
}
102
{ACAD_XDICTIONARY
360
50F
102
}
330
2A
100
AcDbVisualStyle
  2
Linepattern
 70
    14
 71
     2
 72
     2
 73
     0
 90
        0
 40
0.6
 41
30.0
 62
     5
 63
     7
421
 16777215
 74
     1
 91
        4
 64
     7
 65
   257
 75
     7
175
     7
 42
1.0
 92
        8
 66
     7
 43
1.0
 76
     1
 77
     6
 78
     2
 67
     7
 79
     5
170
     0
171
     0
290
     0
174
     0
 93
        1
 44
0.0
173
     0
291
     1
 45
0.0
1001
ACAD
1000
AcDbSavedByObjectVersion
1070
     0
  0
VISUALSTYLE
  5
33
102
{ACAD_REACTORS
330
2A
102
}
102
{ACAD_XDICTIONARY
360
505
102
}
330
2A
100
AcDbVisualStyle
  2
Realistic
 70
     8
 71
     2
 72
     3
 73
     0
 90
        2
 40
0.6
 41
30.0
 62
     5
 63
     7
421
 16777215
 74
     0
 91
        0
 64
     7
 65
   257
 75
     1
175
     1
 42
1.0
 92
        8
 66
   257
 43
1.0
 76
     1
 77
     6
 78
     2
 67
     7
 79
     3
170
     0
171
     0
290
     0
174
     0
 93
       13
 44
0.0
173
     0
291
     0
 45
0.0
1001
ACAD
1000
AcDbSavedByObjectVersion
1070
     0
  0
VISUALSTYLE
  5
37
102
{ACAD_REACTORS
330
2A
102
}
102
{ACAD_XDICTIONARY
360
50D
102
}
330
2A
100
AcDbVisualStyle
  2
Thicken
 70
    13
 71
     2
 72
     2
 73
     0
 90
        0
 40
0.6
 41
30.0
 62
     5
 63
     7
421
 16777215
 74
     1
 91
        4
 64
     7
 65
   257
 75
     1
175
     1
 42
1.0
 92
       12
 66
     7
 43
1.0
 76
     1
 77
     6
 78
     2
 67
     7
 79
     5
170
     0
171
     0
290
     0
174
     0
 93
        1
 44
0.0
173
     0
291
     1
 45
0.0
1001
ACAD
1000
AcDbSavedByObjectVersion
1070
     0
  0
DICTIONARYVAR
  5
4F3
102
{ACAD_REACTORS
330
4F2
102
}
330
4F2
100
DictionaryVariables
280
     0
  1
1:1
  0
DICTIONARYVAR
  5
4F4
102
{ACAD_REACTORS
330
4F2
102
}
330
4F2
100
DictionaryVariables
280
     0
  1
1
  0
DICTIONARY
  5
517
330
3D
100
AcDbDictionary
280
     1
281
     1
  3
ACAD_XREC_ROUNDTRIP
360
518
  0
DICTIONARY
  5
515
330
3C
100
AcDbDictionary
280
     1
281
     1
  3
ACAD_XREC_ROUNDTRIP
360
516
  0
DICTIONARY
  5
519
330
3E
100
AcDbDictionary
280
     1
281
     1
  3
ACAD_XREC_ROUNDTRIP
360
51A
  0
DICTIONARY
  5
4FD
330
2F
100
AcDbDictionary
280
     1
281
     1
  3
ACAD_XREC_ROUNDTRIP
360
4FE
  0
DICTIONARY
  5
501
330
31
100
AcDbDictionary
280
     1
281
     1
  3
ACAD_XREC_ROUNDTRIP
360
502
  0
DICTIONARY
  5
4FF
330
30
100
AcDbDictionary
280
     1
281
     1
  3
ACAD_XREC_ROUNDTRIP
360
500
  0
DICTIONARY
  5
503
330
32
100
AcDbDictionary
280
     1
281
     1
  3
ACAD_XREC_ROUNDTRIP
360
504
  0
DICTIONARY
  5
50B
330
36
100
AcDbDictionary
280
     1
281
     1
  3
ACAD_XREC_ROUNDTRIP
360
50C
  0
DICTIONARY
  5
513
330
3A
100
AcDbDictionary
280
     1
281
     1
  3
ACAD_XREC_ROUNDTRIP
360
514
  0
DICTIONARY
  5
507
330
34
100
AcDbDictionary
280
     1
281
     1
  3
ACAD_XREC_ROUNDTRIP
360
508
  0
DICTIONARY
  5
509
330
35
100
AcDbDictionary
280
     1
281
     1
  3
ACAD_XREC_ROUNDTRIP
360
50A
  0
DICTIONARY
  5
511
330
39
100
AcDbDictionary
280
     1
281
     1
  3
ACAD_XREC_ROUNDTRIP
360
512
  0
DICTIONARY
  5
4F5
330
2B
100
AcDbDictionary
280
     1
281
     1
  3
ACAD_XREC_ROUNDTRIP
360
4F6
  0
DICTIONARY
  5
4F7
330
2C
100
AcDbDictionary
280
     1
281
     1
  3
ACAD_XREC_ROUNDTRIP
360
4F8
  0
DICTIONARY
  5
4F9
330
2D
100
AcDbDictionary
280
     1
281
     1
  3
ACAD_XREC_ROUNDTRIP
360
4FA
  0
DICTIONARY
  5
4FB
330
2E
100
AcDbDictionary
280
     1
281
     1
  3
ACAD_XREC_ROUNDTRIP
360
4FC
  0
DICTIONARY
  5
50F
330
38
100
AcDbDictionary
280
     1
281
     1
  3
ACAD_XREC_ROUNDTRIP
360
510
  0
DICTIONARY
  5
505
330
33
100
AcDbDictionary
280
     1
281
     1
  3
ACAD_XREC_ROUNDTRIP
360
506
  0
DICTIONARY
  5
50D
330
37
100
AcDbDictionary
280
     1
281
     1
  3
ACAD_XREC_ROUNDTRIP
360
50E
  0
XRECORD
  5
518
102
{ACAD_REACTORS
330
517
102
}
330
517
100
AcDbXrecord
280
     1
102
MATERIAL
148
0.0
149
0.0
149
0.0
 93
        0
 94
      127
282
     0
 72
     1
 77
     1
171
     1
175
     1
179
     1
273
     0
  0
XRECORD
  5
516
102
{ACAD_REACTORS
330
515
102
}
330
515
100
AcDbXrecord
280
     1
102
MATERIAL
148
0.0
149
0.0
149
0.0
 93
        0
 94
      127
282
     0
 72
     1
 77
     1
171
     1
175
     1
179
     1
273
     0
  0
XRECORD
  5
51A
102
{ACAD_REACTORS
330
519
102
}
330
519
100
AcDbXrecord
280
     1
102
MATERIAL
148
0.0
149
0.0
149
0.0
 93
        0
 94
      127
282
     0
 72
     1
 77
     1
171
     1
175
     1
179
     1
273
     0
  0
XRECORD
  5
4FE
102
{ACAD_REACTORS
330
4FD
102
}
330
4FD
100
AcDbXrecord
280
     1
102
RTVSPropertyOp0
 70
     1
102
RTVSPropertyOp1
 70
     1
102
RTVSPropertyOp2
 70
     1
102
RTVSPropertyOp3
 70
     1
102
RTVSPropertyOp4
 70
     1
102
RTVSPropertyOp5
 70
     1
102
RTVSPropertyOp6
 70
     1
102
RTVSPropertyOp7
 70
     1
102
RTVSPropertyOp8
 70
     1
102
RTVSPropertyOp9
 70
     1
102
RTVSPropertyOp10
 70
     1
102
RTVSPropertyOp11
 70
     1
102
RTVSPropertyOp12
 70
     1
102
RTVSPropertyOp13
 70
     1
102
RTVSPropertyOp14
 70
     1
102
RTVSPropertyOp15
 70
     1
102
RTVSPropertyOp16
 70
     1
102
RTVSPropertyOp17
 70
     1
102
RTVSPropertyOp18
 70
     1
102
RTVSPropertyOp19
 70
     1
102
RTVSPropertyOp20
 70
     1
102
RTVSPropertyOp21
 70
     1
102
RTVSPropertyOp22
 70
     1
102
RTVSPropertyOp23
 70
     1
102
RTVSPropertyOp24
 70
     1
102
RTVSPropertyOp25
 70
     1
102
RTVSPropertyOp26
 70
     1
102
RTVSPropertyOp27
 70
     1
102
RTVSPropertyOp28
 70
     1
102
RTVSPropertyOp29
 70
     1
102
RTVSPropertyOp30
 70
     1
102
RTVSPropertyOp31
 70
     1
102
RTVSPropertyOp32
 70
     1
102
RTVSPropertyOp33
 70
     1
102
RTVSPropertyOp34
 70
     1
102
RTVSPropertyOp35
 70
     1
102
RTVSPropertyOp36
 70
     1
102
RTVSPropertyOp37
 70
     1
102
RTVSPropertyOp38
 70
     1
102
RTVSPropertyOp39
 70
     1
102
RTVSPropertyOp40
 70
     1
102
RTVSPropertyOp41
 70
     1
102
RTVSPropertyOp42
 70
     1
102
RTVSPropertyOp43
 70
     1
102
RTVSPropertyOp44
 70
     1
102
RTVSPropertyOp45
 70
     1
102
RTVSPropertyOp46
 70
     1
102
RTVSPropertyOp47
 70
     1
102
RTVSPropertyOp48
 70
     1
102
RTVSPropertyOp49
 70
     1
102
RTVSPropertyOp50
 70
     1
102
RTVSPropertyOp51
 70
     0
102
RTVSPropertyOp52
 70
     0
102
RTVSPropertyOp53
 70
     1
102
RTVSPropertyOp54
 70
     1
102
RTVSPropertyOp55
 70
     1
102
RTVSPropertyOp56
 70
     1
102
RTVSPropertyOp57
 70
     1
102
RTVSPost2010Prop28
280
     1
102
RTVSPost2010PropOp28
 70
     1
102
RTVSPost2010Prop29
280
     1
102
RTVSPost2010PropOp29
 70
     1
102
RTVSPost2010Prop30
280
     0
102
RTVSPost2010PropOp30
 70
     1
102
RTVSPost2010Prop31
280
     0
102
RTVSPost2010PropOp31
 70
     1
102
RTVSPost2010Prop32
280
     0
102
RTVSPost2010PropOp32
 70
     1
102
RTVSPost2010Prop33
280
     0
102
RTVSPost2010PropOp33
 70
     1
102
RTVSPost2010Prop34
280
     0
102
RTVSPost2010PropOp34
 70
     1
102
RTVSPost2010Prop35
280
     0
102
RTVSPost2010PropOp35
 70
     1
102
RTVSPost2010Prop36
280
     0
102
RTVSPost2010PropOp36
 70
     1
102
RTVSPost2010Prop37
 90
       50
102
RTVSPost2010PropOp37
 70
     1
102
RTVSPost2010Prop38
140
0.0
102
RTVSPost2010PropOp38
 70
     1
102
RTVSPost2010Prop39
140
1.0
102
RTVSPost2010PropOp39
 70
     1
102
RTVSPost2010Prop40
 90
        0
102
RTVSPost2010PropOp40
 70
     1
102
RTVSPost2010Prop41ColorIndex
 90
       18
102
RTVSPost2010Prop41ColorRGB
 90
        0
102
RTVSPost2010PropOp41
 70
     1
102
RTVSPost2010Prop42
 90
       50
102
RTVSPost2010PropOp42
 70
     1
102
RTVSPost2010Prop43
 90
        3
102
RTVSPost2010PropOp43
 70
     1
102
RTVSPost2010Prop44ColorIndex
 90
        5
102
RTVSPost2010Prop44ColorRGB
 90
      255
102
RTVSPost2010PropOp44
 70
     1
102
RTVSPost2010Prop45
280
     0
102
RTVSPost2010PropOp45
 70
     1
102
RTVSPost2010Prop46
 90
       50
102
RTVSPost2010PropOp46
 70
     1
102
RTVSPost2010Prop47
 90
       50
102
RTVSPost2010PropOp47
 70
     1
102
RTVSPost2010Prop48
 90
       50
102
RTVSPost2010PropOp48
 70
     1
102
RTVSPost2010Prop49
280
     0
102
RTVSPost2010PropOp49
 70
     1
102
RTVSPost2010Prop50
 90
       50
102
RTVSPost2010PropOp50
 70
     1
102
RTVSPost2010Prop51ColorIndex
 90
      256
102
RTVSPost2010Prop51ColorRGB
 90
-16777216
102
RTVSPost2010PropOp51
 70
     0
102
RTVSPost2010Prop52
140
1.0
102
RTVSPost2010PropOp52
 70
     0
102
RTVSPost2010Prop53
 90
        2
102
RTVSPost2010PropOp53
 70
     1
102
RTVSPost2010Prop54
  1
strokes_ogs.tif
102
RTVSPost2010PropOp54
 70
     1
102
RTVSPost2010Prop55
280
     0
102
RTVSPost2010PropOp55
 70
     1
102
RTVSPost2010Prop56
140
1.0
102
RTVSPost2010PropOp56
 70
     1
102
RTVSPost2010Prop57
140
1.0
102
RTVSPost2010PropOp57
 70
     1
  0
XRECORD
  5
502
102
{ACAD_REACTORS
330
501
102
}
330
501
100
AcDbXrecord
280
     1
102
RTVSPropertyOp0
 70
     1
102
RTVSPropertyOp1
 70
     1
102
RTVSPropertyOp2
 70
     1
102
RTVSPropertyOp3
 70
     1
102
RTVSPropertyOp4
 70
     1
102
RTVSPropertyOp5
 70
     1
102
RTVSPropertyOp6
 70
     1
102
RTVSPropertyOp7
 70
     1
102
RTVSPropertyOp8
 70
     1
102
RTVSPropertyOp9
 70
     1
102
RTVSPropertyOp10
 70
     1
102
RTVSPropertyOp11
 70
     1
102
RTVSPropertyOp12
 70
     1
102
RTVSPropertyOp13
 70
     1
102
RTVSPropertyOp14
 70
     1
102
RTVSPropertyOp15
 70
     1
102
RTVSPropertyOp16
 70
     1
102
RTVSPropertyOp17
 70
     1
102
RTVSPropertyOp18
 70
     1
102
RTVSPropertyOp19
 70
     1
102
RTVSPropertyOp20
 70
     1
102
RTVSPropertyOp21
 70
     1
102
RTVSPropertyOp22
 70
     1
102
RTVSPropertyOp23
 70
     1
102
RTVSPropertyOp24
 70
     1
102
RTVSPropertyOp25
 70
     1
102
RTVSPropertyOp26
 70
     1
102
RTVSPropertyOp27
 70
     1
102
RTVSPropertyOp28
 70
     1
102
RTVSPropertyOp29
 70
     1
102
RTVSPropertyOp30
 70
     1
102
RTVSPropertyOp31
 70
     1
102
RTVSPropertyOp32
 70
     1
102
RTVSPropertyOp33
 70
     1
102
RTVSPropertyOp34
 70
     1
102
RTVSPropertyOp35
 70
     1
102
RTVSPropertyOp36
 70
     1
102
RTVSPropertyOp37
 70
     1
102
RTVSPropertyOp38
 70
     1
102
RTVSPropertyOp39
 70
     1
102
RTVSPropertyOp40
 70
     1
102
RTVSPropertyOp41
 70
     1
102
RTVSPropertyOp42
 70
     1
102
RTVSPropertyOp43
 70
     1
102
RTVSPropertyOp44
 70
     1
102
RTVSPropertyOp45
 70
     1
102
RTVSPropertyOp46
 70
     1
102
RTVSPropertyOp47
 70
     1
102
RTVSPropertyOp48
 70
     1
102
RTVSPropertyOp49
 70
     1
102
RTVSPropertyOp50
 70
     1
102
RTVSPropertyOp51
 70
     0
102
RTVSPropertyOp52
 70
     0
102
RTVSPropertyOp53
 70
     1
102
RTVSPropertyOp54
 70
     1
102
RTVSPropertyOp55
 70
     1
102
RTVSPropertyOp56
 70
     1
102
RTVSPropertyOp57
 70
     1
102
RTVSPost2010Prop28
280
     0
102
RTVSPost2010PropOp28
 70
     1
102
RTVSPost2010Prop29
280
     1
102
RTVSPost2010PropOp29
 70
     1
102
RTVSPost2010Prop30
280
     1
102
RTVSPost2010PropOp30
 70
     1
102
RTVSPost2010Prop31
280
     0
102
RTVSPost2010PropOp31
 70
     1
102
RTVSPost2010Prop32
280
     0
102
RTVSPost2010PropOp32
 70
     1
102
RTVSPost2010Prop33
280
     0
102
RTVSPost2010PropOp33
 70
     1
102
RTVSPost2010Prop34
280
     0
102
RTVSPost2010PropOp34
 70
     1
102
RTVSPost2010Prop35
280
     0
102
RTVSPost2010PropOp35
 70
     1
102
RTVSPost2010Prop36
280
     0
102
RTVSPost2010PropOp36
 70
     1
102
RTVSPost2010Prop37
 90
       50
102
RTVSPost2010PropOp37
 70
     1
102
RTVSPost2010Prop38
140
0.0
102
RTVSPost2010PropOp38
 70
     1
102
RTVSPost2010Prop39
140
1.0
102
RTVSPost2010PropOp39
 70
     1
102
RTVSPost2010Prop40
 90
        0
102
RTVSPost2010PropOp40
 70
     1
102
RTVSPost2010Prop41ColorIndex
 90
       18
102
RTVSPost2010Prop41ColorRGB
 90
        0
102
RTVSPost2010PropOp41
 70
     1
102
RTVSPost2010Prop42
 90
       50
102
RTVSPost2010PropOp42
 70
     1
102
RTVSPost2010Prop43
 90
        3
102
RTVSPost2010PropOp43
 70
     1
102
RTVSPost2010Prop44ColorIndex
 90
        5
102
RTVSPost2010Prop44ColorRGB
 90
      255
102
RTVSPost2010PropOp44
 70
     1
102
RTVSPost2010Prop45
280
     0
102
RTVSPost2010PropOp45
 70
     1
102
RTVSPost2010Prop46
 90
       50
102
RTVSPost2010PropOp46
 70
     1
102
RTVSPost2010Prop47
 90
       50
102
RTVSPost2010PropOp47
 70
     1
102
RTVSPost2010Prop48
 90
       50
102
RTVSPost2010PropOp48
 70
     1
102
RTVSPost2010Prop49
280
     0
102
RTVSPost2010PropOp49
 70
     1
102
RTVSPost2010Prop50
 90
       50
102
RTVSPost2010PropOp50
 70
     1
102
RTVSPost2010Prop51ColorIndex
 90
      256
102
RTVSPost2010Prop51ColorRGB
 90
-16777216
102
RTVSPost2010PropOp51
 70
     0
102
RTVSPost2010Prop52
140
1.0
102
RTVSPost2010PropOp52
 70
     0
102
RTVSPost2010Prop53
 90
        2
102
RTVSPost2010PropOp53
 70
     1
102
RTVSPost2010Prop54
  1
strokes_ogs.tif
102
RTVSPost2010PropOp54
 70
     1
102
RTVSPost2010Prop55
280
     0
102
RTVSPost2010PropOp55
 70
     1
102
RTVSPost2010Prop56
140
1.0
102
RTVSPost2010PropOp56
 70
     1
102
RTVSPost2010Prop57
140
1.0
102
RTVSPost2010PropOp57
 70
     1
  0
XRECORD
  5
500
102
{ACAD_REACTORS
330
4FF
102
}
330
4FF
100
AcDbXrecord
280
     1
102
RTVSPropertyOp0
 70
     1
102
RTVSPropertyOp1
 70
     1
102
RTVSPropertyOp2
 70
     1
102
RTVSPropertyOp3
 70
     1
102
RTVSPropertyOp4
 70
     1
102
RTVSPropertyOp5
 70
     1
102
RTVSPropertyOp6
 70
     1
102
RTVSPropertyOp7
 70
     1
102
RTVSPropertyOp8
 70
     1
102
RTVSPropertyOp9
 70
     1
102
RTVSPropertyOp10
 70
     1
102
RTVSPropertyOp11
 70
     1
102
RTVSPropertyOp12
 70
     1
102
RTVSPropertyOp13
 70
     1
102
RTVSPropertyOp14
 70
     1
102
RTVSPropertyOp15
 70
     1
102
RTVSPropertyOp16
 70
     1
102
RTVSPropertyOp17
 70
     1
102
RTVSPropertyOp18
 70
     1
102
RTVSPropertyOp19
 70
     1
102
RTVSPropertyOp20
 70
     1
102
RTVSPropertyOp21
 70
     1
102
RTVSPropertyOp22
 70
     1
102
RTVSPropertyOp23
 70
     1
102
RTVSPropertyOp24
 70
     1
102
RTVSPropertyOp25
 70
     1
102
RTVSPropertyOp26
 70
     1
102
RTVSPropertyOp27
 70
     1
102
RTVSPropertyOp28
 70
     1
102
RTVSPropertyOp29
 70
     1
102
RTVSPropertyOp30
 70
     1
102
RTVSPropertyOp31
 70
     1
102
RTVSPropertyOp32
 70
     1
102
RTVSPropertyOp33
 70
     1
102
RTVSPropertyOp34
 70
     1
102
RTVSPropertyOp35
 70
     1
102
RTVSPropertyOp36
 70
     1
102
RTVSPropertyOp37
 70
     1
102
RTVSPropertyOp38
 70
     1
102
RTVSPropertyOp39
 70
     1
102
RTVSPropertyOp40
 70
     1
102
RTVSPropertyOp41
 70
     1
102
RTVSPropertyOp42
 70
     1
102
RTVSPropertyOp43
 70
     1
102
RTVSPropertyOp44
 70
     1
102
RTVSPropertyOp45
 70
     1
102
RTVSPropertyOp46
 70
     1
102
RTVSPropertyOp47
 70
     1
102
RTVSPropertyOp48
 70
     1
102
RTVSPropertyOp49
 70
     1
102
RTVSPropertyOp50
 70
     1
102
RTVSPropertyOp51
 70
     0
102
RTVSPropertyOp52
 70
     0
102
RTVSPropertyOp53
 70
     1
102
RTVSPropertyOp54
 70
     1
102
RTVSPropertyOp55
 70
     1
102
RTVSPropertyOp56
 70
     1
102
RTVSPropertyOp57
 70
     1
102
RTVSPost2010Prop28
280
     0
102
RTVSPost2010PropOp28
 70
     1
102
RTVSPost2010Prop29
280
     1
102
RTVSPost2010PropOp29
 70
     1
102
RTVSPost2010Prop30
280
     1
102
RTVSPost2010PropOp30
 70
     1
102
RTVSPost2010Prop31
280
     0
102
RTVSPost2010PropOp31
 70
     1
102
RTVSPost2010Prop32
280
     0
102
RTVSPost2010PropOp32
 70
     1
102
RTVSPost2010Prop33
280
     0
102
RTVSPost2010PropOp33
 70
     1
102
RTVSPost2010Prop34
280
     0
102
RTVSPost2010PropOp34
 70
     1
102
RTVSPost2010Prop35
280
     0
102
RTVSPost2010PropOp35
 70
     1
102
RTVSPost2010Prop36
280
     0
102
RTVSPost2010PropOp36
 70
     1
102
RTVSPost2010Prop37
 90
       50
102
RTVSPost2010PropOp37
 70
     1
102
RTVSPost2010Prop38
140
0.0
102
RTVSPost2010PropOp38
 70
     1
102
RTVSPost2010Prop39
140
1.0
102
RTVSPost2010PropOp39
 70
     1
102
RTVSPost2010Prop40
 90
        0
102
RTVSPost2010PropOp40
 70
     1
102
RTVSPost2010Prop41ColorIndex
 90
       18
102
RTVSPost2010Prop41ColorRGB
 90
        0
102
RTVSPost2010PropOp41
 70
     1
102
RTVSPost2010Prop42
 90
       50
102
RTVSPost2010PropOp42
 70
     1
102
RTVSPost2010Prop43
 90
        3
102
RTVSPost2010PropOp43
 70
     1
102
RTVSPost2010Prop44ColorIndex
 90
        5
102
RTVSPost2010Prop44ColorRGB
 90
      255
102
RTVSPost2010PropOp44
 70
     1
102
RTVSPost2010Prop45
280
     0
102
RTVSPost2010PropOp45
 70
     1
102
RTVSPost2010Prop46
 90
       50
102
RTVSPost2010PropOp46
 70
     1
102
RTVSPost2010Prop47
 90
       50
102
RTVSPost2010PropOp47
 70
     1
102
RTVSPost2010Prop48
 90
       50
102
RTVSPost2010PropOp48
 70
     1
102
RTVSPost2010Prop49
280
     0
102
RTVSPost2010PropOp49
 70
     1
102
RTVSPost2010Prop50
 90
       50
102
RTVSPost2010PropOp50
 70
     1
102
RTVSPost2010Prop51ColorIndex
 90
      256
102
RTVSPost2010Prop51ColorRGB
 90
-16777216
102
RTVSPost2010PropOp51
 70
     0
102
RTVSPost2010Prop52
140
1.0
102
RTVSPost2010PropOp52
 70
     0
102
RTVSPost2010Prop53
 90
        2
102
RTVSPost2010PropOp53
 70
     1
102
RTVSPost2010Prop54
  1
strokes_ogs.tif
102
RTVSPost2010PropOp54
 70
     1
102
RTVSPost2010Prop55
280
     0
102
RTVSPost2010PropOp55
 70
     1
102
RTVSPost2010Prop56
140
1.0
102
RTVSPost2010PropOp56
 70
     1
102
RTVSPost2010Prop57
140
1.0
102
RTVSPost2010PropOp57
 70
     1
  0
XRECORD
  5
504
102
{ACAD_REACTORS
330
503
102
}
330
503
100
AcDbXrecord
280
     1
102
RTVSPropertyOp0
 70
     1
102
RTVSPropertyOp1
 70
     1
102
RTVSPropertyOp2
 70
     1
102
RTVSPropertyOp3
 70
     1
102
RTVSPropertyOp4
 70
     1
102
RTVSPropertyOp5
 70
     1
102
RTVSPropertyOp6
 70
     1
102
RTVSPropertyOp7
 70
     1
102
RTVSPropertyOp8
 70
     1
102
RTVSPropertyOp9
 70
     1
102
RTVSPropertyOp10
 70
     1
102
RTVSPropertyOp11
 70
     1
102
RTVSPropertyOp12
 70
     1
102
RTVSPropertyOp13
 70
     1
102
RTVSPropertyOp14
 70
     1
102
RTVSPropertyOp15
 70
     1
102
RTVSPropertyOp16
 70
     1
102
RTVSPropertyOp17
 70
     1
102
RTVSPropertyOp18
 70
     1
102
RTVSPropertyOp19
 70
     1
102
RTVSPropertyOp20
 70
     1
102
RTVSPropertyOp21
 70
     1
102
RTVSPropertyOp22
 70
     1
102
RTVSPropertyOp23
 70
     1
102
RTVSPropertyOp24
 70
     1
102
RTVSPropertyOp25
 70
     1
102
RTVSPropertyOp26
 70
     1
102
RTVSPropertyOp27
 70
     1
102
RTVSPropertyOp28
 70
     1
102
RTVSPropertyOp29
 70
     1
102
RTVSPropertyOp30
 70
     1
102
RTVSPropertyOp31
 70
     1
102
RTVSPropertyOp32
 70
     1
102
RTVSPropertyOp33
 70
     1
102
RTVSPropertyOp34
 70
     1
102
RTVSPropertyOp35
 70
     1
102
RTVSPropertyOp36
 70
     1
102
RTVSPropertyOp37
 70
     1
102
RTVSPropertyOp38
 70
     1
102
RTVSPropertyOp39
 70
     1
102
RTVSPropertyOp40
 70
     1
102
RTVSPropertyOp41
 70
     1
102
RTVSPropertyOp42
 70
     1
102
RTVSPropertyOp43
 70
     1
102
RTVSPropertyOp44
 70
     1
102
RTVSPropertyOp45
 70
     1
102
RTVSPropertyOp46
 70
     1
102
RTVSPropertyOp47
 70
     1
102
RTVSPropertyOp48
 70
     1
102
RTVSPropertyOp49
 70
     1
102
RTVSPropertyOp50
 70
     1
102
RTVSPropertyOp51
 70
     0
102
RTVSPropertyOp52
 70
     0
102
RTVSPropertyOp53
 70
     1
102
RTVSPropertyOp54
 70
     1
102
RTVSPropertyOp55
 70
     1
102
RTVSPropertyOp56
 70
     1
102
RTVSPropertyOp57
 70
     1
102
RTVSPost2010Prop28
280
     0
102
RTVSPost2010PropOp28
 70
     1
102
RTVSPost2010Prop29
280
     1
102
RTVSPost2010PropOp29
 70
     1
102
RTVSPost2010Prop30
280
     1
102
RTVSPost2010PropOp30
 70
     1
102
RTVSPost2010Prop31
280
     0
102
RTVSPost2010PropOp31
 70
     1
102
RTVSPost2010Prop32
280
     0
102
RTVSPost2010PropOp32
 70
     1
102
RTVSPost2010Prop33
280
     0
102
RTVSPost2010PropOp33
 70
     1
102
RTVSPost2010Prop34
280
     0
102
RTVSPost2010PropOp34
 70
     1
102
RTVSPost2010Prop35
280
     0
102
RTVSPost2010PropOp35
 70
     1
102
RTVSPost2010Prop36
280
     0
102
RTVSPost2010PropOp36
 70
     1
102
RTVSPost2010Prop37
 90
       50
102
RTVSPost2010PropOp37
 70
     1
102
RTVSPost2010Prop38
140
0.0
102
RTVSPost2010PropOp38
 70
     1
102
RTVSPost2010Prop39
140
1.0
102
RTVSPost2010PropOp39
 70
     1
102
RTVSPost2010Prop40
 90
        0
102
RTVSPost2010PropOp40
 70
     1
102
RTVSPost2010Prop41ColorIndex
 90
       18
102
RTVSPost2010Prop41ColorRGB
 90
        0
102
RTVSPost2010PropOp41
 70
     1
102
RTVSPost2010Prop42
 90
       50
102
RTVSPost2010PropOp42
 70
     1
102
RTVSPost2010Prop43
 90
        3
102
RTVSPost2010PropOp43
 70
     1
102
RTVSPost2010Prop44ColorIndex
 90
        5
102
RTVSPost2010Prop44ColorRGB
 90
      255
102
RTVSPost2010PropOp44
 70
     1
102
RTVSPost2010Prop45
280
     0
102
RTVSPost2010PropOp45
 70
     1
102
RTVSPost2010Prop46
 90
       50
102
RTVSPost2010PropOp46
 70
     1
102
RTVSPost2010Prop47
 90
       50
102
RTVSPost2010PropOp47
 70
     1
102
RTVSPost2010Prop48
 90
       50
102
RTVSPost2010PropOp48
 70
     1
102
RTVSPost2010Prop49
280
     0
102
RTVSPost2010PropOp49
 70
     1
102
RTVSPost2010Prop50
 90
       50
102
RTVSPost2010PropOp50
 70
     1
102
RTVSPost2010Prop51ColorIndex
 90
      256
102
RTVSPost2010Prop51ColorRGB
 90
-16777216
102
RTVSPost2010PropOp51
 70
     0
102
RTVSPost2010Prop52
140
1.0
102
RTVSPost2010PropOp52
 70
     0
102
RTVSPost2010Prop53
 90
        2
102
RTVSPost2010PropOp53
 70
     1
102
RTVSPost2010Prop54
  1
strokes_ogs.tif
102
RTVSPost2010PropOp54
 70
     1
102
RTVSPost2010Prop55
280
     0
102
RTVSPost2010PropOp55
 70
     1
102
RTVSPost2010Prop56
140
1.0
102
RTVSPost2010PropOp56
 70
     1
102
RTVSPost2010Prop57
140
1.0
102
RTVSPost2010PropOp57
 70
     1
  0
XRECORD
  5
50C
102
{ACAD_REACTORS
330
50B
102
}
330
50B
100
AcDbXrecord
280
     1
102
RTVSPropertyOp0
 70
     1
102
RTVSPropertyOp1
 70
     1
102
RTVSPropertyOp2
 70
     1
102
RTVSPropertyOp3
 70
     1
102
RTVSPropertyOp4
 70
     1
102
RTVSPropertyOp5
 70
     1
102
RTVSPropertyOp6
 70
     1
102
RTVSPropertyOp7
 70
     1
102
RTVSPropertyOp8
 70
     1
102
RTVSPropertyOp9
 70
     1
102
RTVSPropertyOp10
 70
     1
102
RTVSPropertyOp11
 70
     1
102
RTVSPropertyOp12
 70
     1
102
RTVSPropertyOp13
 70
     1
102
RTVSPropertyOp14
 70
     1
102
RTVSPropertyOp15
 70
     1
102
RTVSPropertyOp16
 70
     1
102
RTVSPropertyOp17
 70
     1
102
RTVSPropertyOp18
 70
     1
102
RTVSPropertyOp19
 70
     1
102
RTVSPropertyOp20
 70
     1
102
RTVSPropertyOp21
 70
     1
102
RTVSPropertyOp22
 70
     1
102
RTVSPropertyOp23
 70
     1
102
RTVSPropertyOp24
 70
     1
102
RTVSPropertyOp25
 70
     1
102
RTVSPropertyOp26
 70
     1
102
RTVSPropertyOp27
 70
     1
102
RTVSPropertyOp28
 70
     1
102
RTVSPropertyOp29
 70
     1
102
RTVSPropertyOp30
 70
     1
102
RTVSPropertyOp31
 70
     1
102
RTVSPropertyOp32
 70
     1
102
RTVSPropertyOp33
 70
     1
102
RTVSPropertyOp34
 70
     1
102
RTVSPropertyOp35
 70
     1
102
RTVSPropertyOp36
 70
     1
102
RTVSPropertyOp37
 70
     1
102
RTVSPropertyOp38
 70
     1
102
RTVSPropertyOp39
 70
     1
102
RTVSPropertyOp40
 70
     1
102
RTVSPropertyOp41
 70
     1
102
RTVSPropertyOp42
 70
     1
102
RTVSPropertyOp43
 70
     1
102
RTVSPropertyOp44
 70
     1
102
RTVSPropertyOp45
 70
     1
102
RTVSPropertyOp46
 70
     1
102
RTVSPropertyOp47
 70
     1
102
RTVSPropertyOp48
 70
     1
102
RTVSPropertyOp49
 70
     1
102
RTVSPropertyOp50
 70
     1
102
RTVSPropertyOp51
 70
     0
102
RTVSPropertyOp52
 70
     0
102
RTVSPropertyOp53
 70
     1
102
RTVSPropertyOp54
 70
     1
102
RTVSPropertyOp55
 70
     1
102
RTVSPropertyOp56
 70
     1
102
RTVSPropertyOp57
 70
     1
102
RTVSPost2010Prop28
280
     0
102
RTVSPost2010PropOp28
 70
     1
102
RTVSPost2010Prop29
280
     1
102
RTVSPost2010PropOp29
 70
     1
102
RTVSPost2010Prop30
280
     1
102
RTVSPost2010PropOp30
 70
     1
102
RTVSPost2010Prop31
280
     0
102
RTVSPost2010PropOp31
 70
     1
102
RTVSPost2010Prop32
280
     0
102
RTVSPost2010PropOp32
 70
     1
102
RTVSPost2010Prop33
280
     0
102
RTVSPost2010PropOp33
 70
     1
102
RTVSPost2010Prop34
280
     0
102
RTVSPost2010PropOp34
 70
     1
102
RTVSPost2010Prop35
280
     0
102
RTVSPost2010PropOp35
 70
     1
102
RTVSPost2010Prop36
280
     0
102
RTVSPost2010PropOp36
 70
     1
102
RTVSPost2010Prop37
 90
       50
102
RTVSPost2010PropOp37
 70
     1
102
RTVSPost2010Prop38
140
0.0
102
RTVSPost2010PropOp38
 70
     1
102
RTVSPost2010Prop39
140
1.0
102
RTVSPost2010PropOp39
 70
     1
102
RTVSPost2010Prop40
 90
        0
102
RTVSPost2010PropOp40
 70
     1
102
RTVSPost2010Prop41ColorIndex
 90
       18
102
RTVSPost2010Prop41ColorRGB
 90
        0
102
RTVSPost2010PropOp41
 70
     1
102
RTVSPost2010Prop42
 90
       50
102
RTVSPost2010PropOp42
 70
     1
102
RTVSPost2010Prop43
 90
        3
102
RTVSPost2010PropOp43
 70
     1
102
RTVSPost2010Prop44ColorIndex
 90
        5
102
RTVSPost2010Prop44ColorRGB
 90
      255
102
RTVSPost2010PropOp44
 70
     1
102
RTVSPost2010Prop45
280
     0
102
RTVSPost2010PropOp45
 70
     1
102
RTVSPost2010Prop46
 90
       50
102
RTVSPost2010PropOp46
 70
     1
102
RTVSPost2010Prop47
 90
       50
102
RTVSPost2010PropOp47
 70
     1
102
RTVSPost2010Prop48
 90
       50
102
RTVSPost2010PropOp48
 70
     1
102
RTVSPost2010Prop49
280
     0
102
RTVSPost2010PropOp49
 70
     1
102
RTVSPost2010Prop50
 90
       50
102
RTVSPost2010PropOp50
 70
     1
102
RTVSPost2010Prop51ColorIndex
 90
      256
102
RTVSPost2010Prop51ColorRGB
 90
-16777216
102
RTVSPost2010PropOp51
 70
     0
102
RTVSPost2010Prop52
140
1.0
102
RTVSPost2010PropOp52
 70
     0
102
RTVSPost2010Prop53
 90
        2
102
RTVSPost2010PropOp53
 70
     1
102
RTVSPost2010Prop54
  1
strokes_ogs.tif
102
RTVSPost2010PropOp54
 70
     1
102
RTVSPost2010Prop55
280
     0
102
RTVSPost2010PropOp55
 70
     1
102
RTVSPost2010Prop56
140
1.0
102
RTVSPost2010PropOp56
 70
     1
102
RTVSPost2010Prop57
140
1.0
102
RTVSPost2010PropOp57
 70
     1
  0
XRECORD
  5
514
102
{ACAD_REACTORS
330
513
102
}
330
513
100
AcDbXrecord
280
     1
102
RTVSPropertyOp0
 70
     1
102
RTVSPropertyOp1
 70
     1
102
RTVSPropertyOp2
 70
     1
102
RTVSPropertyOp3
 70
     1
102
RTVSPropertyOp4
 70
     1
102
RTVSPropertyOp5
 70
     1
102
RTVSPropertyOp6
 70
     1
102
RTVSPropertyOp7
 70
     1
102
RTVSPropertyOp8
 70
     1
102
RTVSPropertyOp9
 70
     1
102
RTVSPropertyOp10
 70
     1
102
RTVSPropertyOp11
 70
     1
102
RTVSPropertyOp12
 70
     1
102
RTVSPropertyOp13
 70
     1
102
RTVSPropertyOp14
 70
     1
102
RTVSPropertyOp15
 70
     1
102
RTVSPropertyOp16
 70
     1
102
RTVSPropertyOp17
 70
     1
102
RTVSPropertyOp18
 70
     1
102
RTVSPropertyOp19
 70
     1
102
RTVSPropertyOp20
 70
     1
102
RTVSPropertyOp21
 70
     1
102
RTVSPropertyOp22
 70
     1
102
RTVSPropertyOp23
 70
     1
102
RTVSPropertyOp24
 70
     1
102
RTVSPropertyOp25
 70
     1
102
RTVSPropertyOp26
 70
     1
102
RTVSPropertyOp27
 70
     1
102
RTVSPropertyOp28
 70
     1
102
RTVSPropertyOp29
 70
     1
102
RTVSPropertyOp30
 70
     1
102
RTVSPropertyOp31
 70
     1
102
RTVSPropertyOp32
 70
     1
102
RTVSPropertyOp33
 70
     1
102
RTVSPropertyOp34
 70
     1
102
RTVSPropertyOp35
 70
     1
102
RTVSPropertyOp36
 70
     1
102
RTVSPropertyOp37
 70
     1
102
RTVSPropertyOp38
 70
     1
102
RTVSPropertyOp39
 70
     1
102
RTVSPropertyOp40
 70
     1
102
RTVSPropertyOp41
 70
     1
102
RTVSPropertyOp42
 70
     1
102
RTVSPropertyOp43
 70
     1
102
RTVSPropertyOp44
 70
     1
102
RTVSPropertyOp45
 70
     1
102
RTVSPropertyOp46
 70
     1
102
RTVSPropertyOp47
 70
     1
102
RTVSPropertyOp48
 70
     1
102
RTVSPropertyOp49
 70
     1
102
RTVSPropertyOp50
 70
     1
102
RTVSPropertyOp51
 70
     0
102
RTVSPropertyOp52
 70
     0
102
RTVSPropertyOp53
 70
     1
102
RTVSPropertyOp54
 70
     1
102
RTVSPropertyOp55
 70
     1
102
RTVSPropertyOp56
 70
     1
102
RTVSPropertyOp57
 70
     1
102
RTVSPost2010Prop28
280
     0
102
RTVSPost2010PropOp28
 70
     1
102
RTVSPost2010Prop29
280
     1
102
RTVSPost2010PropOp29
 70
     1
102
RTVSPost2010Prop30
280
     1
102
RTVSPost2010PropOp30
 70
     1
102
RTVSPost2010Prop31
280
     0
102
RTVSPost2010PropOp31
 70
     1
102
RTVSPost2010Prop32
280
     0
102
RTVSPost2010PropOp32
 70
     1
102
RTVSPost2010Prop33
280
     0
102
RTVSPost2010PropOp33
 70
     1
102
RTVSPost2010Prop34
280
     0
102
RTVSPost2010PropOp34
 70
     1
102
RTVSPost2010Prop35
280
     0
102
RTVSPost2010PropOp35
 70
     1
102
RTVSPost2010Prop36
280
     0
102
RTVSPost2010PropOp36
 70
     1
102
RTVSPost2010Prop37
 90
       50
102
RTVSPost2010PropOp37
 70
     1
102
RTVSPost2010Prop38
140
0.0
102
RTVSPost2010PropOp38
 70
     1
102
RTVSPost2010Prop39
140
1.0
102
RTVSPost2010PropOp39
 70
     1
102
RTVSPost2010Prop40
 90
        0
102
RTVSPost2010PropOp40
 70
     1
102
RTVSPost2010Prop41ColorIndex
 90
       18
102
RTVSPost2010Prop41ColorRGB
 90
        0
102
RTVSPost2010PropOp41
 70
     1
102
RTVSPost2010Prop42
 90
       50
102
RTVSPost2010PropOp42
 70
     1
102
RTVSPost2010Prop43
 90
        3
102
RTVSPost2010PropOp43
 70
     1
102
RTVSPost2010Prop44ColorIndex
 90
        5
102
RTVSPost2010Prop44ColorRGB
 90
      255
102
RTVSPost2010PropOp44
 70
     1
102
RTVSPost2010Prop45
280
     0
102
RTVSPost2010PropOp45
 70
     1
102
RTVSPost2010Prop46
 90
       50
102
RTVSPost2010PropOp46
 70
     1
102
RTVSPost2010Prop47
 90
       50
102
RTVSPost2010PropOp47
 70
     1
102
RTVSPost2010Prop48
 90
       50
102
RTVSPost2010PropOp48
 70
     1
102
RTVSPost2010Prop49
280
     0
102
RTVSPost2010PropOp49
 70
     1
102
RTVSPost2010Prop50
 90
       50
102
RTVSPost2010PropOp50
 70
     1
102
RTVSPost2010Prop51ColorIndex
 90
      256
102
RTVSPost2010Prop51ColorRGB
 90
-16777216
102
RTVSPost2010PropOp51
 70
     0
102
RTVSPost2010Prop52
140
1.0
102
RTVSPost2010PropOp52
 70
     0
102
RTVSPost2010Prop53
 90
        2
102
RTVSPost2010PropOp53
 70
     1
102
RTVSPost2010Prop54
  1
strokes_ogs.tif
102
RTVSPost2010PropOp54
 70
     1
102
RTVSPost2010Prop55
280
     0
102
RTVSPost2010PropOp55
 70
     1
102
RTVSPost2010Prop56
140
1.0
102
RTVSPost2010PropOp56
 70
     1
102
RTVSPost2010Prop57
140
1.0
102
RTVSPost2010PropOp57
 70
     1
  0
XRECORD
  5
508
102
{ACAD_REACTORS
330
507
102
}
330
507
100
AcDbXrecord
280
     1
102
RTVSPropertyOp0
 70
     1
102
RTVSPropertyOp1
 70
     1
102
RTVSPropertyOp2
 70
     1
102
RTVSPropertyOp3
 70
     1
102
RTVSPropertyOp4
 70
     1
102
RTVSPropertyOp5
 70
     1
102
RTVSPropertyOp6
 70
     1
102
RTVSPropertyOp7
 70
     1
102
RTVSPropertyOp8
 70
     1
102
RTVSPropertyOp9
 70
     1
102
RTVSPropertyOp10
 70
     1
102
RTVSPropertyOp11
 70
     1
102
RTVSPropertyOp12
 70
     1
102
RTVSPropertyOp13
 70
     1
102
RTVSPropertyOp14
 70
     1
102
RTVSPropertyOp15
 70
     1
102
RTVSPropertyOp16
 70
     1
102
RTVSPropertyOp17
 70
     1
102
RTVSPropertyOp18
 70
     1
102
RTVSPropertyOp19
 70
     1
102
RTVSPropertyOp20
 70
     1
102
RTVSPropertyOp21
 70
     1
102
RTVSPropertyOp22
 70
     1
102
RTVSPropertyOp23
 70
     1
102
RTVSPropertyOp24
 70
     1
102
RTVSPropertyOp25
 70
     1
102
RTVSPropertyOp26
 70
     1
102
RTVSPropertyOp27
 70
     1
102
RTVSPropertyOp28
 70
     1
102
RTVSPropertyOp29
 70
     1
102
RTVSPropertyOp30
 70
     1
102
RTVSPropertyOp31
 70
     1
102
RTVSPropertyOp32
 70
     1
102
RTVSPropertyOp33
 70
     1
102
RTVSPropertyOp34
 70
     1
102
RTVSPropertyOp35
 70
     1
102
RTVSPropertyOp36
 70
     1
102
RTVSPropertyOp37
 70
     1
102
RTVSPropertyOp38
 70
     1
102
RTVSPropertyOp39
 70
     1
102
RTVSPropertyOp40
 70
     1
102
RTVSPropertyOp41
 70
     1
102
RTVSPropertyOp42
 70
     1
102
RTVSPropertyOp43
 70
     1
102
RTVSPropertyOp44
 70
     1
102
RTVSPropertyOp45
 70
     1
102
RTVSPropertyOp46
 70
     1
102
RTVSPropertyOp47
 70
     1
102
RTVSPropertyOp48
 70
     1
102
RTVSPropertyOp49
 70
     1
102
RTVSPropertyOp50
 70
     1
102
RTVSPropertyOp51
 70
     0
102
RTVSPropertyOp52
 70
     0
102
RTVSPropertyOp53
 70
     1
102
RTVSPropertyOp54
 70
     1
102
RTVSPropertyOp55
 70
     1
102
RTVSPropertyOp56
 70
     1
102
RTVSPropertyOp57
 70
     1
102
RTVSPost2010Prop28
280
     0
102
RTVSPost2010PropOp28
 70
     1
102
RTVSPost2010Prop29
280
     1
102
RTVSPost2010PropOp29
 70
     1
102
RTVSPost2010Prop30
280
     1
102
RTVSPost2010PropOp30
 70
     1
102
RTVSPost2010Prop31
280
     0
102
RTVSPost2010PropOp31
 70
     1
102
RTVSPost2010Prop32
280
     0
102
RTVSPost2010PropOp32
 70
     1
102
RTVSPost2010Prop33
280
     0
102
RTVSPost2010PropOp33
 70
     1
102
RTVSPost2010Prop34
280
     0
102
RTVSPost2010PropOp34
 70
     1
102
RTVSPost2010Prop35
280
     0
102
RTVSPost2010PropOp35
 70
     1
102
RTVSPost2010Prop36
280
     0
102
RTVSPost2010PropOp36
 70
     1
102
RTVSPost2010Prop37
 90
       50
102
RTVSPost2010PropOp37
 70
     1
102
RTVSPost2010Prop38
140
0.0
102
RTVSPost2010PropOp38
 70
     1
102
RTVSPost2010Prop39
140
1.0
102
RTVSPost2010PropOp39
 70
     1
102
RTVSPost2010Prop40
 90
        0
102
RTVSPost2010PropOp40
 70
     1
102
RTVSPost2010Prop41ColorIndex
 90
       18
102
RTVSPost2010Prop41ColorRGB
 90
        0
102
RTVSPost2010PropOp41
 70
     1
102
RTVSPost2010Prop42
 90
       50
102
RTVSPost2010PropOp42
 70
     1
102
RTVSPost2010Prop43
 90
        3
102
RTVSPost2010PropOp43
 70
     1
102
RTVSPost2010Prop44ColorIndex
 90
        5
102
RTVSPost2010Prop44ColorRGB
 90
      255
102
RTVSPost2010PropOp44
 70
     1
102
RTVSPost2010Prop45
280
     0
102
RTVSPost2010PropOp45
 70
     1
102
RTVSPost2010Prop46
 90
       50
102
RTVSPost2010PropOp46
 70
     1
102
RTVSPost2010Prop47
 90
       50
102
RTVSPost2010PropOp47
 70
     1
102
RTVSPost2010Prop48
 90
       50
102
RTVSPost2010PropOp48
 70
     1
102
RTVSPost2010Prop49
280
     0
102
RTVSPost2010PropOp49
 70
     1
102
RTVSPost2010Prop50
 90
       50
102
RTVSPost2010PropOp50
 70
     1
102
RTVSPost2010Prop51ColorIndex
 90
      256
102
RTVSPost2010Prop51ColorRGB
 90
-16777216
102
RTVSPost2010PropOp51
 70
     0
102
RTVSPost2010Prop52
140
1.0
102
RTVSPost2010PropOp52
 70
     0
102
RTVSPost2010Prop53
 90
        2
102
RTVSPost2010PropOp53
 70
     1
102
RTVSPost2010Prop54
  1
strokes_ogs.tif
102
RTVSPost2010PropOp54
 70
     1
102
RTVSPost2010Prop55
280
     0
102
RTVSPost2010PropOp55
 70
     1
102
RTVSPost2010Prop56
140
1.0
102
RTVSPost2010PropOp56
 70
     1
102
RTVSPost2010Prop57
140
1.0
102
RTVSPost2010PropOp57
 70
     1
  0
XRECORD
  5
50A
102
{ACAD_REACTORS
330
509
102
}
330
509
100
AcDbXrecord
280
     1
102
RTVSPropertyOp0
 70
     1
102
RTVSPropertyOp1
 70
     1
102
RTVSPropertyOp2
 70
     1
102
RTVSPropertyOp3
 70
     1
102
RTVSPropertyOp4
 70
     1
102
RTVSPropertyOp5
 70
     1
102
RTVSPropertyOp6
 70
     1
102
RTVSPropertyOp7
 70
     1
102
RTVSPropertyOp8
 70
     1
102
RTVSPropertyOp9
 70
     1
102
RTVSPropertyOp10
 70
     1
102
RTVSPropertyOp11
 70
     1
102
RTVSPropertyOp12
 70
     1
102
RTVSPropertyOp13
 70
     1
102
RTVSPropertyOp14
 70
     1
102
RTVSPropertyOp15
 70
     1
102
RTVSPropertyOp16
 70
     1
102
RTVSPropertyOp17
 70
     1
102
RTVSPropertyOp18
 70
     1
102
RTVSPropertyOp19
 70
     1
102
RTVSPropertyOp20
 70
     1
102
RTVSPropertyOp21
 70
     1
102
RTVSPropertyOp22
 70
     1
102
RTVSPropertyOp23
 70
     1
102
RTVSPropertyOp24
 70
     1
102
RTVSPropertyOp25
 70
     1
102
RTVSPropertyOp26
 70
     1
102
RTVSPropertyOp27
 70
     1
102
RTVSPropertyOp28
 70
     1
102
RTVSPropertyOp29
 70
     1
102
RTVSPropertyOp30
 70
     1
102
RTVSPropertyOp31
 70
     1
102
RTVSPropertyOp32
 70
     1
102
RTVSPropertyOp33
 70
     1
102
RTVSPropertyOp34
 70
     1
102
RTVSPropertyOp35
 70
     1
102
RTVSPropertyOp36
 70
     1
102
RTVSPropertyOp37
 70
     1
102
RTVSPropertyOp38
 70
     1
102
RTVSPropertyOp39
 70
     1
102
RTVSPropertyOp40
 70
     1
102
RTVSPropertyOp41
 70
     1
102
RTVSPropertyOp42
 70
     1
102
RTVSPropertyOp43
 70
     1
102
RTVSPropertyOp44
 70
     1
102
RTVSPropertyOp45
 70
     1
102
RTVSPropertyOp46
 70
     1
102
RTVSPropertyOp47
 70
     1
102
RTVSPropertyOp48
 70
     1
102
RTVSPropertyOp49
 70
     1
102
RTVSPropertyOp50
 70
     1
102
RTVSPropertyOp51
 70
     0
102
RTVSPropertyOp52
 70
     0
102
RTVSPropertyOp53
 70
     1
102
RTVSPropertyOp54
 70
     1
102
RTVSPropertyOp55
 70
     1
102
RTVSPropertyOp56
 70
     1
102
RTVSPropertyOp57
 70
     1
102
RTVSPost2010Prop28
280
     0
102
RTVSPost2010PropOp28
 70
     1
102
RTVSPost2010Prop29
280
     1
102
RTVSPost2010PropOp29
 70
     1
102
RTVSPost2010Prop30
280
     1
102
RTVSPost2010PropOp30
 70
     1
102
RTVSPost2010Prop31
280
     0
102
RTVSPost2010PropOp31
 70
     1
102
RTVSPost2010Prop32
280
     0
102
RTVSPost2010PropOp32
 70
     1
102
RTVSPost2010Prop33
280
     0
102
RTVSPost2010PropOp33
 70
     1
102
RTVSPost2010Prop34
280
     0
102
RTVSPost2010PropOp34
 70
     1
102
RTVSPost2010Prop35
280
     0
102
RTVSPost2010PropOp35
 70
     1
102
RTVSPost2010Prop36
280
     0
102
RTVSPost2010PropOp36
 70
     1
102
RTVSPost2010Prop37
 90
       50
102
RTVSPost2010PropOp37
 70
     1
102
RTVSPost2010Prop38
140
0.0
102
RTVSPost2010PropOp38
 70
     1
102
RTVSPost2010Prop39
140
1.0
102
RTVSPost2010PropOp39
 70
     1
102
RTVSPost2010Prop40
 90
        0
102
RTVSPost2010PropOp40
 70
     1
102
RTVSPost2010Prop41ColorIndex
 90
       18
102
RTVSPost2010Prop41ColorRGB
 90
        0
102
RTVSPost2010PropOp41
 70
     1
102
RTVSPost2010Prop42
 90
       50
102
RTVSPost2010PropOp42
 70
     1
102
RTVSPost2010Prop43
 90
        3
102
RTVSPost2010PropOp43
 70
     1
102
RTVSPost2010Prop44ColorIndex
 90
        5
102
RTVSPost2010Prop44ColorRGB
 90
      255
102
RTVSPost2010PropOp44
 70
     1
102
RTVSPost2010Prop45
280
     0
102
RTVSPost2010PropOp45
 70
     1
102
RTVSPost2010Prop46
 90
       50
102
RTVSPost2010PropOp46
 70
     1
102
RTVSPost2010Prop47
 90
       50
102
RTVSPost2010PropOp47
 70
     1
102
RTVSPost2010Prop48
 90
       50
102
RTVSPost2010PropOp48
 70
     1
102
RTVSPost2010Prop49
280
     0
102
RTVSPost2010PropOp49
 70
     1
102
RTVSPost2010Prop50
 90
       50
102
RTVSPost2010PropOp50
 70
     1
102
RTVSPost2010Prop51ColorIndex
 90
      256
102
RTVSPost2010Prop51ColorRGB
 90
-16777216
102
RTVSPost2010PropOp51
 70
     0
102
RTVSPost2010Prop52
140
1.0
102
RTVSPost2010PropOp52
 70
     0
102
RTVSPost2010Prop53
 90
        2
102
RTVSPost2010PropOp53
 70
     1
102
RTVSPost2010Prop54
  1
strokes_ogs.tif
102
RTVSPost2010PropOp54
 70
     1
102
RTVSPost2010Prop55
280
     0
102
RTVSPost2010PropOp55
 70
     1
102
RTVSPost2010Prop56
140
1.0
102
RTVSPost2010PropOp56
 70
     1
102
RTVSPost2010Prop57
140
1.0
102
RTVSPost2010PropOp57
 70
     1
  0
XRECORD
  5
512
102
{ACAD_REACTORS
330
511
102
}
330
511
100
AcDbXrecord
280
     1
102
RTVSPropertyOp0
 70
     1
102
RTVSPropertyOp1
 70
     1
102
RTVSPropertyOp2
 70
     1
102
RTVSPropertyOp3
 70
     1
102
RTVSPropertyOp4
 70
     1
102
RTVSPropertyOp5
 70
     1
102
RTVSPropertyOp6
 70
     1
102
RTVSPropertyOp7
 70
     1
102
RTVSPropertyOp8
 70
     1
102
RTVSPropertyOp9
 70
     1
102
RTVSPropertyOp10
 70
     1
102
RTVSPropertyOp11
 70
     1
102
RTVSPropertyOp12
 70
     1
102
RTVSPropertyOp13
 70
     1
102
RTVSPropertyOp14
 70
     1
102
RTVSPropertyOp15
 70
     1
102
RTVSPropertyOp16
 70
     1
102
RTVSPropertyOp17
 70
     1
102
RTVSPropertyOp18
 70
     1
102
RTVSPropertyOp19
 70
     1
102
RTVSPropertyOp20
 70
     1
102
RTVSPropertyOp21
 70
     1
102
RTVSPropertyOp22
 70
     1
102
RTVSPropertyOp23
 70
     1
102
RTVSPropertyOp24
 70
     1
102
RTVSPropertyOp25
 70
     1
102
RTVSPropertyOp26
 70
     1
102
RTVSPropertyOp27
 70
     1
102
RTVSPropertyOp28
 70
     1
102
RTVSPropertyOp29
 70
     1
102
RTVSPropertyOp30
 70
     1
102
RTVSPropertyOp31
 70
     1
102
RTVSPropertyOp32
 70
     1
102
RTVSPropertyOp33
 70
     1
102
RTVSPropertyOp34
 70
     1
102
RTVSPropertyOp35
 70
     1
102
RTVSPropertyOp36
 70
     1
102
RTVSPropertyOp37
 70
     1
102
RTVSPropertyOp38
 70
     1
102
RTVSPropertyOp39
 70
     1
102
RTVSPropertyOp40
 70
     1
102
RTVSPropertyOp41
 70
     1
102
RTVSPropertyOp42
 70
     1
102
RTVSPropertyOp43
 70
     1
102
RTVSPropertyOp44
 70
     1
102
RTVSPropertyOp45
 70
     1
102
RTVSPropertyOp46
 70
     1
102
RTVSPropertyOp47
 70
     1
102
RTVSPropertyOp48
 70
     1
102
RTVSPropertyOp49
 70
     1
102
RTVSPropertyOp50
 70
     1
102
RTVSPropertyOp51
 70
     0
102
RTVSPropertyOp52
 70
     0
102
RTVSPropertyOp53
 70
     1
102
RTVSPropertyOp54
 70
     1
102
RTVSPropertyOp55
 70
     1
102
RTVSPropertyOp56
 70
     1
102
RTVSPropertyOp57
 70
     1
102
RTVSPost2010Prop28
280
     0
102
RTVSPost2010PropOp28
 70
     1
102
RTVSPost2010Prop29
280
     1
102
RTVSPost2010PropOp29
 70
     1
102
RTVSPost2010Prop30
280
     1
102
RTVSPost2010PropOp30
 70
     1
102
RTVSPost2010Prop31
280
     0
102
RTVSPost2010PropOp31
 70
     1
102
RTVSPost2010Prop32
280
     0
102
RTVSPost2010PropOp32
 70
     1
102
RTVSPost2010Prop33
280
     0
102
RTVSPost2010PropOp33
 70
     1
102
RTVSPost2010Prop34
280
     0
102
RTVSPost2010PropOp34
 70
     1
102
RTVSPost2010Prop35
280
     0
102
RTVSPost2010PropOp35
 70
     1
102
RTVSPost2010Prop36
280
     0
102
RTVSPost2010PropOp36
 70
     1
102
RTVSPost2010Prop37
 90
       50
102
RTVSPost2010PropOp37
 70
     1
102
RTVSPost2010Prop38
140
0.0
102
RTVSPost2010PropOp38
 70
     1
102
RTVSPost2010Prop39
140
1.0
102
RTVSPost2010PropOp39
 70
     1
102
RTVSPost2010Prop40
 90
        0
102
RTVSPost2010PropOp40
 70
     1
102
RTVSPost2010Prop41ColorIndex
 90
       18
102
RTVSPost2010Prop41ColorRGB
 90
        0
102
RTVSPost2010PropOp41
 70
     1
102
RTVSPost2010Prop42
 90
       50
102
RTVSPost2010PropOp42
 70
     1
102
RTVSPost2010Prop43
 90
        3
102
RTVSPost2010PropOp43
 70
     1
102
RTVSPost2010Prop44ColorIndex
 90
        5
102
RTVSPost2010Prop44ColorRGB
 90
      255
102
RTVSPost2010PropOp44
 70
     1
102
RTVSPost2010Prop45
280
     0
102
RTVSPost2010PropOp45
 70
     1
102
RTVSPost2010Prop46
 90
       50
102
RTVSPost2010PropOp46
 70
     1
102
RTVSPost2010Prop47
 90
       50
102
RTVSPost2010PropOp47
 70
     1
102
RTVSPost2010Prop48
 90
       50
102
RTVSPost2010PropOp48
 70
     1
102
RTVSPost2010Prop49
280
     0
102
RTVSPost2010PropOp49
 70
     1
102
RTVSPost2010Prop50
 90
       50
102
RTVSPost2010PropOp50
 70
     1
102
RTVSPost2010Prop51ColorIndex
 90
      256
102
RTVSPost2010Prop51ColorRGB
 90
-16777216
102
RTVSPost2010PropOp51
 70
     0
102
RTVSPost2010Prop52
140
1.0
102
RTVSPost2010PropOp52
 70
     0
102
RTVSPost2010Prop53
 90
        2
102
RTVSPost2010PropOp53
 70
     1
102
RTVSPost2010Prop54
  1
strokes_ogs.tif
102
RTVSPost2010PropOp54
 70
     1
102
RTVSPost2010Prop55
280
     0
102
RTVSPost2010PropOp55
 70
     1
102
RTVSPost2010Prop56
140
1.0
102
RTVSPost2010PropOp56
 70
     1
102
RTVSPost2010Prop57
140
1.0
102
RTVSPost2010PropOp57
 70
     1
  0
XRECORD
  5
4F6
102
{ACAD_REACTORS
330
4F5
102
}
330
4F5
100
AcDbXrecord
280
     1
102
RTVSPropertyOp0
 70
     1
102
RTVSPropertyOp1
 70
     1
102
RTVSPropertyOp2
 70
     1
102
RTVSPropertyOp3
 70
     1
102
RTVSPropertyOp4
 70
     1
102
RTVSPropertyOp5
 70
     1
102
RTVSPropertyOp6
 70
     1
102
RTVSPropertyOp7
 70
     1
102
RTVSPropertyOp8
 70
     1
102
RTVSPropertyOp9
 70
     1
102
RTVSPropertyOp10
 70
     1
102
RTVSPropertyOp11
 70
     1
102
RTVSPropertyOp12
 70
     1
102
RTVSPropertyOp13
 70
     1
102
RTVSPropertyOp14
 70
     1
102
RTVSPropertyOp15
 70
     1
102
RTVSPropertyOp16
 70
     1
102
RTVSPropertyOp17
 70
     1
102
RTVSPropertyOp18
 70
     1
102
RTVSPropertyOp19
 70
     1
102
RTVSPropertyOp20
 70
     1
102
RTVSPropertyOp21
 70
     1
102
RTVSPropertyOp22
 70
     1
102
RTVSPropertyOp23
 70
     1
102
RTVSPropertyOp24
 70
     1
102
RTVSPropertyOp25
 70
     1
102
RTVSPropertyOp26
 70
     1
102
RTVSPropertyOp27
 70
     1
102
RTVSPropertyOp28
 70
     1
102
RTVSPropertyOp29
 70
     1
102
RTVSPropertyOp30
 70
     1
102
RTVSPropertyOp31
 70
     1
102
RTVSPropertyOp32
 70
     1
102
RTVSPropertyOp33
 70
     1
102
RTVSPropertyOp34
 70
     1
102
RTVSPropertyOp35
 70
     1
102
RTVSPropertyOp36
 70
     1
102
RTVSPropertyOp37
 70
     1
102
RTVSPropertyOp38
 70
     1
102
RTVSPropertyOp39
 70
     1
102
RTVSPropertyOp40
 70
     1
102
RTVSPropertyOp41
 70
     1
102
RTVSPropertyOp42
 70
     1
102
RTVSPropertyOp43
 70
     1
102
RTVSPropertyOp44
 70
     1
102
RTVSPropertyOp45
 70
     1
102
RTVSPropertyOp46
 70
     1
102
RTVSPropertyOp47
 70
     1
102
RTVSPropertyOp48
 70
     1
102
RTVSPropertyOp49
 70
     1
102
RTVSPropertyOp50
 70
     1
102
RTVSPropertyOp51
 70
     0
102
RTVSPropertyOp52
 70
     0
102
RTVSPropertyOp53
 70
     1
102
RTVSPropertyOp54
 70
     1
102
RTVSPropertyOp55
 70
     1
102
RTVSPropertyOp56
 70
     1
102
RTVSPropertyOp57
 70
     1
102
RTVSPost2010Prop28
280
     0
102
RTVSPost2010PropOp28
 70
     1
102
RTVSPost2010Prop29
280
     1
102
RTVSPost2010PropOp29
 70
     1
102
RTVSPost2010Prop30
280
     1
102
RTVSPost2010PropOp30
 70
     1
102
RTVSPost2010Prop31
280
     0
102
RTVSPost2010PropOp31
 70
     1
102
RTVSPost2010Prop32
280
     0
102
RTVSPost2010PropOp32
 70
     1
102
RTVSPost2010Prop33
280
     0
102
RTVSPost2010PropOp33
 70
     1
102
RTVSPost2010Prop34
280
     0
102
RTVSPost2010PropOp34
 70
     1
102
RTVSPost2010Prop35
280
     0
102
RTVSPost2010PropOp35
 70
     1
102
RTVSPost2010Prop36
280
     0
102
RTVSPost2010PropOp36
 70
     1
102
RTVSPost2010Prop37
 90
       50
102
RTVSPost2010PropOp37
 70
     1
102
RTVSPost2010Prop38
140
0.0
102
RTVSPost2010PropOp38
 70
     1
102
RTVSPost2010Prop39
140
1.0
102
RTVSPost2010PropOp39
 70
     1
102
RTVSPost2010Prop40
 90
        0
102
RTVSPost2010PropOp40
 70
     1
102
RTVSPost2010Prop41ColorIndex
 90
       18
102
RTVSPost2010Prop41ColorRGB
 90
        0
102
RTVSPost2010PropOp41
 70
     1
102
RTVSPost2010Prop42
 90
       50
102
RTVSPost2010PropOp42
 70
     1
102
RTVSPost2010Prop43
 90
        3
102
RTVSPost2010PropOp43
 70
     1
102
RTVSPost2010Prop44ColorIndex
 90
        5
102
RTVSPost2010Prop44ColorRGB
 90
      255
102
RTVSPost2010PropOp44
 70
     1
102
RTVSPost2010Prop45
280
     0
102
RTVSPost2010PropOp45
 70
     1
102
RTVSPost2010Prop46
 90
       50
102
RTVSPost2010PropOp46
 70
     1
102
RTVSPost2010Prop47
 90
       50
102
RTVSPost2010PropOp47
 70
     1
102
RTVSPost2010Prop48
 90
       50
102
RTVSPost2010PropOp48
 70
     1
102
RTVSPost2010Prop49
280
     0
102
RTVSPost2010PropOp49
 70
     1
102
RTVSPost2010Prop50
 90
       50
102
RTVSPost2010PropOp50
 70
     1
102
RTVSPost2010Prop51ColorIndex
 90
      256
102
RTVSPost2010Prop51ColorRGB
 90
-16777216
102
RTVSPost2010PropOp51
 70
     0
102
RTVSPost2010Prop52
140
1.0
102
RTVSPost2010PropOp52
 70
     0
102
RTVSPost2010Prop53
 90
        2
102
RTVSPost2010PropOp53
 70
     1
102
RTVSPost2010Prop54
  1
strokes_ogs.tif
102
RTVSPost2010PropOp54
 70
     1
102
RTVSPost2010Prop55
280
     0
102
RTVSPost2010PropOp55
 70
     1
102
RTVSPost2010Prop56
140
1.0
102
RTVSPost2010PropOp56
 70
     1
102
RTVSPost2010Prop57
140
1.0
102
RTVSPost2010PropOp57
 70
     1
  0
XRECORD
  5
4F8
102
{ACAD_REACTORS
330
4F7
102
}
330
4F7
100
AcDbXrecord
280
     1
102
RTVSPropertyOp0
 70
     1
102
RTVSPropertyOp1
 70
     1
102
RTVSPropertyOp2
 70
     1
102
RTVSPropertyOp3
 70
     1
102
RTVSPropertyOp4
 70
     1
102
RTVSPropertyOp5
 70
     1
102
RTVSPropertyOp6
 70
     1
102
RTVSPropertyOp7
 70
     1
102
RTVSPropertyOp8
 70
     1
102
RTVSPropertyOp9
 70
     1
102
RTVSPropertyOp10
 70
     1
102
RTVSPropertyOp11
 70
     1
102
RTVSPropertyOp12
 70
     1
102
RTVSPropertyOp13
 70
     1
102
RTVSPropertyOp14
 70
     1
102
RTVSPropertyOp15
 70
     1
102
RTVSPropertyOp16
 70
     1
102
RTVSPropertyOp17
 70
     1
102
RTVSPropertyOp18
 70
     1
102
RTVSPropertyOp19
 70
     1
102
RTVSPropertyOp20
 70
     1
102
RTVSPropertyOp21
 70
     1
102
RTVSPropertyOp22
 70
     1
102
RTVSPropertyOp23
 70
     1
102
RTVSPropertyOp24
 70
     1
102
RTVSPropertyOp25
 70
     1
102
RTVSPropertyOp26
 70
     1
102
RTVSPropertyOp27
 70
     1
102
RTVSPropertyOp28
 70
     1
102
RTVSPropertyOp29
 70
     1
102
RTVSPropertyOp30
 70
     1
102
RTVSPropertyOp31
 70
     1
102
RTVSPropertyOp32
 70
     1
102
RTVSPropertyOp33
 70
     1
102
RTVSPropertyOp34
 70
     1
102
RTVSPropertyOp35
 70
     1
102
RTVSPropertyOp36
 70
     1
102
RTVSPropertyOp37
 70
     1
102
RTVSPropertyOp38
 70
     1
102
RTVSPropertyOp39
 70
     1
102
RTVSPropertyOp40
 70
     1
102
RTVSPropertyOp41
 70
     1
102
RTVSPropertyOp42
 70
     1
102
RTVSPropertyOp43
 70
     1
102
RTVSPropertyOp44
 70
     1
102
RTVSPropertyOp45
 70
     1
102
RTVSPropertyOp46
 70
     1
102
RTVSPropertyOp47
 70
     1
102
RTVSPropertyOp48
 70
     1
102
RTVSPropertyOp49
 70
     1
102
RTVSPropertyOp50
 70
     1
102
RTVSPropertyOp51
 70
     0
102
RTVSPropertyOp52
 70
     0
102
RTVSPropertyOp53
 70
     1
102
RTVSPropertyOp54
 70
     1
102
RTVSPropertyOp55
 70
     1
102
RTVSPropertyOp56
 70
     1
102
RTVSPropertyOp57
 70
     1
102
RTVSPost2010Prop28
280
     0
102
RTVSPost2010PropOp28
 70
     1
102
RTVSPost2010Prop29
280
     1
102
RTVSPost2010PropOp29
 70
     1
102
RTVSPost2010Prop30
280
     1
102
RTVSPost2010PropOp30
 70
     1
102
RTVSPost2010Prop31
280
     0
102
RTVSPost2010PropOp31
 70
     1
102
RTVSPost2010Prop32
280
     0
102
RTVSPost2010PropOp32
 70
     1
102
RTVSPost2010Prop33
280
     0
102
RTVSPost2010PropOp33
 70
     1
102
RTVSPost2010Prop34
280
     0
102
RTVSPost2010PropOp34
 70
     1
102
RTVSPost2010Prop35
280
     0
102
RTVSPost2010PropOp35
 70
     1
102
RTVSPost2010Prop36
280
     0
102
RTVSPost2010PropOp36
 70
     1
102
RTVSPost2010Prop37
 90
       50
102
RTVSPost2010PropOp37
 70
     1
102
RTVSPost2010Prop38
140
0.0
102
RTVSPost2010PropOp38
 70
     1
102
RTVSPost2010Prop39
140
1.0
102
RTVSPost2010PropOp39
 70
     1
102
RTVSPost2010Prop40
 90
        0
102
RTVSPost2010PropOp40
 70
     1
102
RTVSPost2010Prop41ColorIndex
 90
       18
102
RTVSPost2010Prop41ColorRGB
 90
        0
102
RTVSPost2010PropOp41
 70
     1
102
RTVSPost2010Prop42
 90
       50
102
RTVSPost2010PropOp42
 70
     1
102
RTVSPost2010Prop43
 90
        3
102
RTVSPost2010PropOp43
 70
     1
102
RTVSPost2010Prop44ColorIndex
 90
        5
102
RTVSPost2010Prop44ColorRGB
 90
      255
102
RTVSPost2010PropOp44
 70
     1
102
RTVSPost2010Prop45
280
     0
102
RTVSPost2010PropOp45
 70
     1
102
RTVSPost2010Prop46
 90
       50
102
RTVSPost2010PropOp46
 70
     1
102
RTVSPost2010Prop47
 90
       50
102
RTVSPost2010PropOp47
 70
     1
102
RTVSPost2010Prop48
 90
       50
102
RTVSPost2010PropOp48
 70
     1
102
RTVSPost2010Prop49
280
     0
102
RTVSPost2010PropOp49
 70
     1
102
RTVSPost2010Prop50
 90
       50
102
RTVSPost2010PropOp50
 70
     1
102
RTVSPost2010Prop51ColorIndex
 90
      256
102
RTVSPost2010Prop51ColorRGB
 90
-16777216
102
RTVSPost2010PropOp51
 70
     0
102
RTVSPost2010Prop52
140
1.0
102
RTVSPost2010PropOp52
 70
     0
102
RTVSPost2010Prop53
 90
        2
102
RTVSPost2010PropOp53
 70
     1
102
RTVSPost2010Prop54
  1
strokes_ogs.tif
102
RTVSPost2010PropOp54
 70
     1
102
RTVSPost2010Prop55
280
     0
102
RTVSPost2010PropOp55
 70
     1
102
RTVSPost2010Prop56
140
1.0
102
RTVSPost2010PropOp56
 70
     1
102
RTVSPost2010Prop57
140
1.0
102
RTVSPost2010PropOp57
 70
     1
  0
XRECORD
  5
4FA
102
{ACAD_REACTORS
330
4F9
102
}
330
4F9
100
AcDbXrecord
280
     1
102
RTVSPropertyOp0
 70
     1
102
RTVSPropertyOp1
 70
     1
102
RTVSPropertyOp2
 70
     1
102
RTVSPropertyOp3
 70
     1
102
RTVSPropertyOp4
 70
     1
102
RTVSPropertyOp5
 70
     1
102
RTVSPropertyOp6
 70
     1
102
RTVSPropertyOp7
 70
     1
102
RTVSPropertyOp8
 70
     1
102
RTVSPropertyOp9
 70
     1
102
RTVSPropertyOp10
 70
     1
102
RTVSPropertyOp11
 70
     1
102
RTVSPropertyOp12
 70
     1
102
RTVSPropertyOp13
 70
     1
102
RTVSPropertyOp14
 70
     1
102
RTVSPropertyOp15
 70
     1
102
RTVSPropertyOp16
 70
     1
102
RTVSPropertyOp17
 70
     1
102
RTVSPropertyOp18
 70
     1
102
RTVSPropertyOp19
 70
     1
102
RTVSPropertyOp20
 70
     1
102
RTVSPropertyOp21
 70
     1
102
RTVSPropertyOp22
 70
     1
102
RTVSPropertyOp23
 70
     1
102
RTVSPropertyOp24
 70
     1
102
RTVSPropertyOp25
 70
     1
102
RTVSPropertyOp26
 70
     1
102
RTVSPropertyOp27
 70
     1
102
RTVSPropertyOp28
 70
     1
102
RTVSPropertyOp29
 70
     1
102
RTVSPropertyOp30
 70
     1
102
RTVSPropertyOp31
 70
     1
102
RTVSPropertyOp32
 70
     1
102
RTVSPropertyOp33
 70
     1
102
RTVSPropertyOp34
 70
     1
102
RTVSPropertyOp35
 70
     1
102
RTVSPropertyOp36
 70
     1
102
RTVSPropertyOp37
 70
     1
102
RTVSPropertyOp38
 70
     1
102
RTVSPropertyOp39
 70
     1
102
RTVSPropertyOp40
 70
     1
102
RTVSPropertyOp41
 70
     1
102
RTVSPropertyOp42
 70
     1
102
RTVSPropertyOp43
 70
     1
102
RTVSPropertyOp44
 70
     1
102
RTVSPropertyOp45
 70
     1
102
RTVSPropertyOp46
 70
     1
102
RTVSPropertyOp47
 70
     1
102
RTVSPropertyOp48
 70
     1
102
RTVSPropertyOp49
 70
     1
102
RTVSPropertyOp50
 70
     1
102
RTVSPropertyOp51
 70
     0
102
RTVSPropertyOp52
 70
     0
102
RTVSPropertyOp53
 70
     1
102
RTVSPropertyOp54
 70
     1
102
RTVSPropertyOp55
 70
     1
102
RTVSPropertyOp56
 70
     1
102
RTVSPropertyOp57
 70
     1
102
RTVSPost2010Prop28
280
     0
102
RTVSPost2010PropOp28
 70
     1
102
RTVSPost2010Prop29
280
     1
102
RTVSPost2010PropOp29
 70
     1
102
RTVSPost2010Prop30
280
     1
102
RTVSPost2010PropOp30
 70
     1
102
RTVSPost2010Prop31
280
     0
102
RTVSPost2010PropOp31
 70
     1
102
RTVSPost2010Prop32
280
     0
102
RTVSPost2010PropOp32
 70
     1
102
RTVSPost2010Prop33
280
     0
102
RTVSPost2010PropOp33
 70
     1
102
RTVSPost2010Prop34
280
     0
102
RTVSPost2010PropOp34
 70
     1
102
RTVSPost2010Prop35
280
     0
102
RTVSPost2010PropOp35
 70
     1
102
RTVSPost2010Prop36
280
     0
102
RTVSPost2010PropOp36
 70
     1
102
RTVSPost2010Prop37
 90
       50
102
RTVSPost2010PropOp37
 70
     1
102
RTVSPost2010Prop38
140
0.0
102
RTVSPost2010PropOp38
 70
     1
102
RTVSPost2010Prop39
140
1.0
102
RTVSPost2010PropOp39
 70
     1
102
RTVSPost2010Prop40
 90
        0
102
RTVSPost2010PropOp40
 70
     1
102
RTVSPost2010Prop41ColorIndex
 90
       18
102
RTVSPost2010Prop41ColorRGB
 90
        0
102
RTVSPost2010PropOp41
 70
     1
102
RTVSPost2010Prop42
 90
       50
102
RTVSPost2010PropOp42
 70
     1
102
RTVSPost2010Prop43
 90
        3
102
RTVSPost2010PropOp43
 70
     1
102
RTVSPost2010Prop44ColorIndex
 90
        5
102
RTVSPost2010Prop44ColorRGB
 90
      255
102
RTVSPost2010PropOp44
 70
     1
102
RTVSPost2010Prop45
280
     0
102
RTVSPost2010PropOp45
 70
     1
102
RTVSPost2010Prop46
 90
       50
102
RTVSPost2010PropOp46
 70
     1
102
RTVSPost2010Prop47
 90
       50
102
RTVSPost2010PropOp47
 70
     1
102
RTVSPost2010Prop48
 90
       50
102
RTVSPost2010PropOp48
 70
     1
102
RTVSPost2010Prop49
280
     0
102
RTVSPost2010PropOp49
 70
     1
102
RTVSPost2010Prop50
 90
       50
102
RTVSPost2010PropOp50
 70
     1
102
RTVSPost2010Prop51ColorIndex
 90
      256
102
RTVSPost2010Prop51ColorRGB
 90
-16777216
102
RTVSPost2010PropOp51
 70
     0
102
RTVSPost2010Prop52
140
1.0
102
RTVSPost2010PropOp52
 70
     0
102
RTVSPost2010Prop53
 90
        2
102
RTVSPost2010PropOp53
 70
     1
102
RTVSPost2010Prop54
  1
strokes_ogs.tif
102
RTVSPost2010PropOp54
 70
     1
102
RTVSPost2010Prop55
280
     0
102
RTVSPost2010PropOp55
 70
     1
102
RTVSPost2010Prop56
140
1.0
102
RTVSPost2010PropOp56
 70
     1
102
RTVSPost2010Prop57
140
1.0
102
RTVSPost2010PropOp57
 70
     1
  0
XRECORD
  5
4FC
102
{ACAD_REACTORS
330
4FB
102
}
330
4FB
100
AcDbXrecord
280
     1
102
RTVSPropertyOp0
 70
     1
102
RTVSPropertyOp1
 70
     1
102
RTVSPropertyOp2
 70
     1
102
RTVSPropertyOp3
 70
     1
102
RTVSPropertyOp4
 70
     1
102
RTVSPropertyOp5
 70
     1
102
RTVSPropertyOp6
 70
     1
102
RTVSPropertyOp7
 70
     1
102
RTVSPropertyOp8
 70
     1
102
RTVSPropertyOp9
 70
     1
102
RTVSPropertyOp10
 70
     1
102
RTVSPropertyOp11
 70
     1
102
RTVSPropertyOp12
 70
     1
102
RTVSPropertyOp13
 70
     1
102
RTVSPropertyOp14
 70
     1
102
RTVSPropertyOp15
 70
     1
102
RTVSPropertyOp16
 70
     1
102
RTVSPropertyOp17
 70
     1
102
RTVSPropertyOp18
 70
     1
102
RTVSPropertyOp19
 70
     1
102
RTVSPropertyOp20
 70
     1
102
RTVSPropertyOp21
 70
     1
102
RTVSPropertyOp22
 70
     1
102
RTVSPropertyOp23
 70
     1
102
RTVSPropertyOp24
 70
     1
102
RTVSPropertyOp25
 70
     1
102
RTVSPropertyOp26
 70
     1
102
RTVSPropertyOp27
 70
     1
102
RTVSPropertyOp28
 70
     1
102
RTVSPropertyOp29
 70
     1
102
RTVSPropertyOp30
 70
     1
102
RTVSPropertyOp31
 70
     1
102
RTVSPropertyOp32
 70
     1
102
RTVSPropertyOp33
 70
     1
102
RTVSPropertyOp34
 70
     1
102
RTVSPropertyOp35
 70
     1
102
RTVSPropertyOp36
 70
     1
102
RTVSPropertyOp37
 70
     1
102
RTVSPropertyOp38
 70
     1
102
RTVSPropertyOp39
 70
     1
102
RTVSPropertyOp40
 70
     1
102
RTVSPropertyOp41
 70
     1
102
RTVSPropertyOp42
 70
     1
102
RTVSPropertyOp43
 70
     1
102
RTVSPropertyOp44
 70
     1
102
RTVSPropertyOp45
 70
     1
102
RTVSPropertyOp46
 70
     1
102
RTVSPropertyOp47
 70
     1
102
RTVSPropertyOp48
 70
     1
102
RTVSPropertyOp49
 70
     1
102
RTVSPropertyOp50
 70
     1
102
RTVSPropertyOp51
 70
     0
102
RTVSPropertyOp52
 70
     0
102
RTVSPropertyOp53
 70
     1
102
RTVSPropertyOp54
 70
     1
102
RTVSPropertyOp55
 70
     1
102
RTVSPropertyOp56
 70
     1
102
RTVSPropertyOp57
 70
     1
102
RTVSPost2010Prop28
280
     0
102
RTVSPost2010PropOp28
 70
     1
102
RTVSPost2010Prop29
280
     1
102
RTVSPost2010PropOp29
 70
     1
102
RTVSPost2010Prop30
280
     1
102
RTVSPost2010PropOp30
 70
     1
102
RTVSPost2010Prop31
280
     0
102
RTVSPost2010PropOp31
 70
     1
102
RTVSPost2010Prop32
280
     0
102
RTVSPost2010PropOp32
 70
     1
102
RTVSPost2010Prop33
280
     0
102
RTVSPost2010PropOp33
 70
     1
102
RTVSPost2010Prop34
280
     0
102
RTVSPost2010PropOp34
 70
     1
102
RTVSPost2010Prop35
280
     0
102
RTVSPost2010PropOp35
 70
     1
102
RTVSPost2010Prop36
280
     0
102
RTVSPost2010PropOp36
 70
     1
102
RTVSPost2010Prop37
 90
       50
102
RTVSPost2010PropOp37
 70
     1
102
RTVSPost2010Prop38
140
0.0
102
RTVSPost2010PropOp38
 70
     1
102
RTVSPost2010Prop39
140
1.0
102
RTVSPost2010PropOp39
 70
     1
102
RTVSPost2010Prop40
 90
        0
102
RTVSPost2010PropOp40
 70
     1
102
RTVSPost2010Prop41ColorIndex
 90
       18
102
RTVSPost2010Prop41ColorRGB
 90
        0
102
RTVSPost2010PropOp41
 70
     1
102
RTVSPost2010Prop42
 90
       50
102
RTVSPost2010PropOp42
 70
     1
102
RTVSPost2010Prop43
 90
        3
102
RTVSPost2010PropOp43
 70
     1
102
RTVSPost2010Prop44ColorIndex
 90
        5
102
RTVSPost2010Prop44ColorRGB
 90
      255
102
RTVSPost2010PropOp44
 70
     1
102
RTVSPost2010Prop45
280
     0
102
RTVSPost2010PropOp45
 70
     1
102
RTVSPost2010Prop46
 90
       50
102
RTVSPost2010PropOp46
 70
     1
102
RTVSPost2010Prop47
 90
       50
102
RTVSPost2010PropOp47
 70
     1
102
RTVSPost2010Prop48
 90
       50
102
RTVSPost2010PropOp48
 70
     1
102
RTVSPost2010Prop49
280
     0
102
RTVSPost2010PropOp49
 70
     1
102
RTVSPost2010Prop50
 90
       50
102
RTVSPost2010PropOp50
 70
     1
102
RTVSPost2010Prop51ColorIndex
 90
      256
102
RTVSPost2010Prop51ColorRGB
 90
-16777216
102
RTVSPost2010PropOp51
 70
     0
102
RTVSPost2010Prop52
140
1.0
102
RTVSPost2010PropOp52
 70
     0
102
RTVSPost2010Prop53
 90
        2
102
RTVSPost2010PropOp53
 70
     1
102
RTVSPost2010Prop54
  1
strokes_ogs.tif
102
RTVSPost2010PropOp54
 70
     1
102
RTVSPost2010Prop55
280
     0
102
RTVSPost2010PropOp55
 70
     1
102
RTVSPost2010Prop56
140
1.0
102
RTVSPost2010PropOp56
 70
     1
102
RTVSPost2010Prop57
140
1.0
102
RTVSPost2010PropOp57
 70
     1
  0
XRECORD
  5
510
102
{ACAD_REACTORS
330
50F
102
}
330
50F
100
AcDbXrecord
280
     1
102
RTVSPropertyOp0
 70
     1
102
RTVSPropertyOp1
 70
     1
102
RTVSPropertyOp2
 70
     1
102
RTVSPropertyOp3
 70
     1
102
RTVSPropertyOp4
 70
     1
102
RTVSPropertyOp5
 70
     1
102
RTVSPropertyOp6
 70
     1
102
RTVSPropertyOp7
 70
     1
102
RTVSPropertyOp8
 70
     1
102
RTVSPropertyOp9
 70
     1
102
RTVSPropertyOp10
 70
     1
102
RTVSPropertyOp11
 70
     1
102
RTVSPropertyOp12
 70
     1
102
RTVSPropertyOp13
 70
     1
102
RTVSPropertyOp14
 70
     1
102
RTVSPropertyOp15
 70
     1
102
RTVSPropertyOp16
 70
     1
102
RTVSPropertyOp17
 70
     1
102
RTVSPropertyOp18
 70
     1
102
RTVSPropertyOp19
 70
     1
102
RTVSPropertyOp20
 70
     1
102
RTVSPropertyOp21
 70
     1
102
RTVSPropertyOp22
 70
     1
102
RTVSPropertyOp23
 70
     1
102
RTVSPropertyOp24
 70
     1
102
RTVSPropertyOp25
 70
     1
102
RTVSPropertyOp26
 70
     1
102
RTVSPropertyOp27
 70
     1
102
RTVSPropertyOp28
 70
     1
102
RTVSPropertyOp29
 70
     1
102
RTVSPropertyOp30
 70
     1
102
RTVSPropertyOp31
 70
     1
102
RTVSPropertyOp32
 70
     1
102
RTVSPropertyOp33
 70
     1
102
RTVSPropertyOp34
 70
     1
102
RTVSPropertyOp35
 70
     1
102
RTVSPropertyOp36
 70
     1
102
RTVSPropertyOp37
 70
     1
102
RTVSPropertyOp38
 70
     1
102
RTVSPropertyOp39
 70
     1
102
RTVSPropertyOp40
 70
     1
102
RTVSPropertyOp41
 70
     1
102
RTVSPropertyOp42
 70
     1
102
RTVSPropertyOp43
 70
     1
102
RTVSPropertyOp44
 70
     1
102
RTVSPropertyOp45
 70
     1
102
RTVSPropertyOp46
 70
     1
102
RTVSPropertyOp47
 70
     1
102
RTVSPropertyOp48
 70
     1
102
RTVSPropertyOp49
 70
     1
102
RTVSPropertyOp50
 70
     1
102
RTVSPropertyOp51
 70
     0
102
RTVSPropertyOp52
 70
     0
102
RTVSPropertyOp53
 70
     1
102
RTVSPropertyOp54
 70
     1
102
RTVSPropertyOp55
 70
     1
102
RTVSPropertyOp56
 70
     1
102
RTVSPropertyOp57
 70
     1
102
RTVSPost2010Prop28
280
     0
102
RTVSPost2010PropOp28
 70
     1
102
RTVSPost2010Prop29
280
     1
102
RTVSPost2010PropOp29
 70
     1
102
RTVSPost2010Prop30
280
     1
102
RTVSPost2010PropOp30
 70
     1
102
RTVSPost2010Prop31
280
     0
102
RTVSPost2010PropOp31
 70
     1
102
RTVSPost2010Prop32
280
     0
102
RTVSPost2010PropOp32
 70
     1
102
RTVSPost2010Prop33
280
     0
102
RTVSPost2010PropOp33
 70
     1
102
RTVSPost2010Prop34
280
     0
102
RTVSPost2010PropOp34
 70
     1
102
RTVSPost2010Prop35
280
     0
102
RTVSPost2010PropOp35
 70
     1
102
RTVSPost2010Prop36
280
     0
102
RTVSPost2010PropOp36
 70
     1
102
RTVSPost2010Prop37
 90
       50
102
RTVSPost2010PropOp37
 70
     1
102
RTVSPost2010Prop38
140
0.0
102
RTVSPost2010PropOp38
 70
     1
102
RTVSPost2010Prop39
140
1.0
102
RTVSPost2010PropOp39
 70
     1
102
RTVSPost2010Prop40
 90
        0
102
RTVSPost2010PropOp40
 70
     1
102
RTVSPost2010Prop41ColorIndex
 90
       18
102
RTVSPost2010Prop41ColorRGB
 90
        0
102
RTVSPost2010PropOp41
 70
     1
102
RTVSPost2010Prop42
 90
       50
102
RTVSPost2010PropOp42
 70
     1
102
RTVSPost2010Prop43
 90
        3
102
RTVSPost2010PropOp43
 70
     1
102
RTVSPost2010Prop44ColorIndex
 90
        5
102
RTVSPost2010Prop44ColorRGB
 90
      255
102
RTVSPost2010PropOp44
 70
     1
102
RTVSPost2010Prop45
280
     0
102
RTVSPost2010PropOp45
 70
     1
102
RTVSPost2010Prop46
 90
       50
102
RTVSPost2010PropOp46
 70
     1
102
RTVSPost2010Prop47
 90
       50
102
RTVSPost2010PropOp47
 70
     1
102
RTVSPost2010Prop48
 90
       50
102
RTVSPost2010PropOp48
 70
     1
102
RTVSPost2010Prop49
280
     0
102
RTVSPost2010PropOp49
 70
     1
102
RTVSPost2010Prop50
 90
       50
102
RTVSPost2010PropOp50
 70
     1
102
RTVSPost2010Prop51ColorIndex
 90
      256
102
RTVSPost2010Prop51ColorRGB
 90
-16777216
102
RTVSPost2010PropOp51
 70
     0
102
RTVSPost2010Prop52
140
1.0
102
RTVSPost2010PropOp52
 70
     0
102
RTVSPost2010Prop53
 90
        2
102
RTVSPost2010PropOp53
 70
     1
102
RTVSPost2010Prop54
  1
strokes_ogs.tif
102
RTVSPost2010PropOp54
 70
     1
102
RTVSPost2010Prop55
280
     0
102
RTVSPost2010PropOp55
 70
     1
102
RTVSPost2010Prop56
140
1.0
102
RTVSPost2010PropOp56
 70
     1
102
RTVSPost2010Prop57
140
1.0
102
RTVSPost2010PropOp57
 70
     1
  0
XRECORD
  5
506
102
{ACAD_REACTORS
330
505
102
}
330
505
100
AcDbXrecord
280
     1
102
RTVSPropertyOp0
 70
     1
102
RTVSPropertyOp1
 70
     1
102
RTVSPropertyOp2
 70
     1
102
RTVSPropertyOp3
 70
     1
102
RTVSPropertyOp4
 70
     1
102
RTVSPropertyOp5
 70
     1
102
RTVSPropertyOp6
 70
     1
102
RTVSPropertyOp7
 70
     1
102
RTVSPropertyOp8
 70
     1
102
RTVSPropertyOp9
 70
     1
102
RTVSPropertyOp10
 70
     1
102
RTVSPropertyOp11
 70
     1
102
RTVSPropertyOp12
 70
     1
102
RTVSPropertyOp13
 70
     1
102
RTVSPropertyOp14
 70
     1
102
RTVSPropertyOp15
 70
     1
102
RTVSPropertyOp16
 70
     1
102
RTVSPropertyOp17
 70
     1
102
RTVSPropertyOp18
 70
     1
102
RTVSPropertyOp19
 70
     1
102
RTVSPropertyOp20
 70
     1
102
RTVSPropertyOp21
 70
     1
102
RTVSPropertyOp22
 70
     1
102
RTVSPropertyOp23
 70
     1
102
RTVSPropertyOp24
 70
     1
102
RTVSPropertyOp25
 70
     1
102
RTVSPropertyOp26
 70
     1
102
RTVSPropertyOp27
 70
     1
102
RTVSPropertyOp28
 70
     1
102
RTVSPropertyOp29
 70
     1
102
RTVSPropertyOp30
 70
     1
102
RTVSPropertyOp31
 70
     1
102
RTVSPropertyOp32
 70
     1
102
RTVSPropertyOp33
 70
     1
102
RTVSPropertyOp34
 70
     1
102
RTVSPropertyOp35
 70
     1
102
RTVSPropertyOp36
 70
     1
102
RTVSPropertyOp37
 70
     1
102
RTVSPropertyOp38
 70
     1
102
RTVSPropertyOp39
 70
     1
102
RTVSPropertyOp40
 70
     1
102
RTVSPropertyOp41
 70
     1
102
RTVSPropertyOp42
 70
     1
102
RTVSPropertyOp43
 70
     1
102
RTVSPropertyOp44
 70
     1
102
RTVSPropertyOp45
 70
     1
102
RTVSPropertyOp46
 70
     1
102
RTVSPropertyOp47
 70
     1
102
RTVSPropertyOp48
 70
     1
102
RTVSPropertyOp49
 70
     1
102
RTVSPropertyOp50
 70
     1
102
RTVSPropertyOp51
 70
     0
102
RTVSPropertyOp52
 70
     0
102
RTVSPropertyOp53
 70
     1
102
RTVSPropertyOp54
 70
     1
102
RTVSPropertyOp55
 70
     1
102
RTVSPropertyOp56
 70
     1
102
RTVSPropertyOp57
 70
     1
102
RTVSPost2010Prop28
280
     0
102
RTVSPost2010PropOp28
 70
     1
102
RTVSPost2010Prop29
280
     1
102
RTVSPost2010PropOp29
 70
     1
102
RTVSPost2010Prop30
280
     1
102
RTVSPost2010PropOp30
 70
     1
102
RTVSPost2010Prop31
280
     0
102
RTVSPost2010PropOp31
 70
     1
102
RTVSPost2010Prop32
280
     0
102
RTVSPost2010PropOp32
 70
     1
102
RTVSPost2010Prop33
280
     0
102
RTVSPost2010PropOp33
 70
     1
102
RTVSPost2010Prop34
280
     0
102
RTVSPost2010PropOp34
 70
     1
102
RTVSPost2010Prop35
280
     0
102
RTVSPost2010PropOp35
 70
     1
102
RTVSPost2010Prop36
280
     0
102
RTVSPost2010PropOp36
 70
     1
102
RTVSPost2010Prop37
 90
       50
102
RTVSPost2010PropOp37
 70
     1
102
RTVSPost2010Prop38
140
0.0
102
RTVSPost2010PropOp38
 70
     1
102
RTVSPost2010Prop39
140
1.0
102
RTVSPost2010PropOp39
 70
     1
102
RTVSPost2010Prop40
 90
        0
102
RTVSPost2010PropOp40
 70
     1
102
RTVSPost2010Prop41ColorIndex
 90
       18
102
RTVSPost2010Prop41ColorRGB
 90
        0
102
RTVSPost2010PropOp41
 70
     1
102
RTVSPost2010Prop42
 90
       50
102
RTVSPost2010PropOp42
 70
     1
102
RTVSPost2010Prop43
 90
        3
102
RTVSPost2010PropOp43
 70
     1
102
RTVSPost2010Prop44ColorIndex
 90
        5
102
RTVSPost2010Prop44ColorRGB
 90
      255
102
RTVSPost2010PropOp44
 70
     1
102
RTVSPost2010Prop45
280
     0
102
RTVSPost2010PropOp45
 70
     1
102
RTVSPost2010Prop46
 90
       50
102
RTVSPost2010PropOp46
 70
     1
102
RTVSPost2010Prop47
 90
       50
102
RTVSPost2010PropOp47
 70
     1
102
RTVSPost2010Prop48
 90
       50
102
RTVSPost2010PropOp48
 70
     1
102
RTVSPost2010Prop49
280
     0
102
RTVSPost2010PropOp49
 70
     1
102
RTVSPost2010Prop50
 90
       50
102
RTVSPost2010PropOp50
 70
     1
102
RTVSPost2010Prop51ColorIndex
 90
      256
102
RTVSPost2010Prop51ColorRGB
 90
-16777216
102
RTVSPost2010PropOp51
 70
     0
102
RTVSPost2010Prop52
140
1.0
102
RTVSPost2010PropOp52
 70
     0
102
RTVSPost2010Prop53
 90
        2
102
RTVSPost2010PropOp53
 70
     1
102
RTVSPost2010Prop54
  1
strokes_ogs.tif
102
RTVSPost2010PropOp54
 70
     1
102
RTVSPost2010Prop55
280
     0
102
RTVSPost2010PropOp55
 70
     1
102
RTVSPost2010Prop56
140
1.0
102
RTVSPost2010PropOp56
 70
     1
102
RTVSPost2010Prop57
140
1.0
102
RTVSPost2010PropOp57
 70
     1
  0
XRECORD
  5
50E
102
{ACAD_REACTORS
330
50D
102
}
330
50D
100
AcDbXrecord
280
     1
102
RTVSPropertyOp0
 70
     1
102
RTVSPropertyOp1
 70
     1
102
RTVSPropertyOp2
 70
     1
102
RTVSPropertyOp3
 70
     1
102
RTVSPropertyOp4
 70
     1
102
RTVSPropertyOp5
 70
     1
102
RTVSPropertyOp6
 70
     1
102
RTVSPropertyOp7
 70
     1
102
RTVSPropertyOp8
 70
     1
102
RTVSPropertyOp9
 70
     1
102
RTVSPropertyOp10
 70
     1
102
RTVSPropertyOp11
 70
     1
102
RTVSPropertyOp12
 70
     1
102
RTVSPropertyOp13
 70
     1
102
RTVSPropertyOp14
 70
     1
102
RTVSPropertyOp15
 70
     1
102
RTVSPropertyOp16
 70
     1
102
RTVSPropertyOp17
 70
     1
102
RTVSPropertyOp18
 70
     1
102
RTVSPropertyOp19
 70
     1
102
RTVSPropertyOp20
 70
     1
102
RTVSPropertyOp21
 70
     1
102
RTVSPropertyOp22
 70
     1
102
RTVSPropertyOp23
 70
     1
102
RTVSPropertyOp24
 70
     1
102
RTVSPropertyOp25
 70
     1
102
RTVSPropertyOp26
 70
     1
102
RTVSPropertyOp27
 70
     1
102
RTVSPropertyOp28
 70
     1
102
RTVSPropertyOp29
 70
     1
102
RTVSPropertyOp30
 70
     1
102
RTVSPropertyOp31
 70
     1
102
RTVSPropertyOp32
 70
     1
102
RTVSPropertyOp33
 70
     1
102
RTVSPropertyOp34
 70
     1
102
RTVSPropertyOp35
 70
     1
102
RTVSPropertyOp36
 70
     1
102
RTVSPropertyOp37
 70
     1
102
RTVSPropertyOp38
 70
     1
102
RTVSPropertyOp39
 70
     1
102
RTVSPropertyOp40
 70
     1
102
RTVSPropertyOp41
 70
     1
102
RTVSPropertyOp42
 70
     1
102
RTVSPropertyOp43
 70
     1
102
RTVSPropertyOp44
 70
     1
102
RTVSPropertyOp45
 70
     1
102
RTVSPropertyOp46
 70
     1
102
RTVSPropertyOp47
 70
     1
102
RTVSPropertyOp48
 70
     1
102
RTVSPropertyOp49
 70
     1
102
RTVSPropertyOp50
 70
     1
102
RTVSPropertyOp51
 70
     0
102
RTVSPropertyOp52
 70
     0
102
RTVSPropertyOp53
 70
     1
102
RTVSPropertyOp54
 70
     1
102
RTVSPropertyOp55
 70
     1
102
RTVSPropertyOp56
 70
     1
102
RTVSPropertyOp57
 70
     1
102
RTVSPost2010Prop28
280
     0
102
RTVSPost2010PropOp28
 70
     1
102
RTVSPost2010Prop29
280
     1
102
RTVSPost2010PropOp29
 70
     1
102
RTVSPost2010Prop30
280
     1
102
RTVSPost2010PropOp30
 70
     1
102
RTVSPost2010Prop31
280
     0
102
RTVSPost2010PropOp31
 70
     1
102
RTVSPost2010Prop32
280
     0
102
RTVSPost2010PropOp32
 70
     1
102
RTVSPost2010Prop33
280
     0
102
RTVSPost2010PropOp33
 70
     1
102
RTVSPost2010Prop34
280
     0
102
RTVSPost2010PropOp34
 70
     1
102
RTVSPost2010Prop35
280
     0
102
RTVSPost2010PropOp35
 70
     1
102
RTVSPost2010Prop36
280
     0
102
RTVSPost2010PropOp36
 70
     1
102
RTVSPost2010Prop37
 90
       50
102
RTVSPost2010PropOp37
 70
     1
102
RTVSPost2010Prop38
140
0.0
102
RTVSPost2010PropOp38
 70
     1
102
RTVSPost2010Prop39
140
1.0
102
RTVSPost2010PropOp39
 70
     1
102
RTVSPost2010Prop40
 90
        0
102
RTVSPost2010PropOp40
 70
     1
102
RTVSPost2010Prop41ColorIndex
 90
       18
102
RTVSPost2010Prop41ColorRGB
 90
        0
102
RTVSPost2010PropOp41
 70
     1
102
RTVSPost2010Prop42
 90
       50
102
RTVSPost2010PropOp42
 70
     1
102
RTVSPost2010Prop43
 90
        3
102
RTVSPost2010PropOp43
 70
     1
102
RTVSPost2010Prop44ColorIndex
 90
        5
102
RTVSPost2010Prop44ColorRGB
 90
      255
102
RTVSPost2010PropOp44
 70
     1
102
RTVSPost2010Prop45
280
     0
102
RTVSPost2010PropOp45
 70
     1
102
RTVSPost2010Prop46
 90
       50
102
RTVSPost2010PropOp46
 70
     1
102
RTVSPost2010Prop47
 90
       50
102
RTVSPost2010PropOp47
 70
     1
102
RTVSPost2010Prop48
 90
       50
102
RTVSPost2010PropOp48
 70
     1
102
RTVSPost2010Prop49
280
     0
102
RTVSPost2010PropOp49
 70
     1
102
RTVSPost2010Prop50
 90
       50
102
RTVSPost2010PropOp50
 70
     1
102
RTVSPost2010Prop51ColorIndex
 90
      256
102
RTVSPost2010Prop51ColorRGB
 90
-16777216
102
RTVSPost2010PropOp51
 70
     0
102
RTVSPost2010Prop52
140
1.0
102
RTVSPost2010PropOp52
 70
     0
102
RTVSPost2010Prop53
 90
        2
102
RTVSPost2010PropOp53
 70
     1
102
RTVSPost2010Prop54
  1
strokes_ogs.tif
102
RTVSPost2010PropOp54
 70
     1
102
RTVSPost2010Prop55
280
     0
102
RTVSPost2010PropOp55
 70
     1
102
RTVSPost2010Prop56
140
1.0
102
RTVSPost2010PropOp56
 70
     1
102
RTVSPost2010Prop57
140
1.0
102
RTVSPost2010PropOp57
 70
     1
  0
ENDSEC
  0
EOF
