  0
SECTION
  2
HEADER
  9
$ACADVER
  1
AC1018
  9
$ACADMAINTVER
 70
     0
  9
$DWGCODEPAGE
  3
ANSI_936
  9
$INSBASE
 10
0.0
 20
0.0
 30
0.0
  9
$EXTMIN
 10
0.0000000000000004
 20
1061.291553374628
 30
0.0
  9
$EXTMAX
 10
324.030000000003
 20
1136.511553341134
 30
0.0
  9
$LIMMIN
 10
0.0
 20
0.0
  9
$LIMMAX
 10
12.0
 20
9.0
  9
$ORTHOMODE
 70
     0
  9
$REGENMODE
 70
     1
  9
$FILLMODE
 70
     1
  9
$QTEXTMODE
 70
     0
  9
$MIRRTEXT
 70
     1
  9
$LTSCALE
 40
1.0
  9
$ATTMODE
 70
     1
  9
$TEXTSIZE
 40
0.2
  9
$TRACEWID
 40
0.05
  9
$TEXTSTYLE
  7
Standard
  9
$CLAYER
  8
E37037
  9
$CELTYPE
  6
ByLayer
  9
$CECOLOR
 62
   256
  9
$CELTSCALE
 40
1.0
  9
$DISPSILH
 70
     0
  9
$DIMSCALE
 40
1.0
  9
$DIMASZ
 40
0.18
  9
$DIMEXO
 40
0.0625
  9
$DIMDLI
 40
0.38
  9
$DIMRND
 40
0.0
  9
$DIMDLE
 40
0.0
  9
$DIMEXE
 40
0.18
  9
$DIMTP
 40
0.0
  9
$DIMTM
 40
0.0
  9
$DIMTXT
 40
0.18
  9
$DIMCEN
 40
0.09
  9
$DIMTSZ
 40
0.0
  9
$DIMTOL
 70
     0
  9
$DIMLIM
 70
     0
  9
$DIMTIH
 70
     1
  9
$DIMTOH
 70
     1
  9
$DIMSE1
 70
     0
  9
$DIMSE2
 70
     0
  9
$DIMTAD
 70
     0
  9
$DIMZIN
 70
     0
  9
$DIMBLK
  1

  9
$DIMASO
 70
     1
  9
$DIMSHO
 70
     1
  9
$DIMPOST
  1

  9
$DIMAPOST
  1

  9
$DIMALT
 70
     0
  9
$DIMALTD
 70
     2
  9
$DIMALTF
 40
25.4
  9
$DIMLFAC
 40
1.0
  9
$DIMTOFL
 70
     0
  9
$DIMTVP
 40
0.0
  9
$DIMTIX
 70
     0
  9
$DIMSOXD
 70
     0
  9
$DIMSAH
 70
     0
  9
$DIMBLK1
  1

  9
$DIMBLK2
  1

  9
$DIMSTYLE
  2
Standard
  9
$DIMCLRD
 70
     0
  9
$DIMCLRE
 70
     0
  9
$DIMCLRT
 70
     0
  9
$DIMTFAC
 40
1.0
  9
$DIMGAP
 40
0.09
  9
$DIMJUST
 70
     0
  9
$DIMSD1
 70
     0
  9
$DIMSD2
 70
     0
  9
$DIMTOLJ
 70
     1
  9
$DIMTZIN
 70
     0
  9
$DIMALTZ
 70
     0
  9
$DIMALTTZ
 70
     0
  9
$DIMUPT
 70
     0
  9
$DIMDEC
 70
     4
  9
$DIMTDEC
 70
     4
  9
$DIMALTU
 70
     2
  9
$DIMALTTD
 70
     2
  9
$DIMTXSTY
  7
Standard
  9
$DIMAUNIT
 70
     0
  9
$DIMADEC
 70
     0
  9
$DIMALTRND
 40
0.0
  9
$DIMAZIN
 70
     0
  9
$DIMDSEP
 70
    46
  9
$DIMATFIT
 70
     3
  9
$DIMFRAC
 70
     0
  9
$DIMLDRBLK
  1

  9
$DIMLUNIT
 70
     2
  9
$DIMLWD
 70
    -2
  9
$DIMLWE
 70
    -2
  9
$DIMTMOVE
 70
     2
  9
$LUNITS
 70
     2
  9
$LUPREC
 70
     2
  9
$SKETCHINC
 40
0.1
  9
$FILLETRAD
 40
0.5
  9
$AUNITS
 70
     0
  9
$AUPREC
 70
     0
  9
$MENU
  1
.
  9
$ELEVATION
 40
0.0
  9
$PELEVATION
 40
0.0
  9
$THICKNESS
 40
0.0
  9
$LIMCHECK
 70
     0
  9
$CHAMFERA
 40
0.5
  9
$CHAMFERB
 40
0.5
  9
$CHAMFERC
 40
1.0
  9
$CHAMFERD
 40
0.0
  9
$SKPOLY
 70
     0
  9
$TDCREATE
 40
2456710.714251354
  9
$TDUCREATE
 40
2456710.380918021
  9
$TDUPDATE
 40
2456710.71426235
  9
$TDUUPDATE
 40
2456710.380929016
  9
$TDINDWG
 40
0.0000000116
  9
$TDUSRTIMER
 40
0.0000000116
  9
$USRTIMER
 70
     1
  9
$ANGBASE
 50
0.0
  9
$ANGDIR
 70
     0
  9
$PDMODE
 70
     0
  9
$PDSIZE
 40
0.0
  9
$PLINEWID
 40
0.0
  9
$SPLFRAME
 70
     0
  9
$SPLINETYPE
 70
     6
  9
$SPLINESEGS
 70
     8
  9
$HANDSEED
  5
488
  9
$SURFTAB1
 70
     6
  9
$SURFTAB2
 70
     6
  9
$SURFTYPE
 70
     6
  9
$SURFU
 70
     6
  9
$SURFV
 70
     6
  9
$UCSBASE
  2

  9
$UCSNAME
  2

  9
$UCSORG
 10
0.0
 20
0.0
 30
0.0
  9
$UCSXDIR
 10
1.0
 20
0.0
 30
0.0
  9
$UCSYDIR
 10
0.0
 20
1.0
 30
0.0
  9
$UCSORTHOREF
  2

  9
$UCSORTHOVIEW
 70
     0
  9
$UCSORGTOP
 10
0.0
 20
0.0
 30
0.0
  9
$UCSORGBOTTOM
 10
0.0
 20
0.0
 30
0.0
  9
$UCSORGLEFT
 10
0.0
 20
0.0
 30
0.0
  9
$UCSORGRIGHT
 10
0.0
 20
0.0
 30
0.0
  9
$UCSORGFRONT
 10
0.0
 20
0.0
 30
0.0
  9
$UCSORGBACK
 10
0.0
 20
0.0
 30
0.0
  9
$PUCSBASE
  2

  9
$PUCSNAME
  2

  9
$PUCSORG
 10
0.0
 20
0.0
 30
0.0
  9
$PUCSXDIR
 10
1.0
 20
0.0
 30
0.0
  9
$PUCSYDIR
 10
0.0
 20
1.0
 30
0.0
  9
$PUCSORTHOREF
  2

  9
$PUCSORTHOVIEW
 70
     0
  9
$PUCSORGTOP
 10
0.0
 20
0.0
 30
0.0
  9
$PUCSORGBOTTOM
 10
0.0
 20
0.0
 30
0.0
  9
$PUCSORGLEFT
 10
0.0
 20
0.0
 30
0.0
  9
$PUCSORGRIGHT
 10
0.0
 20
0.0
 30
0.0
  9
$PUCSORGFRONT
 10
0.0
 20
0.0
 30
0.0
  9
$PUCSORGBACK
 10
0.0
 20
0.0
 30
0.0
  9
$USERI1
 70
     0
  9
$USERI2
 70
     0
  9
$USERI3
 70
     0
  9
$USERI4
 70
     0
  9
$USERI5
 70
     0
  9
$USERR1
 40
0.0
  9
$USERR2
 40
0.0
  9
$USERR3
 40
0.0
  9
$USERR4
 40
0.0
  9
$USERR5
 40
0.0
  9
$WORLDVIEW
 70
     1
  9
$SHADEDGE
 70
     3
  9
$SHADEDIF
 70
    70
  9
$TILEMODE
 70
     1
  9
$MAXACTVP
 70
    64
  9
$PINSBASE
 10
0.0
 20
0.0
 30
0.0
  9
$PLIMCHECK
 70
     0
  9
$PEXTMIN
 10
1.000000000000000E+20
 20
1.000000000000000E+20
 30
1.000000000000000E+20
  9
$PEXTMAX
 10
-1.000000000000000E+20
 20
-1.000000000000000E+20
 30
-1.000000000000000E+20
  9
$PLIMMIN
 10
0.0
 20
0.0
  9
$PLIMMAX
 10
12.0
 20
9.0
  9
$UNITMODE
 70
     0
  9
$VISRETAIN
 70
     1
  9
$PLINEGEN
 70
     0
  9
$PSLTSCALE
 70
     1
  9
$TREEDEPTH
 70
  3020
  9
$CMLSTYLE
  2
Standard
  9
$CMLJUST
 70
     0
  9
$CMLSCALE
 40
1.0
  9
$PROXYGRAPHICS
 70
     1
  9
$MEASUREMENT
 70
     0
  9
$CELWEIGHT
370
    -1
  9
$ENDCAPS
280
     0
  9
$JOINSTYLE
280
     0
  9
$LWDISPLAY
290
     0
  9
$INSUNITS
 70
     4
  9
$HYPERLINKBASE
  1

  9
$STYLESHEET
  1

  9
$XEDIT
290
     1
  9
$CEPSNTYPE
380
     0
  9
$PSTYLEMODE
290
     1
  9
$FINGERPRINTGUID
  2
{9A5EAAC4-CC9E-4FA8-B5F1-EEEE6799AA66}
  9
$VERSIONGUID
  2
{FAEB1C32-E019-11D5-929B-00C0DF256EC4}
  9
$EXTNAMES
290
     1
  9
$PSVPSCALE
 40
0.0
  9
$OLESTARTUP
290
     0
  9
$SORTENTS
280
   127
  9
$INDEXCTL
280
     0
  9
$HIDETEXT
280
     1
  9
$XCLIPFRAME
290
     0
  9
$HALOGAP
280
     0
  9
$OBSCOLOR
 70
   257
  9
$OBSLTYPE
280
     0
  9
$INTERSECTIONDISPLAY
280
     0
  9
$INTERSECTIONCOLOR
 70
   257
  9
$DIMASSOC
280
     2
  9
$PROJECTNAME
  1

  0
ENDSEC
  0
SECTION
  2
CLASSES
  0
CLASS
  1
ACDBDICTIONARYWDFLT
  2
AcDbDictionaryWithDefault
  3
ObjectDBX Classes
 90
        0
 91
        4
280
     0
281
     0
  0
CLASS
  1
VISUALSTYLE
  2
AcDbVisualStyle
  3
ObjectDBX Classes
 90
     4095
 91
        4
280
     0
281
     0
  0
CLASS
  1
MATERIAL
  2
AcDbMaterial
  3
ObjectDBX Classes
 90
     1153
 91
        4
280
     0
281
     0
  0
CLASS
  1
SCALE
  2
AcDbScale
  3
ObjectDBX Classes
 90
     1153
 91
        4
280
     0
281
     0
  0
CLASS
  1
SUN
  2
AcDbSun
  3
SCENEOE
 90
     1153
 91
        4
280
     0
281
     0
  0
CLASS
  1
DICTIONARYVAR
  2
AcDbDictionaryVar
  3
ObjectDBX Classes
 90
        0
 91
        4
280
     0
281
     0
  0
ENDSEC
  0
SECTION
  2
TABLES
  0
TABLE
  2
VPORT
  5
8
330
0
100
AcDbSymbolTable
 70
     1
  0
VPORT
  5
29
330
8
100
AcDbSymbolTableRecord
100
AcDbViewportTableRecord
  2
*Active
 70
     0
 10
0.0
 20
0.0
 11
1.0
 21
1.0
 12
162.0150000000015
 22
1098.901553357881
 13
0.0
 23
0.0
 14
0.5
 24
0.5
 15
0.5
 25
0.5
 16
0.0
 26
0.0
 36
1.0
 17
0.0
 27
0.0
 37
0.0
 40
76.72439996583549
 41
4.307763894499998
 42
50.0
 43
0.0
 44
0.0
 50
0.0
 51
0.0
 71
     0
 72
   100
 73
     1
 74
     3
 75
     0
 76
     0
 77
     0
 78
     0
281
     0
 65
     1
110
0.0
120
0.0
130
0.0
111
1.0
121
0.0
131
0.0
112
0.0
122
1.0
132
0.0
 79
     0
146
0.0
  0
ENDTAB
  0
TABLE
  2
LTYPE
  5
5
330
0
100
AcDbSymbolTable
 70
     1
  0
LTYPE
  5
14
330
5
100
AcDbSymbolTableRecord
100
AcDbLinetypeTableRecord
  2
ByBlock
 70
     0
  3

 72
    65
 73
     0
 40
0.0
  0
LTYPE
  5
15
330
5
100
AcDbSymbolTableRecord
100
AcDbLinetypeTableRecord
  2
ByLayer
 70
     0
  3

 72
    65
 73
     0
 40
0.0
  0
LTYPE
  5
16
330
5
100
AcDbSymbolTableRecord
100
AcDbLinetypeTableRecord
  2
Continuous
 70
     0
  3
Solid line
 72
    65
 73
     0
 40
0.0
  0
ENDTAB
  0
TABLE
  2
LAYER
  5
2
330
0
100
AcDbSymbolTable
 70
     3
  0
LAYER
  5
10
330
2
100
AcDbSymbolTableRecord
100
AcDbLayerTableRecord
  2
0
 70
     0
 62
     7
  6
Continuous
370
    -3
390
F
  0
LAYER
  5
62
330
2
100
AcDbSymbolTableRecord
100
AcDbLayerTableRecord
  2
Make2D$可见线$普通线
 70
     0
 62
    18
420
        0
  6
Continuous
370
    -3
390
F
  0
LAYER
  5
64
330
2
100
AcDbSymbolTableRecord
100
AcDbLayerTableRecord
  2
E37037
 70
     0
 62
    18
420
        0
  6
Continuous
370
    -3
390
F
  0
ENDTAB
  0
TABLE
  2
STYLE
  5
3
330
0
100
AcDbSymbolTable
 70
     1
  0
STYLE
  5
11
330
3
100
AcDbSymbolTableRecord
100
AcDbTextStyleTableRecord
  2
Standard
 70
     0
 40
0.0
 41
1.0
 50
0.0
 71
     0
 42
0.2
  3
txt
  4

  0
ENDTAB
  0
TABLE
  2
VIEW
  5
6
330
0
100
AcDbSymbolTable
 70
     0
  0
ENDTAB
  0
TABLE
  2
UCS
  5
7
330
0
100
AcDbSymbolTable
 70
     0
  0
ENDTAB
  0
TABLE
  2
APPID
  5
9
330
0
100
AcDbSymbolTable
 70
     1
  0
APPID
  5
12
330
9
100
AcDbSymbolTableRecord
100
AcDbRegAppTableRecord
  2
ACAD
 70
     0
  0
ENDTAB
  0
TABLE
  2
DIMSTYLE
  5
A
330
0
100
AcDbSymbolTable
 70
     1
100
AcDbDimStyleTable
  0
DIMSTYLE
105
27
330
A
100
AcDbSymbolTableRecord
100
AcDbDimStyleTableRecord
  2
Standard
 70
     0
178
     0
340
11
  0
ENDTAB
  0
TABLE
  2
BLOCK_RECORD
  5
1
330
0
100
AcDbSymbolTable
 70
     1
  0
BLOCK_RECORD
  5
1F
330
1
100
AcDbSymbolTableRecord
100
AcDbBlockTableRecord
  2
*Model_Space
340
22
  0
BLOCK_RECORD
  5
1B
330
1
100
AcDbSymbolTableRecord
100
AcDbBlockTableRecord
  2
*Paper_Space
340
1E
  0
BLOCK_RECORD
  5
23
330
1
100
AcDbSymbolTableRecord
100
AcDbBlockTableRecord
  2
*Paper_Space0
340
26
  0
ENDTAB
  0
ENDSEC
  0
SECTION
  2
BLOCKS
  0
BLOCK
  5
20
330
1F
100
AcDbEntity
  8
0
100
AcDbBlockBegin
  2
*Model_Space
 70
     0
 10
0.0
 20
0.0
 30
0.0
  3
*Model_Space
  1
*Model_Space
  0
ENDBLK
  5
21
330
1F
100
AcDbEntity
  8
0
100
AcDbBlockEnd
  0
BLOCK
  5
1C
330
1B
100
AcDbEntity
 67
     1
  8
0
100
AcDbBlockBegin
  2
*Paper_Space
 70
     0
 10
0.0
 20
0.0
 30
0.0
  3
*Paper_Space
  1
*Paper_Space
  0
ENDBLK
  5
1D
330
1B
100
AcDbEntity
 67
     1
  8
0
100
AcDbBlockEnd
  0
BLOCK
  5
24
330
23
100
AcDbEntity
  8
0
100
AcDbBlockBegin
  2
*Paper_Space0
 70
     0
 10
0.0
 20
0.0
 30
0.0
  3
*Paper_Space0
  1
*Paper_Space0
  0
ENDBLK
  5
25
330
23
100
AcDbEntity
  8
0
100
AcDbBlockEnd
  0
ENDSEC
  0
SECTION
  2
ENTITIES
  0
LINE
  5
63
330
1F
100
AcDbEntity
  8
Make2D$可见线$普通线
100
AcDbLine
 10
170.9745717259209
 20
1071.369288974562
 30
0.0
 11
172.9071199098199
 21
1071.369288974562
 31
0.0
  0
POLYLINE
  5
65
330
1F
100
AcDbEntity
  8
E37037
100
AcDb2dPolyline
 66
     1
 10
0.0
 20
0.0
 30
0.0
  0
VERTEX
  5
66
330
65
100
AcDbEntity
  8
E37037
100
AcDbVertex
100
AcDb2dVertex
 10
158.0150000000015
 20
1078.511553341077
 30
0.0
  0
VERTEX
  5
67
330
65
100
AcDbEntity
  8
E37037
100
AcDbVertex
100
AcDb2dVertex
 10
166.0150000000015
 20
1078.511553341077
 30
0.0
 42
0.4142135623730959
  0
VERTEX
  5
68
330
65
100
AcDbEntity
  8
E37037
100
AcDbVertex
100
AcDb2dVertex
 10
180.0150000000015
 20
1092.511553341077
 30
0.0
  0
VERTEX
  5
69
330
65
100
AcDbEntity
  8
E37037
100
AcDbVertex
100
AcDb2dVertex
 10
180.0150000000015
 20
1110.511553341075
 30
0.0
 42
0.4142135623730994
  0
VERTEX
  5
6A
330
65
100
AcDbEntity
  8
E37037
100
AcDbVertex
100
AcDb2dVertex
 10
166.0150000000015
 20
1124.511553341075
 30
0.0
  0
VERTEX
  5
6B
330
65
100
AcDbEntity
  8
E37037
100
AcDbVertex
100
AcDb2dVertex
 10
158.0150000000015
 20
1124.511553341075
 30
0.0
 42
0.4142135623730959
  0
VERTEX
  5
6C
330
65
100
AcDbEntity
  8
E37037
100
AcDbVertex
100
AcDb2dVertex
 10
144.0150000000015
 20
1110.511553341075
 30
0.0
  0
VERTEX
  5
6D
330
65
100
AcDbEntity
  8
E37037
100
AcDbVertex
100
AcDb2dVertex
 10
144.0150000000016
 20
1092.511553341077
 30
0.0
 42
0.4142135623730927
  0
VERTEX
  5
6E
330
65
100
AcDbEntity
  8
E37037
100
AcDbVertex
100
AcDb2dVertex
 10
158.0150000000012
 20
1078.511553341077
 30
0.0
  0
SEQEND
  5
6F
330
65
100
AcDbEntity
  8
E37037
  0
LINE
  5
70
330
1F
100
AcDbEntity
  8
Make2D$可见线$普通线
100
AcDbLine
 10
55.45000030245808
 20
1101.511553341075
 30
0.0
 11
55.45000030245807
 21
1084.536137648956
 31
0.0
  0
LINE
  5
71
330
1F
100
AcDbEntity
  8
Make2D$可见线$普通线
100
AcDbLine
 10
55.45000030245808
 20
1082.970313083187
 30
0.0
 11
55.45000030245808
 21
1082.958281191357
 31
0.0
  0
LINE
  5
72
330
1F
100
AcDbEntity
  8
Make2D$可见线$普通线
100
AcDbLine
 10
55.45000030245811
 20
1082.60608386275
 30
0.0
 11
55.45000030245809
 21
1082.591498563065
 31
0.0
  0
LINE
  5
73
330
1F
100
AcDbEntity
  8
Make2D$可见线$普通线
100
AcDbLine
 10
55.45000030245806
 20
1082.253054167744
 30
0.0
 11
55.45000030245808
 21
1082.236104871002
 31
0.0
  0
LINE
  5
74
330
1F
100
AcDbEntity
  8
Make2D$可见线$普通线
100
AcDbLine
 10
55.45000030245809
 20
1081.911378359358
 30
0.0
 11
55.45000030245809
 21
1081.892258286063
 31
0.0
  0
LINE
  5
75
330
1F
100
AcDbEntity
  8
Make2D$可见线$普通线
100
AcDbLine
 10
55.45000030245809
 20
1081.58121080868
 30
0.0
 11
55.45000030245809
 21
1081.560116979141
 31
0.0
  0
LINE
  5
76
330
1F
100
AcDbEntity
  8
Make2D$可见线$普通线
100
AcDbLine
 10
55.45000030245809
 20
1081.2627058868
 30
0.0
 11
55.45000030245809
 21
1081.239839121129
 31
0.0
  0
LINE
  5
77
330
1F
100
AcDbEntity
  8
Make2D$可见线$普通线
100
AcDbLine
 10
55.4500003024581
 20
1080.956017964807
 30
0.0
 11
55.4500003024581
 21
1080.931582882921
 31
0.0
  0
LINE
  5
78
330
1F
100
AcDbEntity
  8
Make2D$可见线$普通线
100
AcDbLine
 10
55.4500003024581
 20
1080.66130141379
 30
0.0
 11
55.4500003024581
 21
1080.635506435411
 31
0.0
  0
LINE
  5
79
330
1F
100
AcDbEntity
  8
Make2D$可见线$普通线
100
AcDbLine
 10
55.45000030245807
 20
1080.378710604838
 30
0.0
 11
55.45000030245809
 21
1080.351767949491
 31
0.0
  0
LINE
  5
7A
330
1F
100
AcDbEntity
  8
Make2D$可见线$普通线
100
AcDbLine
 10
55.4500003024581
 20
1080.10839990904
 30
0.0
 11
55.4500003024581
 21
1080.080525596055
 31
0.0
  0
LINE
  5
7B
330
1F
100
AcDbEntity
  8
Make2D$可见线$普通线
100
AcDbLine
 10
55.45000030245809
 20
1079.850523697486
 30
0.0
 11
55.45000030245809
 21
1079.821937545997
 31
0.0
  0
LINE
  5
7C
330
1F
100
AcDbEntity
  8
Make2D$可见线$普通线
100
AcDbLine
 10
55.45000030245813
 20
1079.605236341265
 30
0.0
 11
55.45000030245811
 21
1079.57616197021
 31
0.0
  0
LINE
  5
7D
330
1F
100
AcDbEntity
  8
Make2D$可见线$普通线
100
AcDbLine
 10
55.4500003024581
 20
1079.372692211465
 30
0.0
 11
55.4500003024581
 21
1079.343357039588
 31
0.0
  0
LINE
  5
7E
330
1F
100
AcDbEntity
  8
Make2D$可见线$普通线
100
AcDbLine
 10
55.45000030245809
 20
1079.153045679178
 30
0.0
 11
55.45000030245811
 21
1079.123680925024
 31
0.0
  0
LINE
  5
7F
330
1F
100
AcDbEntity
  8
Make2D$可见线$普通线
100
AcDbLine
 10
55.4500003024581
 20
1078.946451115493
 30
0.0
 11
55.4500003024581
 21
1078.917291797411
 31
0.0
  0
LINE
  5
80
330
1F
100
AcDbEntity
  8
Make2D$可见线$普通线
100
AcDbLine
 10
55.45000030245812
 20
1078.753062891502
 30
0.0
 11
55.4500003024581
 21
1078.724347827643
 31
0.0
  0
LINE
  5
81
330
1F
100
AcDbEntity
  8
Make2D$可见线$普通线
100
AcDbLine
 10
55.45000030245811
 20
1078.573035378297
 30
0.0
 11
55.45000030245811
 21
1078.545007186614
 31
0.0
  0
LINE
  5
82
330
1F
100
AcDbEntity
  8
Make2D$可见线$普通线
100
AcDbLine
 10
55.45000030245811
 20
1078.406522946975
 30
0.0
 11
55.45000030245811
 21
1078.379428045216
 31
0.0
  0
LINE
  5
83
330
1F
100
AcDbEntity
  8
Make2D$可见线$普通线
100
AcDbLine
 10
55.45000030245811
 20
1078.253679968639
 30
0.0
 11
55.45000030245811
 21
1078.227768574344
 31
0.0
  0
LINE
  5
84
330
1F
100
AcDbEntity
  8
Make2D$可见线$普通线
100
AcDbLine
 10
55.45000030245809
 20
1078.11466081441
 30
0.0
 11
55.45000030245811
 21
1078.090186944891
 31
0.0
  0
LINE
  5
85
330
1F
100
AcDbEntity
  8
Make2D$可见线$普通线
100
AcDbLine
 10
55.45000030245811
 20
1077.989619855449
 30
0.0
 11
55.45000030245811
 21
1077.96684132775
 31
0.0
  0
LINE
  5
86
330
1F
100
AcDbEntity
  8
Make2D$可见线$普通线
100
AcDbLine
 10
55.4500003024581
 20
1077.878711463019
 30
0.0
 11
55.4500003024581
 21
1077.857889893814
 31
0.0
  0
LINE
  5
87
330
1F
100
AcDbEntity
  8
Make2D$可见线$普通线
100
AcDbLine
 10
55.4500003024581
 20
1077.782090008699
 30
0.0
 11
55.4500003024581
 21
1077.763490813978
 31
0.0
  0
LINE
  5
88
330
1F
100
AcDbEntity
  8
Make2D$可见线$普通线
100
AcDbLine
 10
55.4500003024581
 20
1077.683802259134
 30
0.0
 11
55.4500003024581
 21
1077.63232539109
 31
0.0
  0
LINE
  5
89
330
1F
100
AcDbEntity
  8
Make2D$可见线$普通线
100
AcDbLine
 10
55.4500003024581
 20
1077.618982400176
 30
0.0
 11
55.4500003024581
 21
1077.579490973844
 31
0.0
  0
LINE
  5
8A
330
1F
100
AcDbEntity
  8
Make2D$可见线$普通线
100
AcDbLine
 10
55.45000030245807
 20
1125.443615708306
 30
0.0
 11
55.45000030245808
 21
1125.404124281974
 31
0.0
  0
LINE
  5
8B
330
1F
100
AcDbEntity
  8
Make2D$可见线$普通线
100
AcDbLine
 10
55.45000030245808
 20
1125.39078129106
 30
0.0
 11
55.45000030245808
 21
1125.339304423016
 31
0.0
  0
LINE
  5
8C
330
1F
100
AcDbEntity
  8
Make2D$可见线$普通线
100
AcDbLine
 10
55.45000030245806
 20
1125.259615868172
 30
0.0
 11
55.45000030245809
 21
1125.241016673451
 31
0.0
  0
LINE
  5
8D
330
1F
100
AcDbEntity
  8
Make2D$可见线$普通线
100
AcDbLine
 10
55.45000030245809
 20
1125.165216788336
 30
0.0
 11
55.45000030245809
 21
1125.14439521913
 31
0.0
  0
LINE
  5
8E
330
1F
100
AcDbEntity
  8
Make2D$可见线$普通线
100
AcDbLine
 10
55.45000030245809
 20
1125.0562653544
 30
0.0
 11
55.45000030245809
 21
1125.033486826701
 31
0.0
  0
LINE
  5
8F
330
1F
100
AcDbEntity
  8
Make2D$可见线$普通线
100
AcDbLine
 10
55.4500003024581
 20
1124.932919737259
 30
0.0
 11
55.4500003024581
 21
1124.908445867739
 31
0.0
  0
LINE
  5
90
330
1F
100
AcDbEntity
  8
Make2D$可见线$普通线
100
AcDbLine
 10
55.4500003024581
 20
1124.795338107805
 30
0.0
 11
55.4500003024581
 21
1124.769426713511
 31
0.0
  0
LINE
  5
91
330
1F
100
AcDbEntity
  8
Make2D$可见线$普通线
100
AcDbLine
 10
55.45000030245809
 20
1124.643678636934
 30
0.0
 11
55.45000030245809
 21
1124.616583735175
 31
0.0
  0
LINE
  5
92
330
1F
100
AcDbEntity
  8
Make2D$可见线$普通线
100
AcDbLine
 10
55.4500003024581
 20
1124.478099495536
 30
0.0
 11
55.4500003024581
 21
1124.450071303853
 31
0.0
  0
LINE
  5
93
330
1F
100
AcDbEntity
  8
Make2D$可见线$普通线
100
AcDbLine
 10
55.45000030245809
 20
1124.298758854506
 30
0.0
 11
55.45000030245811
 21
1124.270043790648
 31
0.0
  0
LINE
  5
94
330
1F
100
AcDbEntity
  8
Make2D$可见线$普通线
100
AcDbLine
 10
55.45000030245809
 20
1124.105814884738
 30
0.0
 11
55.45000030245809
 21
1124.076655566656
 31
0.0
  0
LINE
  5
95
330
1F
100
AcDbEntity
  8
Make2D$可见线$普通线
100
AcDbLine
 10
55.45000030245814
 20
1123.899425757126
 30
0.0
 11
55.45000030245811
 21
1123.870061002971
 31
0.0
  0
LINE
  5
96
330
1F
100
AcDbEntity
  8
Make2D$可见线$普通线
100
AcDbLine
 10
55.4500003024581
 20
1123.679749642562
 30
0.0
 11
55.4500003024581
 21
1123.650414470684
 31
0.0
  0
LINE
  5
97
330
1F
100
AcDbEntity
  8
Make2D$可见线$普通线
100
AcDbLine
 10
55.4500003024581
 20
1123.446944711939
 30
0.0
 11
55.4500003024581
 21
1123.417870340885
 31
0.0
  0
LINE
  5
98
330
1F
100
AcDbEntity
  8
Make2D$可见线$普通线
100
AcDbLine
 10
55.45000030245808
 20
1123.201169136152
 30
0.0
 11
55.4500003024581
 21
1123.172582984664
 31
0.0
  0
LINE
  5
99
330
1F
100
AcDbEntity
  8
Make2D$可见线$普通线
100
AcDbLine
 10
55.45000030245811
 20
1122.942581086095
 30
0.0
 11
55.45000030245811
 21
1122.91470677311
 31
0.0
  0
LINE
  5
9A
330
1F
100
AcDbEntity
  8
Make2D$可见线$普通线
100
AcDbLine
 10
55.45000030245811
 20
1122.671338732659
 30
0.0
 11
55.45000030245811
 21
1122.644396077312
 31
0.0
  0
LINE
  5
9B
330
1F
100
AcDbEntity
  8
Make2D$可见线$普通线
100
AcDbLine
 10
55.45000030245811
 20
1122.387600246739
 30
0.0
 11
55.45000030245811
 21
1122.36180526836
 31
0.0
  0
LINE
  5
9C
330
1F
100
AcDbEntity
  8
Make2D$可见线$普通线
100
AcDbLine
 10
55.45000030245813
 20
1122.091523799229
 30
0.0
 11
55.45000030245813
 21
1122.067088717343
 31
0.0
  0
LINE
  5
9D
330
1F
100
AcDbEntity
  8
Make2D$可见线$普通线
100
AcDbLine
 10
55.45000030245811
 20
1121.78326756102
 30
0.0
 11
55.45000030245811
 21
1121.760400795349
 31
0.0
  0
LINE
  5
9E
330
1F
100
AcDbEntity
  8
Make2D$可见线$普通线
100
AcDbLine
 10
55.45000030245813
 20
1121.462989703009
 30
0.0
 11
55.45000030245813
 21
1121.44189587347
 31
0.0
  0
LINE
  5
9F
330
1F
100
AcDbEntity
  8
Make2D$可见线$普通线
100
AcDbLine
 10
55.45000030245813
 20
1121.130848396087
 30
0.0
 11
55.45000030245813
 21
1121.111728322792
 31
0.0
  0
LINE
  5
A0
330
1F
100
AcDbEntity
  8
Make2D$可见线$普通线
100
AcDbLine
 10
55.45000030245813
 20
1120.787001811148
 30
0.0
 11
55.45000030245813
 21
1120.770052514406
 31
0.0
  0
LINE
  5
A1
330
1F
100
AcDbEntity
  8
Make2D$可见线$普通线
100
AcDbLine
 10
55.45000030245813
 20
1120.431608119085
 30
0.0
 11
55.45000030245813
 21
1120.417022819399
 31
0.0
  0
LINE
  5
A2
330
1F
100
AcDbEntity
  8
Make2D$可见线$普通线
100
AcDbLine
 10
55.45000030245813
 20
1120.064825490792
 30
0.0
 11
55.45000030245813
 21
1120.052793598963
 31
0.0
  0
LINE
  5
A3
330
1F
100
AcDbEntity
  8
Make2D$可见线$普通线
100
AcDbLine
 10
55.45000030245813
 20
1118.486969033188
 30
0.0
 11
55.45000030245808
 21
1101.511553341075
 31
0.0
  0
LINE
  5
A4
330
1F
100
AcDbEntity
  8
Make2D$可见线$普通线
100
AcDbLine
 10
268.5800003024581
 20
1101.511553341075
 30
0.0
 11
268.580000302458
 21
1084.536137648959
 31
0.0
  0
LINE
  5
A5
330
1F
100
AcDbEntity
  8
Make2D$可见线$普通线
100
AcDbLine
 10
268.580000302458
 20
1082.970313083187
 30
0.0
 11
268.580000302458
 21
1082.958281191357
 31
0.0
  0
LINE
  5
A6
330
1F
100
AcDbEntity
  8
Make2D$可见线$普通线
100
AcDbLine
 10
268.5800003024578
 20
1082.60608386275
 30
0.0
 11
268.580000302458
 21
1082.591498563065
 31
0.0
  0
LINE
  5
A7
330
1F
100
AcDbEntity
  8
Make2D$可见线$普通线
100
AcDbLine
 10
268.580000302458
 20
1082.253054167745
 30
0.0
 11
268.580000302458
 21
1082.236104871002
 31
0.0
  0
LINE
  5
A8
330
1F
100
AcDbEntity
  8
Make2D$可见线$普通线
100
AcDbLine
 10
268.580000302458
 20
1081.911378359358
 30
0.0
 11
268.580000302458
 21
1081.892258286063
 31
0.0
  0
LINE
  5
A9
330
1F
100
AcDbEntity
  8
Make2D$可见线$普通线
100
AcDbLine
 10
268.5800003024582
 20
1081.58121080868
 30
0.0
 11
268.580000302458
 21
1081.560116979141
 31
0.0
  0
LINE
  5
AA
330
1F
100
AcDbEntity
  8
Make2D$可见线$普通线
100
AcDbLine
 10
268.580000302458
 20
1081.2627058868
 30
0.0
 11
268.580000302458
 21
1081.239839121129
 31
0.0
  0
LINE
  5
AB
330
1F
100
AcDbEntity
  8
Make2D$可见线$普通线
100
AcDbLine
 10
268.580000302458
 20
1080.956017964807
 30
0.0
 11
268.580000302458
 21
1080.931582882921
 31
0.0
  0
LINE
  5
AC
330
1F
100
AcDbEntity
  8
Make2D$可见线$普通线
100
AcDbLine
 10
268.580000302458
 20
1080.66130141379
 30
0.0
 11
268.580000302458
 21
1080.635506435411
 31
0.0
  0
LINE
  5
AD
330
1F
100
AcDbEntity
  8
Make2D$可见线$普通线
100
AcDbLine
 10
268.580000302458
 20
1080.378710604838
 30
0.0
 11
268.580000302458
 21
1080.351767949491
 31
0.0
  0
LINE
  5
AE
330
1F
100
AcDbEntity
  8
Make2D$可见线$普通线
100
AcDbLine
 10
268.580000302458
 20
1080.10839990904
 30
0.0
 11
268.580000302458
 21
1080.080525596055
 31
0.0
  0
LINE
  5
AF
330
1F
100
AcDbEntity
  8
Make2D$可见线$普通线
100
AcDbLine
 10
268.580000302458
 20
1079.850523697486
 30
0.0
 11
268.580000302458
 21
1079.821937545997
 31
0.0
  0
LINE
  5
B0
330
1F
100
AcDbEntity
  8
Make2D$可见线$普通线
100
AcDbLine
 10
268.5800003024578
 20
1079.605236341265
 30
0.0
 11
268.580000302458
 21
1079.57616197021
 31
0.0
  0
LINE
  5
B1
330
1F
100
AcDbEntity
  8
Make2D$可见线$普通线
100
AcDbLine
 10
268.580000302458
 20
1079.372692211466
 30
0.0
 11
268.580000302458
 21
1079.343357039588
 31
0.0
  0
LINE
  5
B2
330
1F
100
AcDbEntity
  8
Make2D$可见线$普通线
100
AcDbLine
 10
268.580000302458
 20
1079.153045679178
 30
0.0
 11
268.580000302458
 21
1079.123680925024
 31
0.0
  0
LINE
  5
B3
330
1F
100
AcDbEntity
  8
Make2D$可见线$普通线
100
AcDbLine
 10
268.580000302458
 20
1078.946451115493
 30
0.0
 11
268.580000302458
 21
1078.917291797411
 31
0.0
  0
LINE
  5
B4
330
1F
100
AcDbEntity
  8
Make2D$可见线$普通线
100
AcDbLine
 10
268.5800003024578
 20
1078.753062891502
 30
0.0
 11
268.580000302458
 21
1078.724347827643
 31
0.0
  0
LINE
  5
B5
330
1F
100
AcDbEntity
  8
Make2D$可见线$普通线
100
AcDbLine
 10
268.580000302458
 20
1078.573035378297
 30
0.0
 11
268.580000302458
 21
1078.545007186614
 31
0.0
  0
LINE
  5
B6
330
1F
100
AcDbEntity
  8
Make2D$可见线$普通线
100
AcDbLine
 10
268.580000302458
 20
1078.406522946975
 30
0.0
 11
268.580000302458
 21
1078.379428045216
 31
0.0
  0
LINE
  5
B7
330
1F
100
AcDbEntity
  8
Make2D$可见线$普通线
100
AcDbLine
 10
268.5800003024582
 20
1078.253679968639
 30
0.0
 11
268.5800003024581
 21
1078.227768574344
 31
0.0
  0
LINE
  5
B8
330
1F
100
AcDbEntity
  8
Make2D$可见线$普通线
100
AcDbLine
 10
268.5800003024581
 20
1078.11466081441
 30
0.0
 11
268.5800003024581
 21
1078.090186944891
 31
0.0
  0
LINE
  5
B9
330
1F
100
AcDbEntity
  8
Make2D$可见线$普通线
100
AcDbLine
 10
268.5800003024581
 20
1077.989619855449
 30
0.0
 11
268.5800003024581
 21
1077.96684132775
 31
0.0
  0
LINE
  5
BA
330
1F
100
AcDbEntity
  8
Make2D$可见线$普通线
100
AcDbLine
 10
268.580000302458
 20
1077.87871146302
 30
0.0
 11
268.580000302458
 21
1077.857889893814
 31
0.0
  0
LINE
  5
BB
330
1F
100
AcDbEntity
  8
Make2D$可见线$普通线
100
AcDbLine
 10
268.5800003024581
 20
1077.782090008699
 30
0.0
 11
268.5800003024581
 21
1077.763490813978
 31
0.0
  0
LINE
  5
BC
330
1F
100
AcDbEntity
  8
Make2D$可见线$普通线
100
AcDbLine
 10
268.5800003024581
 20
1077.683802259134
 30
0.0
 11
268.5800003024581
 21
1077.63232539109
 31
0.0
  0
LINE
  5
BD
330
1F
100
AcDbEntity
  8
Make2D$可见线$普通线
100
AcDbLine
 10
268.5800003024581
 20
1077.618982400176
 30
0.0
 11
268.5800003024581
 21
1077.579490973843
 31
0.0
  0
LINE
  5
BE
330
1F
100
AcDbEntity
  8
Make2D$可见线$普通线
100
AcDbLine
 10
268.5800003024581
 20
1125.443615708306
 30
0.0
 11
268.5800003024582
 21
1125.404124281974
 31
0.0
  0
LINE
  5
BF
330
1F
100
AcDbEntity
  8
Make2D$可见线$普通线
100
AcDbLine
 10
268.5800003024582
 20
1125.39078129106
 30
0.0
 11
268.5800003024582
 21
1125.339304423016
 31
0.0
  0
LINE
  5
C0
330
1F
100
AcDbEntity
  8
Make2D$可见线$普通线
100
AcDbLine
 10
268.5800003024581
 20
1125.259615868172
 30
0.0
 11
268.5800003024581
 21
1125.241016673451
 31
0.0
  0
LINE
  5
C1
330
1F
100
AcDbEntity
  8
Make2D$可见线$普通线
100
AcDbLine
 10
268.5800003024581
 20
1125.165216788336
 30
0.0
 11
268.5800003024581
 21
1125.14439521913
 31
0.0
  0
LINE
  5
C2
330
1F
100
AcDbEntity
  8
Make2D$可见线$普通线
100
AcDbLine
 10
268.5800003024581
 20
1125.0562653544
 30
0.0
 11
268.5800003024581
 21
1125.033486826701
 31
0.0
  0
LINE
  5
C3
330
1F
100
AcDbEntity
  8
Make2D$可见线$普通线
100
AcDbLine
 10
268.5800003024582
 20
1124.932919737259
 30
0.0
 11
268.5800003024582
 21
1124.908445867739
 31
0.0
  0
LINE
  5
C4
330
1F
100
AcDbEntity
  8
Make2D$可见线$普通线
100
AcDbLine
 10
268.5800003024581
 20
1124.795338107805
 30
0.0
 11
268.5800003024581
 21
1124.769426713511
 31
0.0
  0
LINE
  5
C5
330
1F
100
AcDbEntity
  8
Make2D$可见线$普通线
100
AcDbLine
 10
268.5800003024581
 20
1124.643678636933
 30
0.0
 11
268.5800003024581
 21
1124.616583735175
 31
0.0
  0
LINE
  5
C6
330
1F
100
AcDbEntity
  8
Make2D$可见线$普通线
100
AcDbLine
 10
268.5800003024581
 20
1124.478099495536
 30
0.0
 11
268.5800003024581
 21
1124.450071303853
 31
0.0
  0
LINE
  5
C7
330
1F
100
AcDbEntity
  8
Make2D$可见线$普通线
100
AcDbLine
 10
268.5800003024581
 20
1124.298758854506
 30
0.0
 11
268.5800003024581
 21
1124.270043790648
 31
0.0
  0
LINE
  5
C8
330
1F
100
AcDbEntity
  8
Make2D$可见线$普通线
100
AcDbLine
 10
268.5800003024581
 20
1124.105814884738
 30
0.0
 11
268.5800003024581
 21
1124.076655566656
 31
0.0
  0
LINE
  5
C9
330
1F
100
AcDbEntity
  8
Make2D$可见线$普通线
100
AcDbLine
 10
268.5800003024581
 20
1123.899425757126
 30
0.0
 11
268.5800003024581
 21
1123.870061002971
 31
0.0
  0
LINE
  5
CA
330
1F
100
AcDbEntity
  8
Make2D$可见线$普通线
100
AcDbLine
 10
268.5800003024581
 20
1123.679749642562
 30
0.0
 11
268.5800003024581
 21
1123.650414470685
 31
0.0
  0
LINE
  5
CB
330
1F
100
AcDbEntity
  8
Make2D$可见线$普通线
100
AcDbLine
 10
268.5800003024581
 20
1123.44694471194
 30
0.0
 11
268.5800003024581
 21
1123.417870340885
 31
0.0
  0
LINE
  5
CC
330
1F
100
AcDbEntity
  8
Make2D$可见线$普通线
100
AcDbLine
 10
268.5800003024581
 20
1123.201169136152
 30
0.0
 11
268.5800003024581
 21
1123.172582984664
 31
0.0
  0
LINE
  5
CD
330
1F
100
AcDbEntity
  8
Make2D$可见线$普通线
100
AcDbLine
 10
268.5800003024581
 20
1122.942581086095
 30
0.0
 11
268.5800003024581
 21
1122.91470677311
 31
0.0
  0
LINE
  5
CE
330
1F
100
AcDbEntity
  8
Make2D$可见线$普通线
100
AcDbLine
 10
268.5800003024581
 20
1122.671338732659
 30
0.0
 11
268.5800003024581
 21
1122.644396077312
 31
0.0
  0
LINE
  5
CF
330
1F
100
AcDbEntity
  8
Make2D$可见线$普通线
100
AcDbLine
 10
268.5800003024581
 20
1122.387600246739
 30
0.0
 11
268.5800003024581
 21
1122.36180526836
 31
0.0
  0
LINE
  5
D0
330
1F
100
AcDbEntity
  8
Make2D$可见线$普通线
100
AcDbLine
 10
268.5800003024581
 20
1122.091523799229
 30
0.0
 11
268.5800003024581
 21
1122.067088717343
 31
0.0
  0
LINE
  5
D1
330
1F
100
AcDbEntity
  8
Make2D$可见线$普通线
100
AcDbLine
 10
268.5800003024581
 20
1121.78326756102
 30
0.0
 11
268.5800003024581
 21
1121.76040079535
 31
0.0
  0
LINE
  5
D2
330
1F
100
AcDbEntity
  8
Make2D$可见线$普通线
100
AcDbLine
 10
268.5800003024581
 20
1121.462989703009
 30
0.0
 11
268.5800003024581
 21
1121.44189587347
 31
0.0
  0
LINE
  5
D3
330
1F
100
AcDbEntity
  8
Make2D$可见线$普通线
100
AcDbLine
 10
268.5800003024581
 20
1121.130848396087
 30
0.0
 11
268.5800003024581
 21
1121.111728322792
 31
0.0
  0
LINE
  5
D4
330
1F
100
AcDbEntity
  8
Make2D$可见线$普通线
100
AcDbLine
 10
268.5800003024581
 20
1120.787001811148
 30
0.0
 11
268.5800003024581
 21
1120.770052514406
 31
0.0
  0
LINE
  5
D5
330
1F
100
AcDbEntity
  8
Make2D$可见线$普通线
100
AcDbLine
 10
268.5800003024581
 20
1120.431608119085
 30
0.0
 11
268.5800003024581
 21
1120.417022819399
 31
0.0
  0
LINE
  5
D6
330
1F
100
AcDbEntity
  8
Make2D$可见线$普通线
100
AcDbLine
 10
268.5800003024581
 20
1120.064825490792
 30
0.0
 11
268.5800003024581
 21
1120.052793598963
 31
0.0
  0
LINE
  5
D7
330
1F
100
AcDbEntity
  8
Make2D$可见线$普通线
100
AcDbLine
 10
268.5800003024581
 20
1118.486969033188
 30
0.0
 11
268.5800003024581
 21
1101.511553341075
 31
0.0
  0
LINE
  5
D8
330
1F
100
AcDbEntity
  8
Make2D$可见线$普通线
100
AcDbLine
 10
162.0150001008203
 20
1078.511553341075
 30
0.0
 11
166.0150000000015
 21
1078.511553341075
 31
0.0
  0
LINE
  5
D9
330
1F
100
AcDbEntity
  8
Make2D$可见线$普通线
100
AcDbLine
 10
160.8056230081893
 20
1078.511553341075
 30
0.0
 11
162.0150001008203
 21
1078.511553341075
 31
0.0
  0
LINE
  5
DA
330
1F
100
AcDbEntity
  8
Make2D$可见线$普通线
100
AcDbLine
 10
164.5494122667184
 20
1071.369288974562
 30
0.0
 11
167.7184979865815
 21
1071.369288974562
 31
0.0
  0
LINE
  5
DB
330
1F
100
AcDbEntity
  8
Make2D$可见线$普通线
100
AcDbLine
 10
172.9211045334773
 20
1071.369288974562
 30
0.0
 11
172.9885277802009
 21
1071.369288974562
 31
0.0
  0
LINE
  5
DC
330
1F
100
AcDbEntity
  8
Make2D$可见线$普通线
100
AcDbLine
 10
150.9237308136671
 20
1071.369288974562
 30
0.0
 11
150.9602322040402
 21
1071.369288974562
 31
0.0
  0
LINE
  5
DD
330
1F
100
AcDbEntity
  8
Make2D$可见线$普通线
100
AcDbLine
 10
151.0413003880078
 20
1071.369288974562
 30
0.0
 11
151.1088954665256
 21
1071.369288974562
 31
0.0
  0
LINE
  5
DE
330
1F
100
AcDbEntity
  8
Make2D$可见线$普通线
100
AcDbLine
 10
151.136630864171
 20
1071.369288974562
 30
0.0
 11
152.794921327758
 21
1071.369288974562
 31
0.0
  0
LINE
  5
DF
330
1F
100
AcDbEntity
  8
Make2D$可见线$普通线
100
AcDbLine
 10
156.312074952181
 20
1071.369288974562
 30
0.0
 11
159.8541604189922
 21
1071.369288974562
 31
0.0
  0
ARC
  5
E0
330
1F
100
AcDbEntity
  8
Make2D$可见线$普通线
100
AcDbCircle
 10
158.0382295525124
 20
969.0775064105577
 30
0.0
 40
93.2175706751812
100
AcDbArc
 50
91.42334219152325
 51
93.13665525277159
  0
LINE
  5
E1
330
1F
100
AcDbEntity
  8
Make2D$可见线$普通线
100
AcDbLine
 10
156.1480739036701
 20
1062.278184831965
 30
0.0
 11
162.0150000000015
 21
1062.43234417094
 31
0.0
  0
SPLINE
  5
E2
330
1F
100
AcDbEntity
  8
Make2D$可见线$普通线
100
AcDbSpline
210
0.0
220
0.0
230
1.0
 70
    12
 71
     3
 72
    29
 73
    25
 74
     0
 42
0.000000001
 43
0.0000000001
 12
1.0
 22
0.0
 32
0.0
 13
1.0
 23
0.0
 33
0.0
 40
0.0
 40
0.0
 40
0.0
 40
0.0
 40
1.025163317273451
 40
1.025163317273451
 40
1.025163317273451
 40
3.623321626962997
 40
3.623321626962997
 40
3.623321626962997
 40
6.22157213916675
 40
6.22157213916675
 40
6.22157213916675
 40
8.311290795692107
 40
8.311290795692107
 40
8.311290795692107
 40
8.817545966062264
 40
8.817545966062264
 40
8.817545966062264
 40
11.41600425765173
 40
11.41600425765173
 40
11.41600425765173
 40
12.35123777745677
 40
12.35123777745677
 40
12.35123777745677
 40
14.95002259197584
 40
14.95002259197584
 40
14.95002259197584
 40
14.95002259197584
 10
162.0150000000015
 20
1062.43234417094
 30
0.0
 41
1.0
 10
162.3565491528498
 20
1062.440812374035
 30
0.0
 41
1.0
 10
162.6978971298307
 20
1062.449283243171
 30
0.0
 41
1.0
 10
163.0378396314761
 20
1062.457750444471
 30
0.0
 41
1.0
 10
163.8984766096626
 20
1062.479186971251
 30
0.0
 41
1.0
 10
164.7455622017576
 20
1062.500532560504
 30
0.0
 41
1.0
 10
165.5600619856546
 20
1062.521962149577
 30
0.0
 41
1.0
 10
166.3745905229895
 20
1062.543392495156
 30
0.0
 41
1.0
 10
167.1503606309163
 20
1062.564745816307
 30
0.0
 41
1.0
 10
167.8699391924192
 20
1062.586176627988
 30
0.0
 41
1.0
 10
168.4489359353264
 20
1062.603420568852
 30
0.0
 41
1.0
 10
168.9883692667325
 20
1062.62060690072
 30
0.0
 41
1.0
 10
169.4803701903732
 20
1062.637862798303
 30
0.0
 41
1.0
 10
169.5996532911292
 20
1062.642046402176
 30
0.0
 41
1.0
 10
169.7160603842965
 20
1062.646229474431
 30
0.0
 41
1.0
 10
169.829491200644
 20
1062.650410787884
 30
0.0
 41
1.0
 10
170.4109980329154
 20
1062.67184642962
 30
0.0
 41
1.0
 10
170.9116537665076
 20
1062.693196445256
 30
0.0
 41
1.0
 10
171.3202058574124
 20
1062.714630344156
 30
0.0
 41
1.0
 10
171.6316402750352
 20
1062.72909906168
 30
0.0
 41
0.9998343379863555
 10
171.9426747696394
 20
1062.750506617196
 30
0.0
 41
0.9998343379863552
 10
172.2531547614229
 20
1062.778842371445
 30
0.0
 41
1.0
 10
172.4643142792879
 20
1062.800277307699
 30
0.0
 41
1.0
 10
172.5716068849822
 20
1062.82163229145
 30
0.0
 41
1.0
 10
172.5726205210595
 20
1062.843068002116
 30
0.0
 41
1.0
  0
POLYLINE
  5
E3
330
1F
100
AcDbEntity
  8
Make2D$可见线$普通线
100
AcDb2dPolyline
 66
     1
 10
0.0
 20
0.0
 30
0.0
  0
VERTEX
  5
E4
330
E3
100
AcDbEntity
  8
Make2D$可见线$普通线
100
AcDbVertex
100
AcDb2dVertex
 10
151.7654651431656
 20
1063.602000068781
 30
0.0
  0
VERTEX
  5
E5
330
E3
100
AcDbEntity
  8
Make2D$可见线$普通线
100
AcDbVertex
100
AcDb2dVertex
 10
151.6627193711768
 20
1063.613676623794
 30
0.0
  0
VERTEX
  5
E6
330
E3
100
AcDbEntity
  8
Make2D$可见线$普通线
100
AcDbVertex
100
AcDb2dVertex
 10
151.6146871536565
 20
1063.620140649584
 30
0.0
  0
VERTEX
  5
E7
330
E3
100
AcDbEntity
  8
Make2D$可见线$普通线
100
AcDbVertex
100
AcDb2dVertex
 10
151.5730210854774
 20
1063.62660076486
 30
0.0
  0
VERTEX
  5
E8
330
E3
100
AcDbEntity
  8
Make2D$可见线$普通线
100
AcDbVertex
100
AcDb2dVertex
 10
151.5377329240692
 20
1063.63305845995
 30
0.0
  0
VERTEX
  5
E9
330
E3
100
AcDbEntity
  8
Make2D$可见线$普通线
100
AcDbVertex
100
AcDb2dVertex
 10
151.5224842326011
 20
1063.636286865652
 30
0.0
  0
VERTEX
  5
EA
330
E3
100
AcDbEntity
  8
Make2D$可见线$普通线
100
AcDbVertex
100
AcDb2dVertex
 10
151.508834426862
 20
1063.639515225182
 30
0.0
  0
VERTEX
  5
EB
330
E3
100
AcDbEntity
  8
Make2D$可见线$普通线
100
AcDbVertex
100
AcDb2dVertex
 10
151.4967849765306
 20
1063.642743724829
 30
0.0
  0
VERTEX
  5
EC
330
E3
100
AcDbEntity
  8
Make2D$可见线$普通线
100
AcDbVertex
100
AcDb2dVertex
 10
151.4913608439174
 20
1063.644358085412
 30
0.0
  0
VERTEX
  5
ED
330
E3
100
AcDbEntity
  8
Make2D$可见线$普通线
100
AcDbVertex
100
AcDb2dVertex
 10
151.4863373512857
 20
1063.645972550885
 30
0.0
  0
VERTEX
  5
EE
330
E3
100
AcDbEntity
  8
Make2D$可见线$普通线
100
AcDbVertex
100
AcDb2dVertex
 10
151.4817146823452
 20
1063.647587144532
 30
0.0
  0
VERTEX
  5
EF
330
E3
100
AcDbEntity
  8
Make2D$可见线$普通线
100
AcDbVertex
100
AcDb2dVertex
 10
151.477493020806
 20
1063.649201889641
 30
0.0
  0
VERTEX
  5
F0
330
E3
100
AcDbEntity
  8
Make2D$可见线$普通线
100
AcDbVertex
100
AcDb2dVertex
 10
151.4755326252211
 20
1063.65000932627
 30
0.0
  0
VERTEX
  5
F1
330
E3
100
AcDbEntity
  8
Make2D$可见线$普通线
100
AcDbVertex
100
AcDb2dVertex
 10
151.4736725503777
 20
1063.650816809497
 30
0.0
  0
VERTEX
  5
F2
330
E3
100
AcDbEntity
  8
Make2D$可见线$普通线
100
AcDbVertex
100
AcDb2dVertex
 10
151.4719128192395
 20
1063.651624342233
 30
0.0
  0
VERTEX
  5
F3
330
E3
100
AcDbEntity
  8
Make2D$可见线$普通线
100
AcDbVertex
100
AcDb2dVertex
 10
151.4702534547703
 20
1063.652431927388
 30
0.0
  0
VERTEX
  5
F4
330
E3
100
AcDbEntity
  8
Make2D$可见线$普通线
100
AcDbVertex
100
AcDb2dVertex
 10
151.4686944799337
 20
1063.653239567873
 30
0.0
  0
VERTEX
  5
F5
330
E3
100
AcDbEntity
  8
Make2D$可见线$普通线
100
AcDbVertex
100
AcDb2dVertex
 10
151.4672359176936
 20
1063.654047266599
 30
0.0
  0
VERTEX
  5
F6
330
E3
100
AcDbEntity
  8
Make2D$可见线$普通线
100
AcDbVertex
100
AcDb2dVertex
 10
151.4658777910135
 20
1063.654855026477
 30
0.0
  0
VERTEX
  5
F7
330
E3
100
AcDbEntity
  8
Make2D$可见线$普通线
100
AcDbVertex
100
AcDb2dVertex
 10
151.4652363981847
 20
1063.655258930257
 30
0.0
  0
VERTEX
  5
F8
330
E3
100
AcDbEntity
  8
Make2D$可见线$普通线
100
AcDbVertex
100
AcDb2dVertex
 10
151.4646201228573
 20
1063.655662850417
 30
0.0
  0
VERTEX
  5
F9
330
E3
100
AcDbEntity
  8
Make2D$可见线$普通线
100
AcDbVertex
100
AcDb2dVertex
 10
151.4640289679018
 20
1063.65606678732
 30
0.0
  0
VERTEX
  5
FA
330
E3
100
AcDbEntity
  8
Make2D$可见线$普通线
100
AcDbVertex
100
AcDb2dVertex
 10
151.4634629361887
 20
1063.656470741331
 30
0.0
  0
VERTEX
  5
FB
330
E3
100
AcDbEntity
  8
Make2D$可见线$普通线
100
AcDbVertex
100
AcDb2dVertex
 10
151.4629220305884
 20
1063.656874712812
 30
0.0
  0
VERTEX
  5
FC
330
E3
100
AcDbEntity
  8
Make2D$可见线$普通线
100
AcDbVertex
100
AcDb2dVertex
 10
151.4624062539714
 20
1063.657278702129
 30
0.0
  0
VERTEX
  5
FD
330
E3
100
AcDbEntity
  8
Make2D$可见线$普通线
100
AcDbVertex
100
AcDb2dVertex
 10
151.4619156092082
 20
1063.657682709644
 30
0.0
  0
VERTEX
  5
FE
330
E3
100
AcDbEntity
  8
Make2D$可见线$普通线
100
AcDbVertex
100
AcDb2dVertex
 10
151.4614500991692
 20
1063.658086735721
 30
0.0
  0
VERTEX
  5
FF
330
E3
100
AcDbEntity
  8
Make2D$可见线$普通线
100
AcDbVertex
100
AcDb2dVertex
 10
151.4610097267249
 20
1063.658490780726
 30
0.0
  0
VERTEX
  5
100
330
E3
100
AcDbEntity
  8
Make2D$可见线$普通线
100
AcDbVertex
100
AcDb2dVertex
 10
151.4605944947458
 20
1063.65889484502
 30
0.0
  0
VERTEX
  5
101
330
E3
100
AcDbEntity
  8
Make2D$可见线$普通线
100
AcDbVertex
100
AcDb2dVertex
 10
151.4602044061023
 20
1063.659298928968
 30
0.0
  0
VERTEX
  5
102
330
E3
100
AcDbEntity
  8
Make2D$可见线$普通线
100
AcDbVertex
100
AcDb2dVertex
 10
151.4598394636649
 20
1063.659703032935
 30
0.0
  0
VERTEX
  5
103
330
E3
100
AcDbEntity
  8
Make2D$可见线$普通线
100
AcDbVertex
100
AcDb2dVertex
 10
151.4596664231705
 20
1063.659905092539
 30
0.0
  0
VERTEX
  5
104
330
E3
100
AcDbEntity
  8
Make2D$可见线$普通线
100
AcDbVertex
100
AcDb2dVertex
 10
151.459499670304
 20
1063.660107157283
 30
0.0
  0
VERTEX
  5
105
330
E3
100
AcDbEntity
  8
Make2D$可见线$普通线
100
AcDbVertex
100
AcDb2dVertex
 10
151.4593392054243
 20
1063.660309227214
 30
0.0
  0
VERTEX
  5
106
330
E3
100
AcDbEntity
  8
Make2D$可见线$普通线
100
AcDbVertex
100
AcDb2dVertex
 10
151.4591850288901
 20
1063.660511302377
 30
0.0
  0
VERTEX
  5
107
330
E3
100
AcDbEntity
  8
Make2D$可见线$普通线
100
AcDbVertex
100
AcDb2dVertex
 10
151.4590371410604
 20
1063.660713382817
 30
0.0
  0
VERTEX
  5
108
330
E3
100
AcDbEntity
  8
Make2D$可见线$普通线
100
AcDbVertex
100
AcDb2dVertex
 10
151.4588955422938
 20
1063.660915468581
 30
0.0
  0
VERTEX
  5
109
330
E3
100
AcDbEntity
  8
Make2D$可见线$普通线
100
AcDbVertex
100
AcDb2dVertex
 10
151.4587602329492
 20
1063.661117559712
 30
0.0
  0
VERTEX
  5
10A
330
E3
100
AcDbEntity
  8
Make2D$可见线$普通线
100
AcDbVertex
100
AcDb2dVertex
 10
151.4586312133854
 20
1063.661319656258
 30
0.0
  0
VERTEX
  5
10B
330
E3
100
AcDbEntity
  8
Make2D$可见线$普通线
100
AcDbVertex
100
AcDb2dVertex
 10
151.4585084839613
 20
1063.661521758262
 30
0.0
  0
VERTEX
  5
10C
330
E3
100
AcDbEntity
  8
Make2D$可见线$普通线
100
AcDbVertex
100
AcDb2dVertex
 10
151.4583920450355
 20
1063.661723865772
 30
0.0
  0
VERTEX
  5
10D
330
E3
100
AcDbEntity
  8
Make2D$可见线$普通线
100
AcDbVertex
100
AcDb2dVertex
 10
151.458281896967
 20
1063.661925978831
 30
0.0
  0
VERTEX
  5
10E
330
E3
100
AcDbEntity
  8
Make2D$可见线$普通线
100
AcDbVertex
100
AcDb2dVertex
 10
151.4581780401144
 20
1063.662128097487
 30
0.0
  0
VERTEX
  5
10F
330
E3
100
AcDbEntity
  8
Make2D$可见线$普通线
100
AcDbVertex
100
AcDb2dVertex
 10
151.4580804748367
 20
1063.662330221783
 30
0.0
  0
VERTEX
  5
110
330
E3
100
AcDbEntity
  8
Make2D$可见线$普通线
100
AcDbVertex
100
AcDb2dVertex
 10
151.4579892014927
 20
1063.662532351767
 30
0.0
  0
VERTEX
  5
111
330
E3
100
AcDbEntity
  8
Make2D$可见线$普通线
100
AcDbVertex
100
AcDb2dVertex
 10
151.4579042204412
 20
1063.662734487482
 30
0.0
  0
VERTEX
  5
112
330
E3
100
AcDbEntity
  8
Make2D$可见线$普通线
100
AcDbVertex
100
AcDb2dVertex
 10
151.4578255320409
 20
1063.662936628975
 30
0.0
  0
VERTEX
  5
113
330
E3
100
AcDbEntity
  8
Make2D$可见线$普通线
100
AcDbVertex
100
AcDb2dVertex
 10
151.4577531366506
 20
1063.663138776292
 30
0.0
  0
VERTEX
  5
114
330
E3
100
AcDbEntity
  8
Make2D$可见线$普通线
100
AcDbVertex
100
AcDb2dVertex
 10
151.4576870346293
 20
1063.663340929477
 30
0.0
  0
VERTEX
  5
115
330
E3
100
AcDbEntity
  8
Make2D$可见线$普通线
100
AcDbVertex
100
AcDb2dVertex
 10
151.4576272263356
 20
1063.663543088576
 30
0.0
  0
VERTEX
  5
116
330
E3
100
AcDbEntity
  8
Make2D$可见线$普通线
100
AcDbVertex
100
AcDb2dVertex
 10
151.4575737121285
 20
1063.663745253635
 30
0.0
  0
VERTEX
  5
117
330
E3
100
AcDbEntity
  8
Make2D$可见线$普通线
100
AcDbVertex
100
AcDb2dVertex
 10
151.4575264923666
 20
1063.663947424699
 30
0.0
  0
VERTEX
  5
118
330
E3
100
AcDbEntity
  8
Make2D$可见线$普通线
100
AcDbVertex
100
AcDb2dVertex
 10
151.4574855674089
 20
1063.664149601813
 30
0.0
  0
VERTEX
  5
119
330
E3
100
AcDbEntity
  8
Make2D$可见线$普通线
100
AcDbVertex
100
AcDb2dVertex
 10
151.4574509376141
 20
1063.664351785024
 30
0.0
  0
VERTEX
  5
11A
330
E3
100
AcDbEntity
  8
Make2D$可见线$普通线
100
AcDbVertex
100
AcDb2dVertex
 10
151.4574226033409
 20
1063.664553974376
 30
0.0
  0
VERTEX
  5
11B
330
E3
100
AcDbEntity
  8
Make2D$可见线$普通线
100
AcDbVertex
100
AcDb2dVertex
 10
151.4574005649484
 20
1063.664756169915
 30
0.0
  0
VERTEX
  5
11C
330
E3
100
AcDbEntity
  8
Make2D$可见线$普通线
100
AcDbVertex
100
AcDb2dVertex
 10
151.4573848227952
 20
1063.664958371686
 30
0.0
  0
VERTEX
  5
11D
330
E3
100
AcDbEntity
  8
Make2D$可见线$普通线
100
AcDbVertex
100
AcDb2dVertex
 10
151.4573753772401
 20
1063.665160579736
 30
0.0
  0
VERTEX
  5
11E
330
E3
100
AcDbEntity
  8
Make2D$可见线$普通线
100
AcDbVertex
100
AcDb2dVertex
 10
151.457372228642
 20
1063.665362794109
 30
0.0
  0
VERTEX
  5
11F
330
E3
100
AcDbEntity
  8
Make2D$可见线$普通线
100
AcDbVertex
100
AcDb2dVertex
 10
151.4573751898717
 20
1063.665558900144
 30
0.0
  0
VERTEX
  5
120
330
E3
100
AcDbEntity
  8
Make2D$可见线$普通线
100
AcDbVertex
100
AcDb2dVertex
 10
151.4573840735077
 20
1063.665755005373
 30
0.0
  0
VERTEX
  5
121
330
E3
100
AcDbEntity
  8
Make2D$可见线$普通线
100
AcDbVertex
100
AcDb2dVertex
 10
151.4573988794703
 20
1063.665951109767
 30
0.0
  0
VERTEX
  5
122
330
E3
100
AcDbEntity
  8
Make2D$可见线$普通线
100
AcDbVertex
100
AcDb2dVertex
 10
151.45741960768
 20
1063.666147213298
 30
0.0
  0
VERTEX
  5
123
330
E3
100
AcDbEntity
  8
Make2D$可见线$普通线
100
AcDbVertex
100
AcDb2dVertex
 10
151.457446258057
 20
1063.666343315938
 30
0.0
  0
VERTEX
  5
124
330
E3
100
AcDbEntity
  8
Make2D$可见线$普通线
100
AcDbVertex
100
AcDb2dVertex
 10
151.4574788305219
 20
1063.66653941766
 30
0.0
  0
VERTEX
  5
125
330
E3
100
AcDbEntity
  8
Make2D$可见线$普通线
100
AcDbVertex
100
AcDb2dVertex
 10
151.457517324995
 20
1063.666735518434
 30
0.0
  0
VERTEX
  5
126
330
E3
100
AcDbEntity
  8
Make2D$可见线$普通线
100
AcDbVertex
100
AcDb2dVertex
 10
151.4575617413966
 20
1063.666931618233
 30
0.0
  0
VERTEX
  5
127
330
E3
100
AcDbEntity
  8
Make2D$可见线$普通线
100
AcDbVertex
100
AcDb2dVertex
 10
151.4576120796472
 20
1063.667127717029
 30
0.0
  0
VERTEX
  5
128
330
E3
100
AcDbEntity
  8
Make2D$可见线$普通线
100
AcDbVertex
100
AcDb2dVertex
 10
151.457668339667
 20
1063.667323814793
 30
0.0
  0
VERTEX
  5
129
330
E3
100
AcDbEntity
  8
Make2D$可见线$普通线
100
AcDbVertex
100
AcDb2dVertex
 10
151.4577305213766
 20
1063.667519911498
 30
0.0
  0
VERTEX
  5
12A
330
E3
100
AcDbEntity
  8
Make2D$可见线$普通线
100
AcDbVertex
100
AcDb2dVertex
 10
151.4577986246962
 20
1063.667716007116
 30
0.0
  0
VERTEX
  5
12B
330
E3
100
AcDbEntity
  8
Make2D$可见线$普通线
100
AcDbVertex
100
AcDb2dVertex
 10
151.4578726495463
 20
1063.667912101617
 30
0.0
  0
VERTEX
  5
12C
330
E3
100
AcDbEntity
  8
Make2D$可见线$普通线
100
AcDbVertex
100
AcDb2dVertex
 10
151.4579525958472
 20
1063.668108194975
 30
0.0
  0
VERTEX
  5
12D
330
E3
100
AcDbEntity
  8
Make2D$可见线$普通线
100
AcDbVertex
100
AcDb2dVertex
 10
151.4580384635194
 20
1063.668304287161
 30
0.0
  0
VERTEX
  5
12E
330
E3
100
AcDbEntity
  8
Make2D$可见线$普通线
100
AcDbVertex
100
AcDb2dVertex
 10
151.4581302524831
 20
1063.668500378147
 30
0.0
  0
VERTEX
  5
12F
330
E3
100
AcDbEntity
  8
Make2D$可见线$普通线
100
AcDbVertex
100
AcDb2dVertex
 10
151.4582279626589
 20
1063.668696467905
 30
0.0
  0
VERTEX
  5
130
330
E3
100
AcDbEntity
  8
Make2D$可见线$普通线
100
AcDbVertex
100
AcDb2dVertex
 10
151.4583315939669
 20
1063.668892556407
 30
0.0
  0
VERTEX
  5
131
330
E3
100
AcDbEntity
  8
Make2D$可见线$普通线
100
AcDbVertex
100
AcDb2dVertex
 10
151.4584411463277
 20
1063.669088643625
 30
0.0
  0
VERTEX
  5
132
330
E3
100
AcDbEntity
  8
Make2D$可见线$普通线
100
AcDbVertex
100
AcDb2dVertex
 10
151.4585566196616
 20
1063.66928472953
 30
0.0
  0
VERTEX
  5
133
330
E3
100
AcDbEntity
  8
Make2D$可见线$普通线
100
AcDbVertex
100
AcDb2dVertex
 10
151.458678013889
 20
1063.669480814095
 30
0.0
  0
VERTEX
  5
134
330
E3
100
AcDbEntity
  8
Make2D$可见线$普通线
100
AcDbVertex
100
AcDb2dVertex
 10
151.4588053289303
 20
1063.669676897292
 30
0.0
  0
VERTEX
  5
135
330
E3
100
AcDbEntity
  8
Make2D$可见线$普通线
100
AcDbVertex
100
AcDb2dVertex
 10
151.4589385647058
 20
1063.669872979091
 30
0.0
  0
VERTEX
  5
136
330
E3
100
AcDbEntity
  8
Make2D$可见线$普通线
100
AcDbVertex
100
AcDb2dVertex
 10
151.459077721136
 20
1063.670069059467
 30
0.0
  0
VERTEX
  5
137
330
E3
100
AcDbEntity
  8
Make2D$可见线$普通线
100
AcDbVertex
100
AcDb2dVertex
 10
151.4592227981412
 20
1063.670265138389
 30
0.0
  0
VERTEX
  5
138
330
E3
100
AcDbEntity
  8
Make2D$可见线$普通线
100
AcDbVertex
100
AcDb2dVertex
 10
151.4593737956418
 20
1063.670461215831
 30
0.0
  0
VERTEX
  5
139
330
E3
100
AcDbEntity
  8
Make2D$可见线$普通线
100
AcDbVertex
100
AcDb2dVertex
 10
151.4595307135581
 20
1063.670657291763
 30
0.0
  0
VERTEX
  5
13A
330
E3
100
AcDbEntity
  8
Make2D$可见线$普通线
100
AcDbVertex
100
AcDb2dVertex
 10
151.4596935518106
 20
1063.670853366158
 30
0.0
  0
VERTEX
  5
13B
330
E3
100
AcDbEntity
  8
Make2D$可见线$普通线
100
AcDbVertex
100
AcDb2dVertex
 10
151.4600369890055
 20
1063.671245510225
 30
0.0
  0
VERTEX
  5
13C
330
E3
100
AcDbEntity
  8
Make2D$可见线$普通线
100
AcDbVertex
100
AcDb2dVertex
 10
151.4604041065896
 20
1063.671637647807
 30
0.0
  0
VERTEX
  5
13D
330
E3
100
AcDbEntity
  8
Make2D$可见线$普通线
100
AcDbVertex
100
AcDb2dVertex
 10
151.4607949039258
 20
1063.672029778678
 30
0.0
  0
VERTEX
  5
13E
330
E3
100
AcDbEntity
  8
Make2D$可见线$普通线
100
AcDbVertex
100
AcDb2dVertex
 10
151.4612093803773
 20
1063.672421902615
 30
0.0
  0
VERTEX
  5
13F
330
E3
100
AcDbEntity
  8
Make2D$可见线$普通线
100
AcDbVertex
100
AcDb2dVertex
 10
151.4616475353071
 20
1063.672814019392
 30
0.0
  0
VERTEX
  5
140
330
E3
100
AcDbEntity
  8
Make2D$可见线$普通线
100
AcDbVertex
100
AcDb2dVertex
 10
151.4621093680782
 20
1063.673206128784
 30
0.0
  0
VERTEX
  5
141
330
E3
100
AcDbEntity
  8
Make2D$可见线$普通线
100
AcDbVertex
100
AcDb2dVertex
 10
151.4625948780536
 20
1063.673598230567
 30
0.0
  0
VERTEX
  5
142
330
E3
100
AcDbEntity
  8
Make2D$可见线$普通线
100
AcDbVertex
100
AcDb2dVertex
 10
151.4631040645963
 20
1063.673990324516
 30
0.0
  0
VERTEX
  5
143
330
E3
100
AcDbEntity
  8
Make2D$可见线$普通线
100
AcDbVertex
100
AcDb2dVertex
 10
151.4636369270695
 20
1063.674382410406
 30
0.0
  0
VERTEX
  5
144
330
E3
100
AcDbEntity
  8
Make2D$可见线$普通线
100
AcDbVertex
100
AcDb2dVertex
 10
151.4641934648361
 20
1063.674774488013
 30
0.0
  0
VERTEX
  5
145
330
E3
100
AcDbEntity
  8
Make2D$可见线$普通线
100
AcDbVertex
100
AcDb2dVertex
 10
151.4647736772592
 20
1063.675166557111
 30
0.0
  0
VERTEX
  5
146
330
E3
100
AcDbEntity
  8
Make2D$可见线$普通线
100
AcDbVertex
100
AcDb2dVertex
 10
151.4653775637018
 20
1063.675558617477
 30
0.0
  0
VERTEX
  5
147
330
E3
100
AcDbEntity
  8
Make2D$可见线$普通线
100
AcDbVertex
100
AcDb2dVertex
 10
151.4666563560978
 20
1063.67634271111
 30
0.0
  0
VERTEX
  5
148
330
E3
100
AcDbEntity
  8
Make2D$可见线$普通线
100
AcDbVertex
100
AcDb2dVertex
 10
151.4680298369283
 20
1063.677126767113
 30
0.0
  0
VERTEX
  5
149
330
E3
100
AcDbEntity
  8
Make2D$可见线$普通线
100
AcDbVertex
100
AcDb2dVertex
 10
151.4694980010976
 20
1063.67791078369
 30
0.0
 42
-0.0581314772535073
  0
VERTEX
  5
14A
330
E3
100
AcDbEntity
  8
Make2D$可见线$普通线
100
AcDbVertex
100
AcDb2dVertex
 10
151.908425013503
 20
1063.742130339962
 30
0.0
  0
VERTEX
  5
14B
330
E3
100
AcDbEntity
  8
Make2D$可见线$普通线
100
AcDbVertex
100
AcDb2dVertex
 10
152.9529382381495
 20
1063.806342367251
 30
0.0
  0
VERTEX
  5
14C
330
E3
100
AcDbEntity
  8
Make2D$可见线$普通线
100
AcDbVertex
100
AcDb2dVertex
 10
154.5496298096298
 20
1063.870874642652
 30
0.0
  0
VERTEX
  5
14D
330
E3
100
AcDbEntity
  8
Make2D$可见线$普通线
100
AcDbVertex
100
AcDb2dVertex
 10
158.9382652398408
 20
1063.998997765847
 30
0.0
  0
VERTEX
  5
14E
330
E3
100
AcDbEntity
  8
Make2D$可见线$普通线
100
AcDbVertex
100
AcDb2dVertex
 10
162.0150000000015
 20
1064.076364490875
 30
0.0
  0
SEQEND
  5
14F
330
E3
100
AcDbEntity
  8
Make2D$可见线$普通线
  0
POLYLINE
  5
150
330
1F
100
AcDbEntity
  8
Make2D$可见线$普通线
100
AcDb2dPolyline
 66
     1
 10
0.0
 20
0.0
 30
0.0
  0
VERTEX
  5
151
330
150
100
AcDbEntity
  8
Make2D$可见线$普通线
100
AcDbVertex
100
AcDb2dVertex
 10
162.0150000000015
 20
1064.076364490875
 30
0.0
  0
VERTEX
  5
152
330
150
100
AcDbEntity
  8
Make2D$可见线$普通线
100
AcDbVertex
100
AcDb2dVertex
 10
166.5175179487389
 20
1064.19164314226
 30
0.0
  0
VERTEX
  5
153
330
150
100
AcDbEntity
  8
Make2D$可见线$普通线
100
AcDbVertex
100
AcDb2dVertex
 10
169.4803701903732
 20
1064.281852380434
 30
0.0
  0
VERTEX
  5
154
330
150
100
AcDbEntity
  8
Make2D$可见线$普通线
100
AcDbVertex
100
AcDb2dVertex
 10
170.4874519536353
 20
1064.320078718102
 30
0.0
  0
VERTEX
  5
155
330
150
100
AcDbEntity
  8
Make2D$可见线$普通线
100
AcDbVertex
100
AcDb2dVertex
 10
171.9378145007501
 20
1064.394818468666
 30
0.0
  0
VERTEX
  5
156
330
150
100
AcDbEntity
  8
Make2D$可见线$普通线
100
AcDbVertex
100
AcDb2dVertex
 10
172.1110891054075
 20
1064.409029582955
 30
0.0
  0
VERTEX
  5
157
330
150
100
AcDbEntity
  8
Make2D$可见线$普通线
100
AcDbVertex
100
AcDb2dVertex
 10
172.2840212115466
 20
1064.426932964056
 30
0.0
  0
VERTEX
  5
158
330
150
100
AcDbEntity
  8
Make2D$可见线$普通线
100
AcDbVertex
100
AcDb2dVertex
 10
172.45649297333
 20
1064.448515140177
 30
0.0
 42
0.1868687718748855
  0
VERTEX
  5
159
330
150
100
AcDbEntity
  8
Make2D$可见线$普通线
100
AcDbVertex
100
AcDb2dVertex
 10
172.5726277713609
 20
1064.48734416255
 30
0.0
  0
SEQEND
  5
15A
330
150
100
AcDbEntity
  8
Make2D$可见线$普通线
  0
POLYLINE
  5
15B
330
1F
100
AcDbEntity
  8
Make2D$可见线$普通线
100
AcDb2dPolyline
 66
     1
 10
0.0
 20
0.0
 30
0.0
  0
VERTEX
  5
15C
330
15B
100
AcDbEntity
  8
Make2D$可见线$普通线
100
AcDbVertex
100
AcDb2dVertex
 10
151.7166828941532
 20
1065.251249715725
 30
0.0
  0
VERTEX
  5
15D
330
15B
100
AcDbEntity
  8
Make2D$可见线$普通线
100
AcDbVertex
100
AcDb2dVertex
 10
151.5094597654893
 20
1065.283359555807
 30
0.0
 42
-0.2356274959126994
  0
VERTEX
  5
15E
330
15B
100
AcDbEntity
  8
Make2D$可见线$普通线
100
AcDbVertex
100
AcDb2dVertex
 10
151.4573722286419
 20
1065.30935237624
 30
0.0
 42
-0.1889798312830647
  0
VERTEX
  5
15F
330
15B
100
AcDbEntity
  8
Make2D$可见线$普通线
100
AcDbVertex
100
AcDb2dVertex
 10
151.5698006710194
 20
1065.347578713908
 30
0.0
  0
VERTEX
  5
160
330
15B
100
AcDbEntity
  8
Make2D$可见线$普通线
100
AcDbVertex
100
AcDb2dVertex
 10
151.7408602538049
 20
1065.369226176944
 30
0.0
  0
VERTEX
  5
161
330
15B
100
AcDbEntity
  8
Make2D$可见线$普通线
100
AcDbVertex
100
AcDb2dVertex
 10
151.9123903828058
 20
1065.38715535488
 30
0.0
  0
VERTEX
  5
162
330
15B
100
AcDbEntity
  8
Make2D$可见线$普通线
100
AcDbVertex
100
AcDb2dVertex
 10
152.0842696702781
 20
1065.401352224763
 30
0.0
  0
VERTEX
  5
163
330
15B
100
AcDbEntity
  8
Make2D$可见线$普通线
100
AcDbVertex
100
AcDb2dVertex
 10
153.5275012059658
 20
1065.476015135983
 30
0.0
  0
VERTEX
  5
164
330
15B
100
AcDbEntity
  8
Make2D$可见线$普通线
100
AcDbVertex
100
AcDb2dVertex
 10
155.3080043792079
 20
1065.540250431888
 30
0.0
  0
VERTEX
  5
165
330
15B
100
AcDbEntity
  8
Make2D$可见线$普通线
100
AcDbVertex
100
AcDb2dVertex
 10
159.9428537839635
 20
1065.668676615406
 30
0.0
  0
VERTEX
  5
166
330
15B
100
AcDbEntity
  8
Make2D$可见线$普通线
100
AcDbVertex
100
AcDb2dVertex
 10
162.0150000000015
 20
1065.72036278572
 30
0.0
  0
SEQEND
  5
167
330
15B
100
AcDbEntity
  8
Make2D$可见线$普通线
  0
POLYLINE
  5
168
330
1F
100
AcDbEntity
  8
Make2D$可见线$普通线
100
AcDb2dPolyline
 66
     1
 10
0.0
 20
0.0
 30
0.0
  0
VERTEX
  5
169
330
168
100
AcDbEntity
  8
Make2D$可见线$普通线
100
AcDbVertex
100
AcDb2dVertex
 10
162.0150000000015
 20
1065.72036278572
 30
0.0
  0
VERTEX
  5
16A
330
168
100
AcDbEntity
  8
Make2D$可见线$普通线
100
AcDbVertex
100
AcDb2dVertex
 10
167.4318755554264
 20
1065.861342358862
 30
0.0
  0
VERTEX
  5
16B
330
168
100
AcDbEntity
  8
Make2D$可见线$普通线
100
AcDbVertex
100
AcDb2dVertex
 10
169.4803701903732
 20
1065.925874634263
 30
0.0
  0
VERTEX
  5
16C
330
168
100
AcDbEntity
  8
Make2D$可见线$普通线
100
AcDbVertex
100
AcDb2dVertex
 10
171.0642710629397
 20
1065.989788636043
 30
0.0
  0
VERTEX
  5
16D
330
168
100
AcDbEntity
  8
Make2D$可见线$普通线
100
AcDbVertex
100
AcDb2dVertex
 10
172.1143666818384
 20
1066.053997757459
 30
0.0
 42
0.0564179540717786
  0
VERTEX
  5
16E
330
168
100
AcDbEntity
  8
Make2D$可见线$普通线
100
AcDbVertex
100
AcDb2dVertex
 10
172.5593107287796
 20
1066.118225497959
 30
0.0
  0
VERTEX
  5
16F
330
168
100
AcDbEntity
  8
Make2D$可见线$普通线
100
AcDbVertex
100
AcDb2dVertex
 10
172.5726277713609
 20
1066.131364482487
 30
0.0
  0
SEQEND
  5
170
330
168
100
AcDbEntity
  8
Make2D$可见线$普通线
  0
SPLINE
  5
171
330
1F
100
AcDbEntity
  8
Make2D$可见线$普通线
100
AcDbSpline
210
0.0
220
0.0
230
1.0
 70
     8
 71
     3
 72
    14
 73
    10
 74
     0
 42
0.000000001
 43
0.0000000001
 12
1.0
 22
0.0
 32
0.0
 13
1.0
 23
0.0
 33
0.0
 40
47.3493547401781
 40
47.3493547401781
 40
47.3493547401781
 40
47.3493547401781
 40
49.86250989549032
 40
49.86250989549032
 40
49.86250989549032
 40
49.87488673006036
 40
49.87488673006036
 40
49.87488673006036
 40
52.10883219427276
 40
52.10883219427276
 40
52.10883219427276
 40
52.10883219427276
 10
151.7563105809051
 20
1066.890960936248
 30
0.0
 10
151.5587305486019
 20
1066.911684667211
 30
0.0
 10
151.4583597158255
 20
1066.932338578938
 30
0.0
 10
151.4573794789434
 20
1066.953067985339
 30
0.0
 10
151.4573746454103
 20
1066.953170201728
 30
0.0
 10
151.457372228642
 20
1066.953272416671
 30
0.0
 10
151.457372228642
 20
1066.953374630069
 30
0.0
 10
151.457372228642
 20
1066.971800702758
 30
0.0
 10
151.5359099736908
 20
1066.990165364388
 30
0.0
 10
151.6914749209896
 20
1067.008576107244
 30
0.0
  0
SPLINE
  5
172
330
1F
100
AcDbEntity
  8
Make2D$可见线$普通线
100
AcDbSpline
210
0.0
220
0.0
230
1.0
 70
    12
 71
     3
 72
    26
 73
    22
 74
     0
 42
0.000000001
 43
0.0000000001
 12
1.0
 22
0.0
 32
0.0
 13
1.0
 23
0.0
 33
0.0
 40
0.0
 40
0.0
 40
0.0
 40
0.0
 40
0.9295894927722158
 40
0.9295894927722158
 40
0.9295894927722158
 40
3.528602028144967
 40
3.528602028144967
 40
3.528602028144967
 40
4.059152376437964
 40
4.059152376437964
 40
4.059152376437964
 40
6.123835400566513
 40
6.123835400566513
 40
6.123835400566513
 40
8.721911187196575
 40
8.721911187196575
 40
8.721911187196575
 40
11.32043496448276
 40
11.32043496448276
 40
11.32043496448276
 40
12.37035328812185
 40
12.37035328812185
 40
12.37035328812185
 40
12.37035328812185
 10
151.7707993872424
 20
1067.017288631849
 30
0.0
 41
1.0
 10
152.0793858186833
 20
1067.045677948382
 30
0.0
 41
0.9998296603250187
 10
152.3885351235826
 20
1067.067084635262
 30
0.0
 41
0.9998296603250181
 10
152.6980893207631
 20
1067.081497753264
 30
0.0
 41
1.0
 10
153.104934200883
 20
1067.102930993049
 30
0.0
 41
1.0
 10
153.6040462285166
 20
1067.124286434655
 30
0.0
 41
1.0
 10
154.1842028043326
 20
1067.145725493765
 30
0.0
 41
1.0
 10
154.3027753701205
 20
1067.150107214757
 30
0.0
 41
1.0
 10
154.4246227918466
 20
1067.154485585733
 30
0.0
 41
1.0
 10
154.5496298096298
 20
1067.158864478267
 30
0.0
 41
1.0
 10
155.0357458744414
 20
1067.175892722317
 30
0.0
 41
1.0
 10
155.5681804178182
 20
1067.192901111296
 30
0.0
 41
1.0
 10
156.1393502554106
 20
1067.209938308849
 30
0.0
 41
1.0
 10
156.8577472544862
 20
1067.231367086753
 30
0.0
 41
1.0
 10
157.6325411350676
 20
1067.252715705014
 30
0.0
 41
1.0
 10
158.446323033495
 20
1067.274143129677
 30
0.0
 41
1.0
 10
159.2602449353442
 20
1067.295574240724
 30
0.0
 41
1.0
 10
160.1070016746555
 20
1067.316924081468
 30
0.0
 41
1.0
 10
160.9675609613809
 20
1067.338359547418
 30
0.0
 41
1.0
 10
161.3156287210745
 20
1067.347029484198
 30
0.0
 41
1.0
 10
161.665206157322
 20
1067.355685555466
 30
0.0
 41
1.0
 10
162.0150000000015
 20
1067.364352374306
 30
0.0
 41
1.0
  0
SPLINE
  5
173
330
1F
100
AcDbEntity
  8
Make2D$可见线$普通线
100
AcDbSpline
210
0.0
220
0.0
230
1.0
 70
    12
 71
     3
 72
    29
 73
    25
 74
     0
 42
0.000000001
 43
0.0000000001
 12
1.0
 22
0.0
 32
0.0
 13
1.0
 23
0.0
 33
0.0
 40
0.0
 40
0.0
 40
0.0
 40
0.0
 40
1.543979708783769
 40
1.543979708783769
 40
1.543979708783769
 40
4.14295972008976
 40
4.14295972008976
 40
4.14295972008976
 40
6.740996328826355
 40
6.740996328826355
 40
6.740996328826355
 40
8.310310904318246
 40
8.310310904318246
 40
8.310310904318246
 40
9.335474228456473
 40
9.335474228456473
 40
9.335474228456473
 40
11.93363253299153
 40
11.93363253299153
 40
11.93363253299153
 40
12.74990041600125
 40
12.74990041600125
 40
12.74990041600125
 40
14.83961912059469
 40
14.83961912059469
 40
14.83961912059469
 40
14.83961912059469
 10
162.0150000000015
 20
1067.364352374306
 30
0.0
 41
1.0
 10
162.529273659306
 20
1067.377094498657
 30
0.0
 41
1.0
 10
163.042860003055
 20
1067.389835808385
 30
0.0
 41
1.0
 10
163.5516571304028
 20
1067.402578705519
 30
0.0
 41
1.0
 10
164.407423633657
 20
1067.424011500509
 30
0.0
 41
1.0
 10
165.2444750446981
 20
1067.445364406211
 30
0.0
 41
1.0
 10
166.0439907356781
 20
1067.466808043165
 30
0.0
 41
1.0
 10
166.8432168800326
 20
1067.488243914252
 30
0.0
 41
1.0
 10
167.5988802314067
 20
1067.509592531891
 30
0.0
 41
1.0
 10
168.2940021802705
 20
1067.531015127595
 30
0.0
 41
1.0
 10
168.7142156550823
 20
1067.543965464431
 30
0.0
 41
1.0
 10
169.1107621549977
 20
1067.556884105614
 30
0.0
 41
1.0
 10
169.4803701903732
 20
1067.569843794286
 30
0.0
 41
1.0
 10
169.7218819147002
 20
1067.578311999678
 30
0.0
 41
1.0
 10
169.9515316918475
 20
1067.586782970224
 30
0.0
 41
1.0
 10
170.1685092997593
 20
1067.5952504235
 30
0.0
 41
1.0
 10
170.7178343973281
 20
1067.616687587647
 30
0.0
 41
1.0
 10
171.1830377583717
 20
1067.638034237526
 30
0.0
 41
1.0
 10
171.5536659699776
 20
1067.659462128606
 30
0.0
 41
1.0
 10
171.825473921884
 20
1067.672704382833
 30
0.0
 41
0.9996984006793177
 10
172.0967606280531
 20
1067.694115666599
 30
0.0
 41
0.9996984006793173
 10
172.3672806288262
 20
1067.723676607017
 30
0.0
 41
1.0
 10
172.5038442772719
 20
1067.740923137942
 30
0.0
 41
1.0
 10
172.5726277713609
 20
1067.758111497148
 30
0.0
 41
1.0
 10
172.5726277713609
 20
1067.775364891951
 30
0.0
 41
1.0
  0
POLYLINE
  5
174
330
1F
100
AcDbEntity
  8
Make2D$可见线$普通线
100
AcDb2dPolyline
 66
     1
 10
0.0
 20
0.0
 30
0.0
  0
VERTEX
  5
175
330
174
100
AcDbEntity
  8
Make2D$可见线$普通线
100
AcDbVertex
100
AcDb2dVertex
 10
151.7398076276808
 20
1068.536706491532
 30
0.0
  0
VERTEX
  5
176
330
174
100
AcDbEntity
  8
Make2D$可见线$普通线
100
AcDbVertex
100
AcDb2dVertex
 10
151.5735070681974
 20
1068.558514908138
 30
0.0
 42
-0.1868720581557214
  0
VERTEX
  5
177
330
174
100
AcDbEntity
  8
Make2D$可见线$普通线
100
AcDbVertex
100
AcDb2dVertex
 10
151.4573722286421
 20
1068.597343751432
 30
0.0
 42
-0.2382759034093106
  0
VERTEX
  5
178
330
174
100
AcDbEntity
  8
Make2D$可见线$普通线
100
AcDbVertex
100
AcDb2dVertex
 10
151.5070360903743
 20
1068.622751128147
 30
0.0
 42
-0.0334232395671715
  0
VERTEX
  5
179
330
174
100
AcDbEntity
  8
Make2D$可见线$普通线
100
AcDbVertex
100
AcDb2dVertex
 10
152.0703612916137
 20
1068.686960569484
 30
0.0
  0
VERTEX
  5
17A
330
174
100
AcDbEntity
  8
Make2D$可见线$普通线
100
AcDbVertex
100
AcDb2dVertex
 10
153.2298967862388
 20
1068.751195953639
 30
0.0
  0
VERTEX
  5
17B
330
174
100
AcDbEntity
  8
Make2D$可见线$普通线
100
AcDbVertex
100
AcDb2dVertex
 10
154.9158467228223
 20
1068.81539474495
 30
0.0
  0
VERTEX
  5
17C
330
174
100
AcDbEntity
  8
Make2D$可见线$普通线
100
AcDbVertex
100
AcDb2dVertex
 10
159.4385330689169
 20
1068.943847026138
 30
0.0
  0
VERTEX
  5
17D
330
174
100
AcDbEntity
  8
Make2D$可见线$普通线
100
AcDbVertex
100
AcDb2dVertex
 10
162.0026272936448
 20
1069.008067985014
 30
0.0
  0
SEQEND
  5
17E
330
174
100
AcDbEntity
  8
Make2D$可见线$普通线
  0
LINE
  5
17F
330
1F
100
AcDbEntity
  8
Make2D$可见线$普通线
100
AcDbLine
 10
162.0273727063584
 20
1068.015038697135
 30
0.0
 11
162.0150000000015
 21
1068.014733968304
 31
0.0
  0
ARC
  5
180
330
1F
100
AcDbEntity
  8
Make2D$可见线$普通线
100
AcDbCircle
 10
162.0149995118133
 20
1068.508828455565
 30
0.0
 40
0.4993928108685963
100
AcDbArc
 50
89.99994398973959
 51
91.41962079580921
  0
LINE
  5
181
330
1F
100
AcDbEntity
  8
Make2D$可见线$普通线
100
AcDbLine
 10
162.0150000000015
 20
1069.352399498851
 30
0.0
 11
151.457372228642
 21
1069.352399498851
 31
0.0
  0
LINE
  5
182
330
1F
100
AcDbEntity
  8
Make2D$可见线$普通线
100
AcDbLine
 10
172.5726277713609
 20
1069.352399498851
 30
0.0
 11
162.0150000000015
 21
1069.352399498851
 31
0.0
  0
ARC
  5
183
330
1F
100
AcDbEntity
  8
Make2D$可见线$普通线
100
AcDbCircle
 10
162.016235228963
 20
1068.511568302484
 30
0.0
 40
0.4966545000204237
100
AcDbArc
 50
271.2849655951309
 51
90.14250042874818
  0
SPLINE
  5
184
330
1F
100
AcDbEntity
  8
Make2D$可见线$普通线
100
AcDbSpline
210
0.0
220
0.0
230
1.0
 70
    12
 71
     3
 72
    29
 73
    25
 74
     0
 42
0.000000001
 43
0.0000000001
 12
1.0
 22
0.0
 32
0.0
 13
1.0
 23
0.0
 33
0.0
 40
0.0
 40
0.0
 40
0.0
 40
0.0
 40
1.025136972465643
 40
1.025136972465643
 40
1.025136972465643
 40
3.623660609046709
 40
3.623660609046709
 40
3.623660609046709
 40
6.221736222254453
 40
6.221736222254453
 40
6.221736222254453
 40
8.311291228985619
 40
8.311291228985619
 40
8.311291228985619
 40
8.817081298400028
 40
8.817081298400028
 40
8.817081298400028
 40
11.4160936575014
 40
11.4160936575014
 40
11.4160936575014
 40
12.35131990376458
 40
12.35131990376458
 40
12.35131990376458
 40
14.94996926719845
 40
14.94996926719845
 40
14.94996926719845
 40
14.94996926719845
 10
162.0150000000015
 20
1066.370753876442
 30
0.0
 41
1.0
 10
161.6734595704141
 20
1066.3622874317
 30
0.0
 41
1.0
 10
161.3321202794526
 20
1066.353820695443
 30
0.0
 41
1.0
 10
160.9921863371192
 20
1066.345356917576
 30
0.0
 41
1.0
 10
160.1314282861836
 20
1066.323925503901
 30
0.0
 41
1.0
 10
159.2842257961433
 20
1066.302572373155
 30
0.0
 41
1.0
 10
158.4696211537762
 20
1066.281136234111
 30
0.0
 41
1.0
 10
157.6551565902922
 20
1066.259703781212
 30
0.0
 41
1.0
 10
156.8794481609984
 20
1066.238356636642
 30
0.0
 41
1.0
 10
156.1599252910037
 20
1066.216926054369
 30
0.0
 41
1.0
 10
155.5809798164074
 20
1066.199682490415
 30
0.0
 41
1.0
 10
155.0415922803568
 20
1066.182494313622
 30
0.0
 41
1.0
 10
154.5496298096298
 20
1066.165241903147
 30
0.0
 41
1.0
 10
154.4304562758597
 20
1066.161062660126
 30
0.0
 41
1.0
 10
154.3141534491979
 20
1066.156884140602
 30
0.0
 41
1.0
 10
154.2008213284561
 20
1066.152707438709
 30
0.0
 41
1.0
 10
153.619162561043
 20
1066.131271192223
 30
0.0
 41
1.0
 10
153.1183868091096
 20
1066.109916059594
 30
0.0
 41
1.0
 10
152.7097539967234
 20
1066.088474266677
 30
0.0
 41
1.0
 10
152.3983221225572
 20
1066.074003331297
 30
0.0
 41
0.9998344217860978
 10
152.0872900994818
 20
1066.052595369253
 30
0.0
 41
0.9998344217860968
 10
151.7768124278771
 20
1066.024261014621
 30
0.0
 41
1.0
 10
151.5656745609243
 20
1066.002828370186
 30
0.0
 41
1.0
 10
151.458393062303
 20
1065.981473383416
 30
0.0
 41
1.0
 10
151.4573794789434
 20
1065.960038713587
 30
0.0
 41
1.0
  0
POLYLINE
  5
185
330
1F
100
AcDbEntity
  8
Make2D$可见线$普通线
100
AcDb2dPolyline
 66
     1
 10
0.0
 20
0.0
 30
0.0
  0
VERTEX
  5
186
330
185
100
AcDbEntity
  8
Make2D$可见线$普通线
100
AcDbVertex
100
AcDb2dVertex
 10
172.3086831986859
 20
1065.196370539578
 30
0.0
  0
VERTEX
  5
187
330
185
100
AcDbEntity
  8
Make2D$可见线$普通线
100
AcDbVertex
100
AcDb2dVertex
 10
172.4153373450955
 20
1065.182962084606
 30
0.0
  0
VERTEX
  5
188
330
185
100
AcDbEntity
  8
Make2D$可见线$普通线
100
AcDbVertex
100
AcDb2dVertex
 10
172.4569969339376
 20
1065.176501901431
 30
0.0
  0
VERTEX
  5
189
330
185
100
AcDbEntity
  8
Make2D$可见线$普通线
100
AcDbVertex
100
AcDb2dVertex
 10
172.4922796035331
 20
1065.170044107225
 30
0.0
  0
VERTEX
  5
18A
330
185
100
AcDbEntity
  8
Make2D$可见线$普通线
100
AcDbVertex
100
AcDb2dVertex
 10
172.5075259204754
 20
1065.166815667919
 30
0.0
  0
VERTEX
  5
18B
330
185
100
AcDbEntity
  8
Make2D$可见线$普通线
100
AcDbVertex
100
AcDb2dVertex
 10
172.5211735998406
 20
1065.163587300175
 30
0.0
  0
VERTEX
  5
18C
330
185
100
AcDbEntity
  8
Make2D$可见线$普通线
100
AcDbVertex
100
AcDb2dVertex
 10
172.5332211723733
 20
1065.160358828766
 30
0.0
  0
VERTEX
  5
18D
330
185
100
AcDbEntity
  8
Make2D$可见线$普通线
100
AcDbVertex
100
AcDb2dVertex
 10
172.5386444594353
 20
1065.158744499429
 30
0.0
  0
VERTEX
  5
18E
330
185
100
AcDbEntity
  8
Make2D$可见线$普通线
100
AcDbVertex
100
AcDb2dVertex
 10
172.5436671688185
 20
1065.157130078466
 30
0.0
  0
VERTEX
  5
18F
330
185
100
AcDbEntity
  8
Make2D$可见线$普通线
100
AcDbVertex
100
AcDb2dVertex
 10
172.548289116866
 20
1065.155515543974
 30
0.0
  0
VERTEX
  5
190
330
185
100
AcDbEntity
  8
Make2D$可见线$普通线
100
AcDbVertex
100
AcDb2dVertex
 10
172.552510119921
 20
1065.153900874049
 30
0.0
  0
VERTEX
  5
191
330
185
100
AcDbEntity
  8
Make2D$可见线$普通线
100
AcDbVertex
100
AcDb2dVertex
 10
172.5544702096834
 20
1065.153093481454
 30
0.0
  0
VERTEX
  5
192
330
185
100
AcDbEntity
  8
Make2D$可见线$普通线
100
AcDbVertex
100
AcDb2dVertex
 10
172.5563299943264
 20
1065.152286046788
 30
0.0
  0
VERTEX
  5
193
330
185
100
AcDbEntity
  8
Make2D$可见线$普通线
100
AcDbVertex
100
AcDb2dVertex
 10
172.5580894508928
 20
1065.151478567311
 30
0.0
  0
VERTEX
  5
194
330
185
100
AcDbEntity
  8
Make2D$可见线$普通线
100
AcDbVertex
100
AcDb2dVertex
 10
172.5597485564255
 20
1065.150671040287
 30
0.0
  0
VERTEX
  5
195
330
185
100
AcDbEntity
  8
Make2D$可见线$普通线
100
AcDbVertex
100
AcDb2dVertex
 10
172.5613072879674
 20
1065.149863462977
 30
0.0
  0
VERTEX
  5
196
330
185
100
AcDbEntity
  8
Make2D$可见线$普通线
100
AcDbVertex
100
AcDb2dVertex
 10
172.5627656225613
 20
1065.149055832643
 30
0.0
  0
VERTEX
  5
197
330
185
100
AcDbEntity
  8
Make2D$可见线$普通线
100
AcDbVertex
100
AcDb2dVertex
 10
172.5641235372502
 20
1065.148248146548
 30
0.0
  0
VERTEX
  5
198
330
185
100
AcDbEntity
  8
Make2D$可见线$普通线
100
AcDbVertex
100
AcDb2dVertex
 10
172.5647648299562
 20
1065.147844281734
 30
0.0
  0
VERTEX
  5
199
330
185
100
AcDbEntity
  8
Make2D$可见线$普通线
100
AcDbVertex
100
AcDb2dVertex
 10
172.565381009077
 20
1065.147440401954
 30
0.0
  0
VERTEX
  5
19A
330
185
100
AcDbEntity
  8
Make2D$可见线$普通线
100
AcDbVertex
100
AcDb2dVertex
 10
172.5659720717429
 20
1065.147036506864
 30
0.0
  0
VERTEX
  5
19B
330
185
100
AcDbEntity
  8
Make2D$可见线$普通线
100
AcDbVertex
100
AcDb2dVertex
 10
172.5665380150845
 20
1065.146632596122
 30
0.0
  0
VERTEX
  5
19C
330
185
100
AcDbEntity
  8
Make2D$可见线$普通线
100
AcDbVertex
100
AcDb2dVertex
 10
172.5670788362319
 20
1065.146228669386
 30
0.0
  0
VERTEX
  5
19D
330
185
100
AcDbEntity
  8
Make2D$可见线$普通线
100
AcDbVertex
100
AcDb2dVertex
 10
172.5675945323155
 20
1065.145824726315
 30
0.0
  0
VERTEX
  5
19E
330
185
100
AcDbEntity
  8
Make2D$可见线$普通线
100
AcDbVertex
100
AcDb2dVertex
 10
172.5680851004659
 20
1065.145420766565
 30
0.0
  0
VERTEX
  5
19F
330
185
100
AcDbEntity
  8
Make2D$可见线$普通线
100
AcDbVertex
100
AcDb2dVertex
 10
172.5685505378132
 20
1065.145016789794
 30
0.0
  0
VERTEX
  5
1A0
330
185
100
AcDbEntity
  8
Make2D$可见线$普通线
100
AcDbVertex
100
AcDb2dVertex
 10
172.5689908414878
 20
1065.144612795661
 30
0.0
  0
VERTEX
  5
1A1
330
185
100
AcDbEntity
  8
Make2D$可见线$普通线
100
AcDbVertex
100
AcDb2dVertex
 10
172.5694060086201
 20
1065.144208783823
 30
0.0
  0
VERTEX
  5
1A2
330
185
100
AcDbEntity
  8
Make2D$可见线$普通线
100
AcDbVertex
100
AcDb2dVertex
 10
172.5697960363405
 20
1065.143804753937
 30
0.0
  0
VERTEX
  5
1A3
330
185
100
AcDbEntity
  8
Make2D$可见线$普通线
100
AcDbVertex
100
AcDb2dVertex
 10
172.5701609217794
 20
1065.143400705662
 30
0.0
  0
VERTEX
  5
1A4
330
185
100
AcDbEntity
  8
Make2D$可见线$普通线
100
AcDbVertex
100
AcDb2dVertex
 10
172.5703339352465
 20
1065.143198674522
 30
0.0
  0
VERTEX
  5
1A5
330
185
100
AcDbEntity
  8
Make2D$可见线$普通线
100
AcDbVertex
100
AcDb2dVertex
 10
172.570500662067
 20
1065.142996638656
 30
0.0
  0
VERTEX
  5
1A6
330
185
100
AcDbEntity
  8
Make2D$可见线$普通线
100
AcDbVertex
100
AcDb2dVertex
 10
172.5706611018824
 20
1065.142794598021
 30
0.0
  0
VERTEX
  5
1A7
330
185
100
AcDbEntity
  8
Make2D$可见线$普通线
100
AcDbVertex
100
AcDb2dVertex
 10
172.5708152543339
 20
1065.142592552575
 30
0.0
  0
VERTEX
  5
1A8
330
185
100
AcDbEntity
  8
Make2D$可见线$普通线
100
AcDbVertex
100
AcDb2dVertex
 10
172.5709631190627
 20
1065.142390502275
 30
0.0
  0
VERTEX
  5
1A9
330
185
100
AcDbEntity
  8
Make2D$可见线$普通线
100
AcDbVertex
100
AcDb2dVertex
 10
172.5711046957102
 20
1065.142188447078
 30
0.0
  0
VERTEX
  5
1AA
330
185
100
AcDbEntity
  8
Make2D$可见线$普通线
100
AcDbVertex
100
AcDb2dVertex
 10
172.5712399839176
 20
1065.141986386942
 30
0.0
  0
VERTEX
  5
1AB
330
185
100
AcDbEntity
  8
Make2D$可见线$普通线
100
AcDbVertex
100
AcDb2dVertex
 10
172.5713689833264
 20
1065.141784321823
 30
0.0
  0
VERTEX
  5
1AC
330
185
100
AcDbEntity
  8
Make2D$可见线$普通线
100
AcDbVertex
100
AcDb2dVertex
 10
172.5714916935777
 20
1065.141582251679
 30
0.0
  0
VERTEX
  5
1AD
330
185
100
AcDbEntity
  8
Make2D$可见线$普通线
100
AcDbVertex
100
AcDb2dVertex
 10
172.5716081143128
 20
1065.141380176467
 30
0.0
  0
VERTEX
  5
1AE
330
185
100
AcDbEntity
  8
Make2D$可见线$普通线
100
AcDbVertex
100
AcDb2dVertex
 10
172.5717182451731
 20
1065.141178096144
 30
0.0
  0
VERTEX
  5
1AF
330
185
100
AcDbEntity
  8
Make2D$可见线$普通线
100
AcDbVertex
100
AcDb2dVertex
 10
172.5718220857998
 20
1065.140976010668
 30
0.0
  0
VERTEX
  5
1B0
330
185
100
AcDbEntity
  8
Make2D$可见线$普通线
100
AcDbVertex
100
AcDb2dVertex
 10
172.5719196358343
 20
1065.140773919995
 30
0.0
  0
VERTEX
  5
1B1
330
185
100
AcDbEntity
  8
Make2D$可见线$普通线
100
AcDbVertex
100
AcDb2dVertex
 10
172.5720108949178
 20
1065.140571824084
 30
0.0
  0
VERTEX
  5
1B2
330
185
100
AcDbEntity
  8
Make2D$可见线$普通线
100
AcDbVertex
100
AcDb2dVertex
 10
172.5720958626916
 20
1065.14036972289
 30
0.0
  0
VERTEX
  5
1B3
330
185
100
AcDbEntity
  8
Make2D$可见线$普通线
100
AcDbVertex
100
AcDb2dVertex
 10
172.5721745387971
 20
1065.140167616372
 30
0.0
  0
VERTEX
  5
1B4
330
185
100
AcDbEntity
  8
Make2D$可见线$普通线
100
AcDbVertex
100
AcDb2dVertex
 10
172.5722469228755
 20
1065.139965504486
 30
0.0
  0
VERTEX
  5
1B5
330
185
100
AcDbEntity
  8
Make2D$可见线$普通线
100
AcDbVertex
100
AcDb2dVertex
 10
172.5723130145681
 20
1065.139763387191
 30
0.0
  0
VERTEX
  5
1B6
330
185
100
AcDbEntity
  8
Make2D$可见线$普通线
100
AcDbVertex
100
AcDb2dVertex
 10
172.5723728135162
 20
1065.139561264442
 30
0.0
  0
VERTEX
  5
1B7
330
185
100
AcDbEntity
  8
Make2D$可见线$普通线
100
AcDbVertex
100
AcDb2dVertex
 10
172.5724263193611
 20
1065.139359136198
 30
0.0
  0
VERTEX
  5
1B8
330
185
100
AcDbEntity
  8
Make2D$可见线$普通线
100
AcDbVertex
100
AcDb2dVertex
 10
172.5724735317442
 20
1065.139157002415
 30
0.0
  0
VERTEX
  5
1B9
330
185
100
AcDbEntity
  8
Make2D$可见线$普通线
100
AcDbVertex
100
AcDb2dVertex
 10
172.5725144503066
 20
1065.13895486305
 30
0.0
  0
VERTEX
  5
1BA
330
185
100
AcDbEntity
  8
Make2D$可见线$普通线
100
AcDbVertex
100
AcDb2dVertex
 10
172.5725490746897
 20
1065.138752718062
 30
0.0
  0
VERTEX
  5
1BB
330
185
100
AcDbEntity
  8
Make2D$可见线$普通线
100
AcDbVertex
100
AcDb2dVertex
 10
172.5725774045347
 20
1065.138550567407
 30
0.0
  0
VERTEX
  5
1BC
330
185
100
AcDbEntity
  8
Make2D$可见线$普通线
100
AcDbVertex
100
AcDb2dVertex
 10
172.5725994394831
 20
1065.138348411042
 30
0.0
  0
VERTEX
  5
1BD
330
185
100
AcDbEntity
  8
Make2D$可见线$普通线
100
AcDbVertex
100
AcDb2dVertex
 10
172.5726151791761
 20
1065.138146248925
 30
0.0
  0
VERTEX
  5
1BE
330
185
100
AcDbEntity
  8
Make2D$可见线$普通线
100
AcDbVertex
100
AcDb2dVertex
 10
172.5726246232549
 20
1065.137944081012
 30
0.0
  0
VERTEX
  5
1BF
330
185
100
AcDbEntity
  8
Make2D$可见线$普通线
100
AcDbVertex
100
AcDb2dVertex
 10
172.5726277713609
 20
1065.137741907261
 30
0.0
  0
VERTEX
  5
1C0
330
185
100
AcDbEntity
  8
Make2D$可见线$普通线
100
AcDbVertex
100
AcDb2dVertex
 10
172.5726248155687
 20
1065.137546005782
 30
0.0
  0
VERTEX
  5
1C1
330
185
100
AcDbEntity
  8
Make2D$可见线$普通线
100
AcDbVertex
100
AcDb2dVertex
 10
172.572615948245
 20
1065.137350105387
 30
0.0
  0
VERTEX
  5
1C2
330
185
100
AcDbEntity
  8
Make2D$可见线$普通线
100
AcDbVertex
100
AcDb2dVertex
 10
172.5726011694692
 20
1065.137154206101
 30
0.0
  0
VERTEX
  5
1C3
330
185
100
AcDbEntity
  8
Make2D$可见线$普通线
100
AcDbVertex
100
AcDb2dVertex
 10
172.5725804793205
 20
1065.136958307951
 30
0.0
  0
VERTEX
  5
1C4
330
185
100
AcDbEntity
  8
Make2D$可见线$普通线
100
AcDbVertex
100
AcDb2dVertex
 10
172.5725538778783
 20
1065.13676241096
 30
0.0
  0
VERTEX
  5
1C5
330
185
100
AcDbEntity
  8
Make2D$可见线$普通线
100
AcDbVertex
100
AcDb2dVertex
 10
172.5725213652219
 20
1065.136566515155
 30
0.0
  0
VERTEX
  5
1C6
330
185
100
AcDbEntity
  8
Make2D$可见线$普通线
100
AcDbVertex
100
AcDb2dVertex
 10
172.5724829414306
 20
1065.136370620559
 30
0.0
  0
VERTEX
  5
1C7
330
185
100
AcDbEntity
  8
Make2D$可见线$普通线
100
AcDbVertex
100
AcDb2dVertex
 10
172.5724386065837
 20
1065.136174727198
 30
0.0
  0
VERTEX
  5
1C8
330
185
100
AcDbEntity
  8
Make2D$可见线$普通线
100
AcDbVertex
100
AcDb2dVertex
 10
172.5723883607606
 20
1065.135978835097
 30
0.0
  0
VERTEX
  5
1C9
330
185
100
AcDbEntity
  8
Make2D$可见线$普通线
100
AcDbVertex
100
AcDb2dVertex
 10
172.5723322040405
 20
1065.135782944282
 30
0.0
  0
VERTEX
  5
1CA
330
185
100
AcDbEntity
  8
Make2D$可见线$普通线
100
AcDbVertex
100
AcDb2dVertex
 10
172.5722701365028
 20
1065.135587054776
 30
0.0
  0
VERTEX
  5
1CB
330
185
100
AcDbEntity
  8
Make2D$可见线$普通线
100
AcDbVertex
100
AcDb2dVertex
 10
172.5722021582268
 20
1065.135391166606
 30
0.0
  0
VERTEX
  5
1CC
330
185
100
AcDbEntity
  8
Make2D$可见线$普通线
100
AcDbVertex
100
AcDb2dVertex
 10
172.5721282692918
 20
1065.135195279796
 30
0.0
  0
VERTEX
  5
1CD
330
185
100
AcDbEntity
  8
Make2D$可见线$普通线
100
AcDbVertex
100
AcDb2dVertex
 10
172.5720484697771
 20
1065.134999394371
 30
0.0
  0
VERTEX
  5
1CE
330
185
100
AcDbEntity
  8
Make2D$可见线$普通线
100
AcDbVertex
100
AcDb2dVertex
 10
172.5719627597622
 20
1065.134803510357
 30
0.0
  0
VERTEX
  5
1CF
330
185
100
AcDbEntity
  8
Make2D$可见线$普通线
100
AcDbVertex
100
AcDb2dVertex
 10
172.5718711393261
 20
1065.134607627778
 30
0.0
  0
VERTEX
  5
1D0
330
185
100
AcDbEntity
  8
Make2D$可见线$普通线
100
AcDbVertex
100
AcDb2dVertex
 10
172.5717736085484
 20
1065.134411746659
 30
0.0
  0
VERTEX
  5
1D1
330
185
100
AcDbEntity
  8
Make2D$可见线$普通线
100
AcDbVertex
100
AcDb2dVertex
 10
172.5716701675082
 20
1065.134215867026
 30
0.0
  0
VERTEX
  5
1D2
330
185
100
AcDbEntity
  8
Make2D$可见线$普通线
100
AcDbVertex
100
AcDb2dVertex
 10
172.571560816285
 20
1065.134019988903
 30
0.0
  0
VERTEX
  5
1D3
330
185
100
AcDbEntity
  8
Make2D$可见线$普通线
100
AcDbVertex
100
AcDb2dVertex
 10
172.571445554958
 20
1065.133824112316
 30
0.0
  0
VERTEX
  5
1D4
330
185
100
AcDbEntity
  8
Make2D$可见线$普通线
100
AcDbVertex
100
AcDb2dVertex
 10
172.5713243836065
 20
1065.13362823729
 30
0.0
  0
VERTEX
  5
1D5
330
185
100
AcDbEntity
  8
Make2D$可见线$普通线
100
AcDbVertex
100
AcDb2dVertex
 10
172.57119730231
 20
1065.133432363849
 30
0.0
  0
VERTEX
  5
1D6
330
185
100
AcDbEntity
  8
Make2D$可见线$普通线
100
AcDbVertex
100
AcDb2dVertex
 10
172.5710643111477
 20
1065.133236492019
 30
0.0
  0
VERTEX
  5
1D7
330
185
100
AcDbEntity
  8
Make2D$可见线$普通线
100
AcDbVertex
100
AcDb2dVertex
 10
172.5709254101988
 20
1065.133040621825
 30
0.0
  0
VERTEX
  5
1D8
330
185
100
AcDbEntity
  8
Make2D$可见线$普通线
100
AcDbVertex
100
AcDb2dVertex
 10
172.5707805995427
 20
1065.132844753291
 30
0.0
  0
VERTEX
  5
1D9
330
185
100
AcDbEntity
  8
Make2D$可见线$普通线
100
AcDbVertex
100
AcDb2dVertex
 10
172.5706298792589
 20
1065.132648886444
 30
0.0
  0
VERTEX
  5
1DA
330
185
100
AcDbEntity
  8
Make2D$可见线$普通线
100
AcDbVertex
100
AcDb2dVertex
 10
172.5704732494265
 20
1065.132453021307
 30
0.0
  0
VERTEX
  5
1DB
330
185
100
AcDbEntity
  8
Make2D$可见线$普通线
100
AcDbVertex
100
AcDb2dVertex
 10
172.5703107101248
 20
1065.132257157906
 30
0.0
  0
VERTEX
  5
1DC
330
185
100
AcDbEntity
  8
Make2D$可见线$普通线
100
AcDbVertex
100
AcDb2dVertex
 10
172.5699679034312
 20
1065.131865436412
 30
0.0
  0
VERTEX
  5
1DD
330
185
100
AcDbEntity
  8
Make2D$可见线$普通线
100
AcDbVertex
100
AcDb2dVertex
 10
172.5696014598125
 20
1065.131473722163
 30
0.0
  0
VERTEX
  5
1DE
330
185
100
AcDbEntity
  8
Make2D$可见线$普通线
100
AcDbVertex
100
AcDb2dVertex
 10
172.5692113799033
 20
1065.131082015358
 30
0.0
  0
VERTEX
  5
1DF
330
185
100
AcDbEntity
  8
Make2D$可见线$普通线
100
AcDbVertex
100
AcDb2dVertex
 10
172.5687976643381
 20
1065.130690316199
 30
0.0
  0
VERTEX
  5
1E0
330
185
100
AcDbEntity
  8
Make2D$可见线$普通线
100
AcDbVertex
100
AcDb2dVertex
 10
172.5683603137515
 20
1065.130298624884
 30
0.0
  0
VERTEX
  5
1E1
330
185
100
AcDbEntity
  8
Make2D$可见线$普通线
100
AcDbVertex
100
AcDb2dVertex
 10
172.567899328778
 20
1065.129906941616
 30
0.0
  0
VERTEX
  5
1E2
330
185
100
AcDbEntity
  8
Make2D$可见线$普通线
100
AcDbVertex
100
AcDb2dVertex
 10
172.5674147100522
 20
1065.129515266594
 30
0.0
  0
VERTEX
  5
1E3
330
185
100
AcDbEntity
  8
Make2D$可见线$普通线
100
AcDbVertex
100
AcDb2dVertex
 10
172.5669064582085
 20
1065.129123600018
 30
0.0
  0
VERTEX
  5
1E4
330
185
100
AcDbEntity
  8
Make2D$可见线$普通线
100
AcDbVertex
100
AcDb2dVertex
 10
172.5663745738817
 20
1065.128731942089
 30
0.0
  0
VERTEX
  5
1E5
330
185
100
AcDbEntity
  8
Make2D$可见线$普通线
100
AcDbVertex
100
AcDb2dVertex
 10
172.5658190577061
 20
1065.128340293008
 30
0.0
  0
VERTEX
  5
1E6
330
185
100
AcDbEntity
  8
Make2D$可见线$普通线
100
AcDbVertex
100
AcDb2dVertex
 10
172.5652399103163
 20
1065.127948652974
 30
0.0
  0
VERTEX
  5
1E7
330
185
100
AcDbEntity
  8
Make2D$可见线$普通线
100
AcDbVertex
100
AcDb2dVertex
 10
172.5646371323469
 20
1065.127557022188
 30
0.0
  0
VERTEX
  5
1E8
330
185
100
AcDbEntity
  8
Make2D$可见线$普通线
100
AcDbVertex
100
AcDb2dVertex
 10
172.5633606872074
 20
1065.126773789162
 30
0.0
  0
VERTEX
  5
1E9
330
185
100
AcDbEntity
  8
Make2D$可见线$普通线
100
AcDbVertex
100
AcDb2dVertex
 10
172.561989727364
 20
1065.125990595533
 30
0.0
  0
VERTEX
  5
1EA
330
185
100
AcDbEntity
  8
Make2D$可见线$普通线
100
AcDbVertex
100
AcDb2dVertex
 10
172.5605242578929
 20
1065.125207442903
 30
0.0
 42
-0.0581472172625738
  0
VERTEX
  5
1EB
330
185
100
AcDbEntity
  8
Make2D$可见线$普通线
100
AcDbVertex
100
AcDb2dVertex
 10
172.1215504124368
 20
1065.060974270871
 30
0.0
  0
VERTEX
  5
1EC
330
185
100
AcDbEntity
  8
Make2D$可见线$普通线
100
AcDbVertex
100
AcDb2dVertex
 10
171.0769928053427
 20
1064.996761018815
 30
0.0
  0
VERTEX
  5
1ED
330
185
100
AcDbEntity
  8
Make2D$可见线$普通线
100
AcDbVertex
100
AcDb2dVertex
 10
169.4803701903732
 20
1064.932232072004
 30
0.0
  0
VERTEX
  5
1EE
330
185
100
AcDbEntity
  8
Make2D$可见线$普通线
100
AcDbVertex
100
AcDb2dVertex
 10
165.0916534692199
 20
1064.804106842545
 30
0.0
  0
VERTEX
  5
1EF
330
185
100
AcDbEntity
  8
Make2D$可见线$普通线
100
AcDbVertex
100
AcDb2dVertex
 10
162.0150000000015
 20
1064.726744452297
 30
0.0
  0
SEQEND
  5
1F0
330
185
100
AcDbEntity
  8
Make2D$可见线$普通线
  0
POLYLINE
  5
1F1
330
1F
100
AcDbEntity
  8
Make2D$可见线$普通线
100
AcDb2dPolyline
 66
     1
 10
0.0
 20
0.0
 30
0.0
  0
VERTEX
  5
1F2
330
1F1
100
AcDbEntity
  8
Make2D$可见线$普通线
100
AcDbVertex
100
AcDb2dVertex
 10
162.0150000000015
 20
1064.726744452297
 30
0.0
  0
VERTEX
  5
1F3
330
1F1
100
AcDbEntity
  8
Make2D$可见线$普通线
100
AcDbVertex
100
AcDb2dVertex
 10
157.5121777856468
 20
1064.611455231895
 30
0.0
  0
VERTEX
  5
1F4
330
1F1
100
AcDbEntity
  8
Make2D$可见线$普通线
100
AcDbVertex
100
AcDb2dVertex
 10
154.5496298096298
 20
1064.521262642127
 30
0.0
  0
VERTEX
  5
1F5
330
1F1
100
AcDbEntity
  8
Make2D$可见线$普通线
100
AcDbVertex
100
AcDb2dVertex
 10
153.5422409226751
 20
1064.483015237809
 30
0.0
  0
VERTEX
  5
1F6
330
1F1
100
AcDbEntity
  8
Make2D$可见线$普通线
100
AcDbVertex
100
AcDb2dVertex
 10
152.0922868760246
 20
1064.408304314919
 30
0.0
  0
VERTEX
  5
1F7
330
1F1
100
AcDbEntity
  8
Make2D$可见线$普通线
100
AcDbVertex
100
AcDb2dVertex
 10
151.918952242339
 20
1064.394091187664
 30
0.0
  0
VERTEX
  5
1F8
330
1F1
100
AcDbEntity
  8
Make2D$可见线$普通线
100
AcDbVertex
100
AcDb2dVertex
 10
151.7459608194211
 20
1064.376178180711
 30
0.0
  0
VERTEX
  5
1F9
330
1F1
100
AcDbEntity
  8
Make2D$可见线$普通线
100
AcDbVertex
100
AcDb2dVertex
 10
151.5734308981996
 20
1064.354578821313
 30
0.0
 42
0.1868772489204374
  0
VERTEX
  5
1FA
330
1F1
100
AcDbEntity
  8
Make2D$可见线$普通线
100
AcDbVertex
100
AcDb2dVertex
 10
151.457372228642
 20
1064.315753894753
 30
0.0
  0
SEQEND
  5
1FB
330
1F1
100
AcDbEntity
  8
Make2D$可见线$普通线
  0
POLYLINE
  5
1FC
330
1F
100
AcDbEntity
  8
Make2D$可见线$普通线
100
AcDb2dPolyline
 66
     1
 10
0.0
 20
0.0
 30
0.0
  0
VERTEX
  5
1FD
330
1FC
100
AcDbEntity
  8
Make2D$可见线$普通线
100
AcDbVertex
100
AcDb2dVertex
 10
172.3133512582226
 20
1063.551849252364
 30
0.0
  0
VERTEX
  5
1FE
330
1FC
100
AcDbEntity
  8
Make2D$可见线$普通线
100
AcDbVertex
100
AcDb2dVertex
 10
172.5205376459226
 20
1063.519747806778
 30
0.0
 42
-0.2356105405210016
  0
VERTEX
  5
1FF
330
1FC
100
AcDbEntity
  8
Make2D$可见线$普通线
100
AcDbVertex
100
AcDb2dVertex
 10
172.5726277713609
 20
1063.493762646321
 30
0.0
 42
-0.1889041730958881
  0
VERTEX
  5
200
330
1FC
100
AcDbEntity
  8
Make2D$可见线$普通线
100
AcDbVertex
100
AcDb2dVertex
 10
172.4601243939591
 20
1063.455515242003
 30
0.0
  0
VERTEX
  5
201
330
1FC
100
AcDbEntity
  8
Make2D$可见线$普通线
100
AcDbVertex
100
AcDb2dVertex
 10
172.2891240492526
 20
1063.433870955904
 30
0.0
  0
VERTEX
  5
202
330
1FC
100
AcDbEntity
  8
Make2D$可见线$普通线
100
AcDbVertex
100
AcDb2dVertex
 10
172.1176528445123
 20
1063.415946692161
 30
0.0
  0
VERTEX
  5
203
330
1FC
100
AcDbEntity
  8
Make2D$可见线$普通线
100
AcDbVertex
100
AcDb2dVertex
 10
171.9458323231737
 20
1063.401756493684
 30
0.0
  0
VERTEX
  5
204
330
1FC
100
AcDbEntity
  8
Make2D$可见线$普通线
100
AcDbVertex
100
AcDb2dVertex
 10
170.5021926392034
 20
1063.327078825508
 30
0.0
  0
VERTEX
  5
205
330
1FC
100
AcDbEntity
  8
Make2D$可见线$普通线
100
AcDbVertex
100
AcDb2dVertex
 10
168.7220157707426
 20
1063.262856930158
 30
0.0
  0
VERTEX
  5
206
330
1FC
100
AcDbEntity
  8
Make2D$可见线$普通线
100
AcDbVertex
100
AcDb2dVertex
 10
164.0869865288757
 20
1063.134426066951
 30
0.0
  0
VERTEX
  5
207
330
1FC
100
AcDbEntity
  8
Make2D$可见线$普通线
100
AcDbVertex
100
AcDb2dVertex
 10
162.0150000000015
 20
1063.08274191565
 30
0.0
  0
SEQEND
  5
208
330
1FC
100
AcDbEntity
  8
Make2D$可见线$普通线
  0
POLYLINE
  5
209
330
1F
100
AcDbEntity
  8
Make2D$可见线$普通线
100
AcDb2dPolyline
 66
     1
 10
0.0
 20
0.0
 30
0.0
  0
VERTEX
  5
20A
330
209
100
AcDbEntity
  8
Make2D$可见线$普通线
100
AcDbVertex
100
AcDb2dVertex
 10
162.0150000000015
 20
1068.014733968304
 30
0.0
  0
VERTEX
  5
20B
330
209
100
AcDbEntity
  8
Make2D$可见线$普通线
100
AcDbVertex
100
AcDb2dVertex
 10
157.048783702331
 20
1067.886568507962
 30
0.0
  0
VERTEX
  5
20C
330
209
100
AcDbEntity
  8
Make2D$可见线$普通线
100
AcDbVertex
100
AcDb2dVertex
 10
154.5496298096298
 20
1067.809258085425
 30
0.0
  0
VERTEX
  5
20D
330
209
100
AcDbEntity
  8
Make2D$可见线$普通线
100
AcDbVertex
100
AcDb2dVertex
 10
153.2436443268006
 20
1067.75816955162
 30
0.0
  0
VERTEX
  5
20E
330
209
100
AcDbEntity
  8
Make2D$可见线$普通线
100
AcDbVertex
100
AcDb2dVertex
 10
152.0786976528145
 20
1067.693959091646
 30
0.0
 42
0.0326446189880851
  0
VERTEX
  5
20F
330
209
100
AcDbEntity
  8
Make2D$可见线$普通线
100
AcDbVertex
100
AcDb2dVertex
 10
151.5094622321483
 20
1067.629746667064
 30
0.0
  0
VERTEX
  5
210
330
209
100
AcDbEntity
  8
Make2D$可见线$普通线
100
AcDbVertex
100
AcDb2dVertex
 10
151.4573722286421
 20
1067.603762592638
 30
0.0
  0
SEQEND
  5
211
330
209
100
AcDbEntity
  8
Make2D$可见线$普通线
  0
POLYLINE
  5
212
330
1F
100
AcDbEntity
  8
Make2D$可见线$普通线
100
AcDb2dPolyline
 66
     1
 10
0.0
 20
0.0
 30
0.0
  0
VERTEX
  5
213
330
212
100
AcDbEntity
  8
Make2D$可见线$普通线
100
AcDbVertex
100
AcDb2dVertex
 10
172.280072142471
 20
1066.843476935687
 30
0.0
 42
-0.0603669138930229
  0
VERTEX
  5
214
330
212
100
AcDbEntity
  8
Make2D$可见线$普通线
100
AcDbVertex
100
AcDb2dVertex
 10
172.5593128358316
 20
1066.794880160219
 30
0.0
  0
VERTEX
  5
215
330
212
100
AcDbEntity
  8
Make2D$可见线$普通线
100
AcDbVertex
100
AcDb2dVertex
 10
172.5609249603459
 20
1066.794058704904
 30
0.0
  0
VERTEX
  5
216
330
212
100
AcDbEntity
  8
Make2D$可见线$普通线
100
AcDbVertex
100
AcDb2dVertex
 10
172.5624331214627
 20
1066.793237320633
 30
0.0
  0
VERTEX
  5
217
330
212
100
AcDbEntity
  8
Make2D$可见线$普通线
100
AcDbVertex
100
AcDb2dVertex
 10
172.5638373130232
 20
1066.792416001777
 30
0.0
  0
VERTEX
  5
218
330
212
100
AcDbEntity
  8
Make2D$可见线$普通线
100
AcDbVertex
100
AcDb2dVertex
 10
172.564500418295
 20
1066.792005365121
 30
0.0
  0
VERTEX
  5
219
330
212
100
AcDbEntity
  8
Make2D$可见线$普通线
100
AcDbVertex
100
AcDb2dVertex
 10
172.5651375288682
 20
1066.791594742708
 30
0.0
  0
VERTEX
  5
21A
330
212
100
AcDbEntity
  8
Make2D$可见线$普通线
100
AcDbVertex
100
AcDb2dVertex
 10
172.5657486439728
 20
1066.791184133833
 30
0.0
  0
VERTEX
  5
21B
330
212
100
AcDbEntity
  8
Make2D$可见线$普通线
100
AcDbVertex
100
AcDb2dVertex
 10
172.566333762839
 20
1066.790773537795
 30
0.0
  0
VERTEX
  5
21C
330
212
100
AcDbEntity
  8
Make2D$可见线$普通线
100
AcDbVertex
100
AcDb2dVertex
 10
172.5668928846968
 20
1066.790362953888
 30
0.0
  0
VERTEX
  5
21D
330
212
100
AcDbEntity
  8
Make2D$可见线$普通线
100
AcDbVertex
100
AcDb2dVertex
 10
172.5674260087765
 20
1066.78995238141
 30
0.0
  0
VERTEX
  5
21E
330
212
100
AcDbEntity
  8
Make2D$可见线$普通线
100
AcDbVertex
100
AcDb2dVertex
 10
172.5679331343082
 20
1066.789541819657
 30
0.0
  0
VERTEX
  5
21F
330
212
100
AcDbEntity
  8
Make2D$可见线$普通线
100
AcDbVertex
100
AcDb2dVertex
 10
172.568414260522
 20
1066.789131267924
 30
0.0
  0
VERTEX
  5
220
330
212
100
AcDbEntity
  8
Make2D$可见线$普通线
100
AcDbVertex
100
AcDb2dVertex
 10
172.568869386648
 20
1066.788720725509
 30
0.0
  0
VERTEX
  5
221
330
212
100
AcDbEntity
  8
Make2D$可见线$普通线
100
AcDbVertex
100
AcDb2dVertex
 10
172.5692985119164
 20
1066.788310191708
 30
0.0
  0
VERTEX
  5
222
330
212
100
AcDbEntity
  8
Make2D$可见线$普通线
100
AcDbVertex
100
AcDb2dVertex
 10
172.5697016355572
 20
1066.787899665816
 30
0.0
  0
VERTEX
  5
223
330
212
100
AcDbEntity
  8
Make2D$可见线$普通线
100
AcDbVertex
100
AcDb2dVertex
 10
172.5700787568007
 20
1066.787489147132
 30
0.0
  0
VERTEX
  5
224
330
212
100
AcDbEntity
  8
Make2D$可见线$普通线
100
AcDbVertex
100
AcDb2dVertex
 10
172.5702575662829
 20
1066.787283890272
 30
0.0
  0
VERTEX
  5
225
330
212
100
AcDbEntity
  8
Make2D$可见线$普通线
100
AcDbVertex
100
AcDb2dVertex
 10
172.570429874877
 20
1066.78707863495
 30
0.0
  0
VERTEX
  5
226
330
212
100
AcDbEntity
  8
Make2D$可见线$普通线
100
AcDbVertex
100
AcDb2dVertex
 10
172.5705956824868
 20
1066.786873381078
 30
0.0
  0
VERTEX
  5
227
330
212
100
AcDbEntity
  8
Make2D$可见线$普通线
100
AcDbVertex
100
AcDb2dVertex
 10
172.5707549890162
 20
1066.786668128567
 30
0.0
  0
VERTEX
  5
228
330
212
100
AcDbEntity
  8
Make2D$可见线$普通线
100
AcDbVertex
100
AcDb2dVertex
 10
172.5709077943687
 20
1066.786462877331
 30
0.0
  0
VERTEX
  5
229
330
212
100
AcDbEntity
  8
Make2D$可见线$普通线
100
AcDbVertex
100
AcDb2dVertex
 10
172.5710540984483
 20
1066.786257627281
 30
0.0
  0
VERTEX
  5
22A
330
212
100
AcDbEntity
  8
Make2D$可见线$普通线
100
AcDbVertex
100
AcDb2dVertex
 10
172.5711939011588
 20
1066.786052378328
 30
0.0
  0
VERTEX
  5
22B
330
212
100
AcDbEntity
  8
Make2D$可见线$普通线
100
AcDbVertex
100
AcDb2dVertex
 10
172.5713272024037
 20
1066.785847130385
 30
0.0
  0
VERTEX
  5
22C
330
212
100
AcDbEntity
  8
Make2D$可见线$普通线
100
AcDbVertex
100
AcDb2dVertex
 10
172.571454002087
 20
1066.785641883365
 30
0.0
  0
VERTEX
  5
22D
330
212
100
AcDbEntity
  8
Make2D$可见线$普通线
100
AcDbVertex
100
AcDb2dVertex
 10
172.5715743001124
 20
1066.785436637178
 30
0.0
  0
VERTEX
  5
22E
330
212
100
AcDbEntity
  8
Make2D$可见线$普通线
100
AcDbVertex
100
AcDb2dVertex
 10
172.5716880963836
 20
1066.785231391738
 30
0.0
  0
VERTEX
  5
22F
330
212
100
AcDbEntity
  8
Make2D$可见线$普通线
100
AcDbVertex
100
AcDb2dVertex
 10
172.5717953908045
 20
1066.785026146956
 30
0.0
  0
VERTEX
  5
230
330
212
100
AcDbEntity
  8
Make2D$可见线$普通线
100
AcDbVertex
100
AcDb2dVertex
 10
172.5718961832787
 20
1066.784820902745
 30
0.0
  0
VERTEX
  5
231
330
212
100
AcDbEntity
  8
Make2D$可见线$普通线
100
AcDbVertex
100
AcDb2dVertex
 10
172.5719904737101
 20
1066.784615659015
 30
0.0
  0
VERTEX
  5
232
330
212
100
AcDbEntity
  8
Make2D$可见线$普通线
100
AcDbVertex
100
AcDb2dVertex
 10
172.5720782620025
 20
1066.78441041568
 30
0.0
  0
VERTEX
  5
233
330
212
100
AcDbEntity
  8
Make2D$可见线$普通线
100
AcDbVertex
100
AcDb2dVertex
 10
172.5721595480595
 20
1066.784205172652
 30
0.0
  0
VERTEX
  5
234
330
212
100
AcDbEntity
  8
Make2D$可见线$普通线
100
AcDbVertex
100
AcDb2dVertex
 10
172.572234331785
 20
1066.783999929841
 30
0.0
  0
VERTEX
  5
235
330
212
100
AcDbEntity
  8
Make2D$可见线$普通线
100
AcDbVertex
100
AcDb2dVertex
 10
172.5723026130827
 20
1066.783794687162
 30
0.0
  0
VERTEX
  5
236
330
212
100
AcDbEntity
  8
Make2D$可见线$普通线
100
AcDbVertex
100
AcDb2dVertex
 10
172.5723643918564
 20
1066.783589444525
 30
0.0
  0
VERTEX
  5
237
330
212
100
AcDbEntity
  8
Make2D$可见线$普通线
100
AcDbVertex
100
AcDb2dVertex
 10
172.5724196680099
 20
1066.783384201842
 30
0.0
  0
VERTEX
  5
238
330
212
100
AcDbEntity
  8
Make2D$可见线$普通线
100
AcDbVertex
100
AcDb2dVertex
 10
172.5724684414469
 20
1066.783178959026
 30
0.0
  0
VERTEX
  5
239
330
212
100
AcDbEntity
  8
Make2D$可见线$普通线
100
AcDbVertex
100
AcDb2dVertex
 10
172.5725107120712
 20
1066.782973715989
 30
0.0
  0
VERTEX
  5
23A
330
212
100
AcDbEntity
  8
Make2D$可见线$普通线
100
AcDbVertex
100
AcDb2dVertex
 10
172.5725464797865
 20
1066.782768472642
 30
0.0
  0
VERTEX
  5
23B
330
212
100
AcDbEntity
  8
Make2D$可见线$普通线
100
AcDbVertex
100
AcDb2dVertex
 10
172.5725757444966
 20
1066.782563228898
 30
0.0
  0
VERTEX
  5
23C
330
212
100
AcDbEntity
  8
Make2D$可见线$普通线
100
AcDbVertex
100
AcDb2dVertex
 10
172.5725985061054
 20
1066.782357984669
 30
0.0
  0
VERTEX
  5
23D
330
212
100
AcDbEntity
  8
Make2D$可见线$普通线
100
AcDbVertex
100
AcDb2dVertex
 10
172.5726147645165
 20
1066.782152739867
 30
0.0
  0
VERTEX
  5
23E
330
212
100
AcDbEntity
  8
Make2D$可见线$普通线
100
AcDbVertex
100
AcDb2dVertex
 10
172.5726245196338
 20
1066.781947494404
 30
0.0
  0
VERTEX
  5
23F
330
212
100
AcDbEntity
  8
Make2D$可见线$普通线
100
AcDbVertex
100
AcDb2dVertex
 10
172.5726277713609
 20
1066.781742248191
 30
0.0
  0
VERTEX
  5
240
330
212
100
AcDbEntity
  8
Make2D$可见线$普通线
100
AcDbVertex
100
AcDb2dVertex
 10
172.5726246971449
 20
1066.781542681317
 30
0.0
  0
VERTEX
  5
241
330
212
100
AcDbEntity
  8
Make2D$可见线$普通线
100
AcDbVertex
100
AcDb2dVertex
 10
172.572615474725
 20
1066.781343116158
 30
0.0
  0
VERTEX
  5
242
330
212
100
AcDbEntity
  8
Make2D$可见线$普通线
100
AcDbVertex
100
AcDb2dVertex
 10
172.5726001044434
 20
1066.7811435527
 30
0.0
  0
VERTEX
  5
243
330
212
100
AcDbEntity
  8
Make2D$可见线$普通线
100
AcDbVertex
100
AcDb2dVertex
 10
172.5725785866421
 20
1066.780943990925
 30
0.0
  0
VERTEX
  5
244
330
212
100
AcDbEntity
  8
Make2D$可见线$普通线
100
AcDbVertex
100
AcDb2dVertex
 10
172.5725509216633
 20
1066.780744430817
 30
0.0
  0
VERTEX
  5
245
330
212
100
AcDbEntity
  8
Make2D$可见线$普通线
100
AcDbVertex
100
AcDb2dVertex
 10
172.5725171098493
 20
1066.780544872361
 30
0.0
  0
VERTEX
  5
246
330
212
100
AcDbEntity
  8
Make2D$可见线$普通线
100
AcDbVertex
100
AcDb2dVertex
 10
172.572477151542
 20
1066.78034531554
 30
0.0
  0
VERTEX
  5
247
330
212
100
AcDbEntity
  8
Make2D$可见线$普通线
100
AcDbVertex
100
AcDb2dVertex
 10
172.5724310470838
 20
1066.780145760338
 30
0.0
  0
VERTEX
  5
248
330
212
100
AcDbEntity
  8
Make2D$可见线$普通线
100
AcDbVertex
100
AcDb2dVertex
 10
172.5723787968166
 20
1066.779946206738
 30
0.0
  0
VERTEX
  5
249
330
212
100
AcDbEntity
  8
Make2D$可见线$普通线
100
AcDbVertex
100
AcDb2dVertex
 10
172.5723204010827
 20
1066.779746654725
 30
0.0
  0
VERTEX
  5
24A
330
212
100
AcDbEntity
  8
Make2D$可见线$普通线
100
AcDbVertex
100
AcDb2dVertex
 10
172.5722558602242
 20
1066.779547104282
 30
0.0
  0
VERTEX
  5
24B
330
212
100
AcDbEntity
  8
Make2D$可见线$普通线
100
AcDbVertex
100
AcDb2dVertex
 10
172.5721851745832
 20
1066.779347555393
 30
0.0
  0
VERTEX
  5
24C
330
212
100
AcDbEntity
  8
Make2D$可见线$普通线
100
AcDbVertex
100
AcDb2dVertex
 10
172.5721083445019
 20
1066.779148008042
 30
0.0
  0
VERTEX
  5
24D
330
212
100
AcDbEntity
  8
Make2D$可见线$普通线
100
AcDbVertex
100
AcDb2dVertex
 10
172.5720253703224
 20
1066.778948462212
 30
0.0
  0
VERTEX
  5
24E
330
212
100
AcDbEntity
  8
Make2D$可见线$普通线
100
AcDbVertex
100
AcDb2dVertex
 10
172.5719362523869
 20
1066.778748917888
 30
0.0
  0
VERTEX
  5
24F
330
212
100
AcDbEntity
  8
Make2D$可见线$普通线
100
AcDbVertex
100
AcDb2dVertex
 10
172.5718409910375
 20
1066.778549375053
 30
0.0
  0
VERTEX
  5
250
330
212
100
AcDbEntity
  8
Make2D$可见线$普通线
100
AcDbVertex
100
AcDb2dVertex
 10
172.5717395866164
 20
1066.778349833691
 30
0.0
  0
VERTEX
  5
251
330
212
100
AcDbEntity
  8
Make2D$可见线$普通线
100
AcDbVertex
100
AcDb2dVertex
 10
172.5716320394657
 20
1066.778150293785
 30
0.0
  0
VERTEX
  5
252
330
212
100
AcDbEntity
  8
Make2D$可见线$普通线
100
AcDbVertex
100
AcDb2dVertex
 10
172.5715183499275
 20
1066.77795075532
 30
0.0
  0
VERTEX
  5
253
330
212
100
AcDbEntity
  8
Make2D$可见线$普通线
100
AcDbVertex
100
AcDb2dVertex
 10
172.571398518344
 20
1066.77775121828
 30
0.0
  0
VERTEX
  5
254
330
212
100
AcDbEntity
  8
Make2D$可见线$普通线
100
AcDbVertex
100
AcDb2dVertex
 10
172.5712725450573
 20
1066.777551682647
 30
0.0
  0
VERTEX
  5
255
330
212
100
AcDbEntity
  8
Make2D$可见线$普通线
100
AcDbVertex
100
AcDb2dVertex
 10
172.5711404304096
 20
1066.777352148407
 30
0.0
  0
VERTEX
  5
256
330
212
100
AcDbEntity
  8
Make2D$可见线$普通线
100
AcDbVertex
100
AcDb2dVertex
 10
172.5710021747431
 20
1066.777152615542
 30
0.0
  0
VERTEX
  5
257
330
212
100
AcDbEntity
  8
Make2D$可见线$普通线
100
AcDbVertex
100
AcDb2dVertex
 10
172.5708577783998
 20
1066.776953084036
 30
0.0
  0
VERTEX
  5
258
330
212
100
AcDbEntity
  8
Make2D$可见线$普通线
100
AcDbVertex
100
AcDb2dVertex
 10
172.5707072417219
 20
1066.776753553874
 30
0.0
  0
VERTEX
  5
259
330
212
100
AcDbEntity
  8
Make2D$可见线$普通线
100
AcDbVertex
100
AcDb2dVertex
 10
172.5705505650515
 20
1066.776554025039
 30
0.0
  0
VERTEX
  5
25A
330
212
100
AcDbEntity
  8
Make2D$可见线$普通线
100
AcDbVertex
100
AcDb2dVertex
 10
172.5703877487309
 20
1066.776354497515
 30
0.0
  0
VERTEX
  5
25B
330
212
100
AcDbEntity
  8
Make2D$可见线$普通线
100
AcDbVertex
100
AcDb2dVertex
 10
172.570218793102
 20
1066.776154971285
 30
0.0
  0
VERTEX
  5
25C
330
212
100
AcDbEntity
  8
Make2D$可见线$普通线
100
AcDbVertex
100
AcDb2dVertex
 10
172.5698624652885
 20
1066.775755922645
 30
0.0
  0
VERTEX
  5
25D
330
212
100
AcDbEntity
  8
Make2D$可见线$普通线
100
AcDbVertex
100
AcDb2dVertex
 10
172.569481584348
 20
1066.775356878989
 30
0.0
  0
VERTEX
  5
25E
330
212
100
AcDbEntity
  8
Make2D$可见线$普通线
100
AcDbVertex
100
AcDb2dVertex
 10
172.5690761530178
 20
1066.774957840188
 30
0.0
  0
VERTEX
  5
25F
330
212
100
AcDbEntity
  8
Make2D$可见线$普通线
100
AcDbVertex
100
AcDb2dVertex
 10
172.5686461740349
 20
1066.774558806111
 30
0.0
  0
VERTEX
  5
260
330
212
100
AcDbEntity
  8
Make2D$可见线$普通线
100
AcDbVertex
100
AcDb2dVertex
 10
172.5681916501366
 20
1066.774159776629
 30
0.0
  0
VERTEX
  5
261
330
212
100
AcDbEntity
  8
Make2D$可见线$普通线
100
AcDbVertex
100
AcDb2dVertex
 10
172.56771258406
 20
1066.773760751613
 30
0.0
  0
VERTEX
  5
262
330
212
100
AcDbEntity
  8
Make2D$可见线$普通线
100
AcDbVertex
100
AcDb2dVertex
 10
172.5672089785421
 20
1066.773361730933
 30
0.0
  0
VERTEX
  5
263
330
212
100
AcDbEntity
  8
Make2D$可见线$普通线
100
AcDbVertex
100
AcDb2dVertex
 10
172.5666808363203
 20
1066.772962714458
 30
0.0
  0
VERTEX
  5
264
330
212
100
AcDbEntity
  8
Make2D$可见线$普通线
100
AcDbVertex
100
AcDb2dVertex
 10
172.5661281601315
 20
1066.77256370206
 30
0.0
  0
VERTEX
  5
265
330
212
100
AcDbEntity
  8
Make2D$可见线$普通线
100
AcDbVertex
100
AcDb2dVertex
 10
172.5655509527131
 20
1066.772164693608
 30
0.0
  0
VERTEX
  5
266
330
212
100
AcDbEntity
  8
Make2D$可见线$普通线
100
AcDbVertex
100
AcDb2dVertex
 10
172.5649492168021
 20
1066.771765688974
 30
0.0
  0
VERTEX
  5
267
330
212
100
AcDbEntity
  8
Make2D$可见线$普通线
100
AcDbVertex
100
AcDb2dVertex
 10
172.5643229551357
 20
1066.771366688027
 30
0.0
  0
VERTEX
  5
268
330
212
100
AcDbEntity
  8
Make2D$可见线$普通线
100
AcDbVertex
100
AcDb2dVertex
 10
172.5629968654852
 20
1066.770568696676
 30
0.0
  0
VERTEX
  5
269
330
212
100
AcDbEntity
  8
Make2D$可见线$普通线
100
AcDbVertex
100
AcDb2dVertex
 10
172.5615727056588
 20
1066.769770718519
 30
0.0
  0
VERTEX
  5
26A
330
212
100
AcDbEntity
  8
Make2D$可见线$普通线
100
AcDbVertex
100
AcDb2dVertex
 10
172.5600504975537
 20
1066.768972752518
 30
0.0
  0
VERTEX
  5
26B
330
212
100
AcDbEntity
  8
Make2D$可见线$普通线
100
AcDbVertex
100
AcDb2dVertex
 10
172.5584302630672
 20
1066.768174797635
 30
0.0
  0
VERTEX
  5
26C
330
212
100
AcDbEntity
  8
Make2D$可见线$普通线
100
AcDbVertex
100
AcDb2dVertex
 10
172.5567120240963
 20
1066.767376852834
 30
0.0
  0
VERTEX
  5
26D
330
212
100
AcDbEntity
  8
Make2D$可见线$普通线
100
AcDbVertex
100
AcDb2dVertex
 10
172.5548958025384
 20
1066.766578917076
 30
0.0
  0
VERTEX
  5
26E
330
212
100
AcDbEntity
  8
Make2D$可见线$普通线
100
AcDbVertex
100
AcDb2dVertex
 10
172.5529816202906
 20
1066.765780989325
 30
0.0
  0
VERTEX
  5
26F
330
212
100
AcDbEntity
  8
Make2D$可见线$普通线
100
AcDbVertex
100
AcDb2dVertex
 10
172.5488594613141
 20
1066.764185153692
 30
0.0
  0
VERTEX
  5
270
330
212
100
AcDbEntity
  8
Make2D$可见线$普通线
100
AcDbVertex
100
AcDb2dVertex
 10
172.5443457223445
 20
1066.762589337636
 30
0.0
  0
VERTEX
  5
271
330
212
100
AcDbEntity
  8
Make2D$可见线$普通线
100
AcDbVertex
100
AcDb2dVertex
 10
172.5394405785594
 20
1066.760993532859
 30
0.0
  0
VERTEX
  5
272
330
212
100
AcDbEntity
  8
Make2D$可见线$普通线
100
AcDbVertex
100
AcDb2dVertex
 10
172.5341442051363
 20
1066.75939773106
 30
0.0
  0
VERTEX
  5
273
330
212
100
AcDbEntity
  8
Make2D$可见线$普通线
100
AcDbVertex
100
AcDb2dVertex
 10
172.5223784700867
 20
1066.756206103204
 30
0.0
  0
VERTEX
  5
274
330
212
100
AcDbEntity
  8
Make2D$可见线$普通线
100
AcDbVertex
100
AcDb2dVertex
 10
172.5090499186167
 20
1066.753014387676
 30
0.0
  0
VERTEX
  5
275
330
212
100
AcDbEntity
  8
Make2D$可见线$普通线
100
AcDbVertex
100
AcDb2dVertex
 10
172.4941599521469
 20
1066.749822518083
 30
0.0
  0
VERTEX
  5
276
330
212
100
AcDbEntity
  8
Make2D$可见线$普通线
100
AcDbVertex
100
AcDb2dVertex
 10
172.4597013798914
 20
1066.743438051129
 30
0.0
  0
VERTEX
  5
277
330
212
100
AcDbEntity
  8
Make2D$可见线$普通线
100
AcDbVertex
100
AcDb2dVertex
 10
172.4190139646868
 20
1066.737052171206
 30
0.0
  0
VERTEX
  5
278
330
212
100
AcDbEntity
  8
Make2D$可见线$普通线
100
AcDbVertex
100
AcDb2dVertex
 10
172.3721089178995
 20
1066.730664347172
 30
0.0
  0
VERTEX
  5
279
330
212
100
AcDbEntity
  8
Make2D$可见线$普通线
100
AcDbVertex
100
AcDb2dVertex
 10
171.9686674335462
 20
1066.692394091458
 30
0.0
  0
VERTEX
  5
27A
330
212
100
AcDbEntity
  8
Make2D$可见线$普通线
100
AcDbVertex
100
AcDb2dVertex
 10
171.5642458479465
 20
1066.666455223507
 30
0.0
  0
VERTEX
  5
27B
330
212
100
AcDbEntity
  8
Make2D$可见线$普通线
100
AcDbVertex
100
AcDb2dVertex
 10
169.4803701903732
 20
1066.576263061928
 30
0.0
  0
VERTEX
  5
27C
330
212
100
AcDbEntity
  8
Make2D$可见线$普通线
100
AcDbVertex
100
AcDb2dVertex
 10
166.0668513863743
 20
1066.47380909179
 30
0.0
  0
VERTEX
  5
27D
330
212
100
AcDbEntity
  8
Make2D$可见线$普通线
100
AcDbVertex
100
AcDb2dVertex
 10
162.0150000000015
 20
1066.370753876442
 30
0.0
  0
SEQEND
  5
27E
330
212
100
AcDbEntity
  8
Make2D$可见线$普通线
  0
POLYLINE
  5
27F
330
1F
100
AcDbEntity
  8
Make2D$可见线$普通线
100
AcDb2dPolyline
 66
     1
 10
0.0
 20
0.0
 30
0.0
  0
VERTEX
  5
280
330
27F
100
AcDbEntity
  8
Make2D$可见线$普通线
100
AcDbVertex
100
AcDb2dVertex
 10
162.0150000000015
 20
1061.754291214896
 30
0.0
  0
VERTEX
  5
281
330
27F
100
AcDbEntity
  8
Make2D$可见线$普通线
100
AcDbVertex
100
AcDb2dVertex
 10
156.0575827001882
 20
1061.72255462767
 30
0.0
  0
VERTEX
  5
282
330
27F
100
AcDbEntity
  8
Make2D$可见线$普通线
100
AcDbVertex
100
AcDb2dVertex
 10
153.1332661304738
 20
1061.726316593479
 30
0.0
  0
VERTEX
  5
283
330
27F
100
AcDbEntity
  8
Make2D$可见线$普通线
100
AcDbVertex
100
AcDb2dVertex
 10
152.4953720969138
 20
1061.737646155764
 30
0.0
  0
VERTEX
  5
284
330
27F
100
AcDbEntity
  8
Make2D$可见线$普通线
100
AcDbVertex
100
AcDb2dVertex
 10
152.3183685001869
 20
1061.744308529128
 30
0.0
  0
VERTEX
  5
285
330
27F
100
AcDbEntity
  8
Make2D$可见线$普通线
100
AcDbVertex
100
AcDb2dVertex
 10
152.1746593037967
 20
1061.752851434369
 30
0.0
  0
VERTEX
  5
286
330
27F
100
AcDbEntity
  8
Make2D$可见线$普通线
100
AcDbVertex
100
AcDb2dVertex
 10
152.124690237302
 20
1061.75703964808
 30
0.0
  0
VERTEX
  5
287
330
27F
100
AcDbEntity
  8
Make2D$可见线$普通线
100
AcDbVertex
100
AcDb2dVertex
 10
152.0804976204818
 20
1061.761706199104
 30
0.0
  0
VERTEX
  5
288
330
27F
100
AcDbEntity
  8
Make2D$可见线$普通线
100
AcDbVertex
100
AcDb2dVertex
 10
152.0605087131377
 20
1061.764265246842
 30
0.0
  0
VERTEX
  5
289
330
27F
100
AcDbEntity
  8
Make2D$可见线$普通线
100
AcDbVertex
100
AcDb2dVertex
 10
152.041893397138
 20
1061.76699955379
 30
0.0
  0
VERTEX
  5
28A
330
27F
100
AcDbEntity
  8
Make2D$可见线$普通线
100
AcDbVertex
100
AcDb2dVertex
 10
152.0246281654577
 20
1061.76992767824
 30
0.0
  0
VERTEX
  5
28B
330
27F
100
AcDbEntity
  8
Make2D$可见线$普通线
100
AcDbVertex
100
AcDb2dVertex
 10
152.0086895110721
 20
1061.773068178487
 30
0.0
 42
-0.1531945855429702
  0
VERTEX
  5
28C
330
27F
100
AcDbEntity
  8
Make2D$可见线$普通线
100
AcDbVertex
100
AcDb2dVertex
 10
151.925898997606
 20
1061.809658063001
 30
0.0
  0
VERTEX
  5
28D
330
27F
100
AcDbEntity
  8
Make2D$可见线$普通线
100
AcDbVertex
100
AcDb2dVertex
 10
151.9126235080111
 20
1061.825289732559
 30
0.0
  0
SEQEND
  5
28E
330
27F
100
AcDbEntity
  8
Make2D$可见线$普通线
  0
POLYLINE
  5
28F
330
1F
100
AcDbEntity
  8
Make2D$可见线$普通线
100
AcDb2dPolyline
 66
     1
 10
0.0
 20
0.0
 30
0.0
  0
VERTEX
  5
290
330
28F
100
AcDbEntity
  8
Make2D$可见线$普通线
100
AcDbVertex
100
AcDb2dVertex
 10
151.8438749193726
 20
1061.898113001406
 30
0.0
  0
VERTEX
  5
291
330
28F
100
AcDbEntity
  8
Make2D$可见线$普通线
100
AcDbVertex
100
AcDb2dVertex
 10
151.7999688899306
 20
1061.935588170676
 30
0.0
 42
-0.4662625356459567
  0
VERTEX
  5
292
330
28F
100
AcDbEntity
  8
Make2D$可见线$普通线
100
AcDbVertex
100
AcDb2dVertex
 10
151.7855835191835
 20
1061.997204284039
 30
0.0
 42
-0.127470642098237
  0
VERTEX
  5
293
330
28F
100
AcDbEntity
  8
Make2D$可见线$普通线
100
AcDbVertex
100
AcDb2dVertex
 10
151.8883165906175
 20
1062.043362131865
 30
0.0
 42
-0.0317069624134885
  0
VERTEX
  5
294
330
28F
100
AcDbEntity
  8
Make2D$可见线$普通线
100
AcDbVertex
100
AcDb2dVertex
 10
152.9375858916123
 20
1062.155424934915
 30
0.0
  0
SEQEND
  5
295
330
28F
100
AcDbEntity
  8
Make2D$可见线$普通线
  0
POLYLINE
  5
296
330
1F
100
AcDbEntity
  8
Make2D$可见线$普通线
100
AcDb2dPolyline
 66
     1
 10
0.0
 20
0.0
 30
0.0
  0
VERTEX
  5
297
330
296
100
AcDbEntity
  8
Make2D$可见线$普通线
100
AcDbVertex
100
AcDb2dVertex
 10
162.0150000000015
 20
1063.08274191565
 30
0.0
  0
VERTEX
  5
298
330
296
100
AcDbEntity
  8
Make2D$可见线$普通线
100
AcDbVertex
100
AcDb2dVertex
 10
156.5980090867246
 20
1062.941761027204
 30
0.0
  0
VERTEX
  5
299
330
296
100
AcDbEntity
  8
Make2D$可见线$普通线
100
AcDbVertex
100
AcDb2dVertex
 10
154.5496298096298
 20
1062.877232080392
 30
0.0
  0
VERTEX
  5
29A
330
296
100
AcDbEntity
  8
Make2D$可见线$普通线
100
AcDbVertex
100
AcDb2dVertex
 10
152.9656597104237
 20
1062.813314747617
 30
0.0
  0
VERTEX
  5
29B
330
296
100
AcDbEntity
  8
Make2D$可见线$普通线
100
AcDbVertex
100
AcDb2dVertex
 10
151.9156085535367
 20
1062.749106850934
 30
0.0
 42
0.0563761133410144
  0
VERTEX
  5
29C
330
296
100
AcDbEntity
  8
Make2D$可见线$普通线
100
AcDbVertex
100
AcDb2dVertex
 10
151.4707126182172
 20
1062.684892744156
 30
0.0
  0
VERTEX
  5
29D
330
296
100
AcDbEntity
  8
Make2D$可见线$普通线
100
AcDbVertex
100
AcDb2dVertex
 10
151.457372228642
 20
1062.671744460685
 30
0.0
  0
SEQEND
  5
29E
330
296
100
AcDbEntity
  8
Make2D$可见线$普通线
  0
POLYLINE
  5
29F
330
1F
100
AcDbEntity
  8
Make2D$可见线$普通线
100
AcDb2dPolyline
 66
     1
 10
0.0
 20
0.0
 30
0.0
  0
VERTEX
  5
2A0
330
29F
100
AcDbEntity
  8
Make2D$可见线$普通线
100
AcDbVertex
100
AcDb2dVertex
 10
172.2301750116255
 20
1061.93573720211
 30
0.0
  0
VERTEX
  5
2A1
330
29F
100
AcDbEntity
  8
Make2D$可见线$普通线
100
AcDbVertex
100
AcDb2dVertex
 10
172.2300252951643
 20
1061.935582355768
 30
0.0
 42
-0.0604087459015941
  0
VERTEX
  5
2A2
330
29F
100
AcDbEntity
  8
Make2D$可见线$普通线
100
AcDbVertex
100
AcDb2dVertex
 10
171.8909525137216
 20
1061.899304119966
 30
0.0
 42
-0.0065193176324669
  0
VERTEX
  5
2A3
330
29F
100
AcDbEntity
  8
Make2D$可见线$普通线
100
AcDbVertex
100
AcDb2dVertex
 10
162.0150000000015
 20
1061.754291214896
 30
0.0
  0
SEQEND
  5
2A4
330
29F
100
AcDbEntity
  8
Make2D$可见线$普通线
  0
LINE
  5
2A5
330
1F
100
AcDbEntity
  8
Make2D$可见线$普通线
100
AcDbLine
 10
156.1480739036701
 20
1062.278184831965
 30
0.0
 11
151.4665689606371
 21
1062.278184831965
 31
0.0
  0
LINE
  5
2A6
330
1F
100
AcDbEntity
  8
Make2D$可见线$普通线
100
AcDbLine
 10
162.0150000000015
 20
1061.291553374628
 30
0.0
 11
152.4535191063339
 21
1061.291553374628
 31
0.0
  0
LINE
  5
2A7
330
1F
100
AcDbEntity
  8
Make2D$可见线$普通线
100
AcDbLine
 10
171.576480893669
 20
1061.291553374628
 30
0.0
 11
162.0150000000015
 21
1061.291553374628
 31
0.0
  0
SPLINE
  5
2A8
330
1F
100
AcDbEntity
  8
Make2D$可见线$普通线
100
AcDbSpline
210
0.0
220
0.0
230
1.0
 70
    12
 71
     3
 72
    11
 73
     7
 74
     0
 42
0.000000001
 43
0.0000000001
 12
1.0
 22
0.0
 32
0.0
 13
1.0
 23
0.0
 33
0.0
 40
0.0
 40
0.0
 40
0.0
 40
0.0
 40
1.08510756139267
 40
1.08510756139267
 40
1.08510756139267
 40
4.163176001445033
 40
4.163176001445033
 40
4.163176001445033
 40
4.163176001445033
 10
170.0860350824267
 20
1078.188712148554
 30
0.0
 41
1.0
 10
169.7428899578964
 20
1078.304895051271
 30
0.0
 41
0.9968141744160077
 10
169.3900398984527
 20
1078.38701617476
 30
0.0
 41
0.996814174416008
 10
169.0308572603356
 20
1078.434290648294
 30
0.0
 41
1.0
 10
168.1908296483538
 20
1078.550788827657
 30
0.0
 41
1.0
 10
167.3041383699625
 20
1078.508076772987
 30
0.0
 41
1.0
 10
166.3456301601993
 20
1078.506883931466
 30
0.0
 41
1.0
  0
SPLINE
  5
2A9
330
1F
100
AcDbEntity
  8
Make2D$可见线$普通线
100
AcDbSpline
210
0.0
220
0.0
230
1.0
 70
    12
 71
     3
 72
    11
 73
     7
 74
     0
 42
0.000000001
 43
0.0000000001
 12
1.0
 22
0.0
 32
0.0
 13
1.0
 23
0.0
 33
0.0
 40
0.5301637978110361
 40
0.5301637978110361
 40
0.5301637978110361
 40
0.5301637978110361
 40
3.194462581823
 40
3.194462581823
 40
3.194462581823
 40
4.469120795632584
 40
4.469120795632584
 40
4.469120795632584
 40
4.469120795632584
 10
157.518014727198
 20
1078.507558558757
 30
0.0
 41
1.0
 10
156.6956624603556
 20
1078.512553955443
 30
0.0
 41
1.0
 10
155.9234628872638
 20
1078.540759357164
 30
0.0
 41
1.0
 10
155.1871116207246
 20
1078.457851548688
 30
0.0
 41
1.0
 10
154.7635909480904
 20
1078.414281521619
 30
0.0
 41
0.9959205114558989
 10
154.347474565135
 20
1078.324196765731
 30
0.0
 41
0.9959205114558991
 10
153.9438550979103
 20
1078.188699780213
 30
0.0
 41
1.0
  0
ARC
  5
2AA
330
1F
100
AcDbEntity
  8
Make2D$可见线$普通线
100
AcDbCircle
 10
157.9564669835982
 20
1043.456595526865
 30
0.0
 40
36.78921509473616
100
AcDbArc
 50
63.96105500418287
 51
70.74916192215166
  0
ARC
  5
2AB
330
1F
100
AcDbEntity
  8
Make2D$可见线$普通线
100
AcDbCircle
 10
166.0765492200116
 20
1043.449903791087
 30
0.0
 40
36.79655165140589
100
AcDbArc
 50
109.2520043617283
 51
116.0385907487679
  0
SPLINE
  5
2AC
330
1F
100
AcDbEntity
  8
Make2D$可见线$普通线
100
AcDbSpline
210
0.0
220
0.0
230
1.0
 70
     8
 71
     3
 72
    10
 73
     6
 74
     0
 42
0.000000001
 43
0.0000000001
 12
1.0
 22
0.0
 32
0.0
 13
1.0
 23
0.0
 33
0.0
 40
0.0
 40
0.0
 40
0.0
 40
0.0
 40
0.4295932445187821
 40
0.4295932445187821
 40
0.8478011938004649
 40
0.8478011938004649
 40
0.8478011938004649
 40
0.8478011938004649
 10
61.10204179727123
 20
1125.689227981821
 30
0.0
 10
61.2234455473241
 20
1125.70875166737
 30
0.0
 10
61.38016351238127
 20
1125.697507649519
 30
0.0
 10
61.51365711851156
 20
1125.63293110893
 30
0.0
 10
61.4781472736031
 20
1125.590694147505
 30
0.0
 10
61.3592896749833
 20
1125.570212737504
 30
0.0
  0
ARC
  5
2AD
330
1F
100
AcDbEntity
  8
Make2D$可见线$普通线
100
AcDbCircle
 10
71.33323694848252
 20
1062.055930468521
 30
0.0
 40
64.45055396688453
100
AcDbArc
 50
99.13405180823996
 51
100.371643331933
  0
SPLINE
  5
2AE
330
1F
100
AcDbEntity
  8
Make2D$可见线$普通线
100
AcDbSpline
210
0.0
220
0.0
230
1.0
 70
     8
 71
     3
 72
    10
 73
     6
 74
     0
 42
0.000000001
 43
0.0000000001
 12
1.0
 22
0.0
 32
0.0
 13
1.0
 23
0.0
 33
0.0
 40
0.0
 40
0.0
 40
0.0
 40
0.0
 40
0.4322961051490309
 40
0.4322961051490309
 40
0.8521234261995049
 40
0.8521234261995049
 40
0.8521234261995049
 40
0.8521234261995049
 10
59.98730099383977
 20
1125.318372835621
 30
0.0
 10
59.86507780173849
 20
1125.294549471515
 30
0.0
 10
59.70874013290825
 20
1125.309224131944
 30
0.0
 10
59.57616275341218
 20
1125.384904831477
 30
0.0
 10
59.6103665908189
 20
1125.431497412683
 30
0.0
 10
59.73005311612781
 20
1125.453407008135
 30
0.0
  0
ARC
  5
2AF
330
1F
100
AcDbEntity
  8
Make2D$可见线$普通线
100
AcDbCircle
 10
72.19446443129254
 20
1062.678569498618
 30
0.0
 40
63.81817767131211
100
AcDbArc
 50
99.77514151178016
 51
101.0275134601969
  0
ARC
  5
2B0
330
1F
100
AcDbEntity
  8
Make2D$可见线$普通线
100
AcDbCircle
 10
71.8515793962911
 20
1062.425404159121
 30
0.0
 40
64.07545563971748
100
AcDbArc
 50
99.51785041535226
 51
100.7641670185433
  0
SPLINE
  5
2B1
330
1F
100
AcDbEntity
  8
Make2D$可见线$普通线
100
AcDbSpline
210
0.0
220
0.0
230
1.0
 70
     8
 71
     3
 72
    10
 73
     6
 74
     0
 42
0.000000001
 43
0.0000000001
 12
1.0
 22
0.0
 32
0.0
 13
1.0
 23
0.0
 33
0.0
 40
0.0
 40
0.0
 40
0.0
 40
0.0
 40
0.0865451339584769
 40
0.0865451339584769
 40
0.1704023200521415
 40
0.1704023200521415
 40
0.1704023200521415
 40
0.1704023200521415
 10
59.88440184275487
 20
1125.373403943384
 30
0.0
 10
59.85314529052152
 20
1125.367460538178
 30
0.0
 10
59.83245225643293
 20
1125.369449386524
 30
0.0
 10
59.79855203908267
 20
1125.388532274509
 30
0.0
 10
59.80245134234724
 20
1125.394682234751
 30
0.0
 10
59.83295226721248
 20
1125.400409626205
 30
0.0
  0
ARC
  5
2B2
330
1F
100
AcDbEntity
  8
Make2D$可见线$普通线
100
AcDbCircle
 10
71.67932706781454
 20
1062.300873623115
 30
0.0
 40
64.20193174447
100
AcDbArc
 50
99.38963717249018
 51
100.6329982364571
  0
SPLINE
  5
2B3
330
1F
100
AcDbEntity
  8
Make2D$可见线$普通线
100
AcDbSpline
210
0.0
220
0.0
230
1.0
 70
     8
 71
     3
 72
    10
 73
     6
 74
     0
 42
0.000000001
 43
0.0000000001
 12
1.0
 22
0.0
 32
0.0
 13
1.0
 23
0.0
 33
0.0
 40
0.0
 40
0.0
 40
0.0
 40
0.0
 40
0.0861951079929853
 40
0.0861951079929853
 40
0.1695755246440397
 40
0.1695755246440397
 40
0.1695755246440397
 40
0.1695755246440397
 10
61.20494094835612
 20
1125.642607694279
 30
0.0
 10
61.23609825304618
 20
1125.647761015515
 30
0.0
 10
61.25675120454594
 20
1125.646135086513
 30
0.0
 10
61.29086924196804
 20
1125.629364100944
 30
0.0
 10
61.28673605030406
 20
1125.623894486093
 30
0.0
 10
61.25639052389852
 20
1125.618805619999
 30
0.0
  0
SPLINE
  5
2B4
330
1F
100
AcDbEntity
  8
Make2D$可见线$普通线
100
AcDbSpline
210
0.0
220
0.0
230
1.0
 70
     8
 71
     3
 72
    10
 73
     6
 74
     0
 42
0.000000001
 43
0.0000000001
 12
1.0
 22
0.0
 32
0.0
 13
1.0
 23
0.0
 33
0.0
 40
0.0
 40
0.0
 40
0.0
 40
0.0
 40
0.4278562417384089
 40
0.4278562417384089
 40
0.8441876551062765
 40
0.8441876551062765
 40
0.8441876551062765
 40
0.8441876551062765
 10
60.58754604184719
 20
1125.90288921804
 30
0.0
 10
60.70850871271284
 20
1125.919616710584
 30
0.0
 10
60.86542818865371
 20
1125.910151161404
 30
0.0
 10
60.99938200338272
 20
1125.854305132537
 30
0.0
 10
60.96324144839548
 20
1125.817788205954
 30
0.0
 10
60.84479391955927
 20
1125.800083009261
 30
0.0
  0
LINE
  5
2B5
330
1F
100
AcDbEntity
  8
Make2D$可见线$普通线
100
AcDbLine
 10
59.21555736070377
 20
1125.698395139119
 30
0.0
 11
60.58754604184719
 21
1125.90288921804
 31
0.0
  0
SPLINE
  5
2B6
330
1F
100
AcDbEntity
  8
Make2D$可见线$普通线
100
AcDbSpline
210
0.0
220
0.0
230
1.0
 70
     8
 71
     3
 72
    10
 73
     6
 74
     0
 42
0.000000001
 43
0.0000000001
 12
1.0
 22
0.0
 32
0.0
 13
1.0
 23
0.0
 33
0.0
 40
0.0
 40
0.0
 40
0.0
 40
0.0
 40
0.4300144885604225
 40
0.4300144885604225
 40
0.8478573556136642
 40
0.8478573556136642
 40
0.8478573556136642
 40
0.8478573556136642
 10
59.47280523841584
 20
1125.580037054794
 30
0.0
 10
59.35117098591911
 20
1125.55918991313
 30
0.0
 10
59.19466548594914
 20
1125.571856366819
 30
0.0
 10
59.06134384781444
 20
1125.638595273372
 30
0.0
 10
59.09636655810823
 20
1125.679336111379
 30
0.0
 10
59.21555736070377
 20
1125.698395139119
 30
0.0
  0
LINE
  5
2B7
330
1F
100
AcDbEntity
  8
Make2D$可见线$普通线
100
AcDbLine
 10
60.84479391955927
 20
1125.800083009261
 30
0.0
 11
59.47280523841584
 21
1125.580037054794
 31
0.0
  0
LINE
  5
2B8
330
1F
100
AcDbEntity
  8
Make2D$可见线$普通线
100
AcDbLine
 10
60.74189476847459
 20
1125.842165451236
 30
0.0
 11
59.36990608733083
 21
1125.62836590443
 31
0.0
  0
SPLINE
  5
2B9
330
1F
100
AcDbEntity
  8
Make2D$可见线$普通线
100
AcDbSpline
210
0.0
220
0.0
230
1.0
 70
     8
 71
     3
 72
    10
 73
     6
 74
     0
 42
0.000000001
 43
0.0000000001
 12
1.0
 22
0.0
 32
0.0
 13
1.0
 23
0.0
 33
0.0
 40
0.0
 40
0.0
 40
0.0
 40
0.0
 40
0.086204110420087
 40
0.086204110420087
 40
0.1695526273264777
 40
0.1695526273264777
 40
0.1695526273264777
 40
0.1695526273264777
 10
59.36990608733083
 20
1125.62836590443
 30
0.0
 10
59.33874627498028
 20
1125.623169186663
 30
0.0
 10
59.31809463607431
 20
1125.624845612493
 30
0.0
 10
59.28398802786171
 20
1125.641651220937
 30
0.0
 10
59.28810623908907
 20
1125.647044577242
 30
0.0
 10
59.31845651178844
 20
1125.65203655362
 30
0.0
  0
LINE
  5
2BA
330
1F
100
AcDbEntity
  8
Make2D$可见线$普通线
100
AcDbLine
 10
59.31845651178844
 20
1125.65203655362
 30
0.0
 11
60.69044519293209
 21
1125.862725881439
 31
0.0
  0
SPLINE
  5
2BB
330
1F
100
AcDbEntity
  8
Make2D$可见线$普通线
100
AcDbSpline
210
0.0
220
0.0
230
1.0
 70
     8
 71
     3
 72
    10
 73
     6
 74
     0
 42
0.000000001
 43
0.0000000001
 12
1.0
 22
0.0
 32
0.0
 13
1.0
 23
0.0
 33
0.0
 40
0.0
 40
0.0
 40
0.0
 40
0.0
 40
0.0859647698755256
 40
0.0859647698755256
 40
0.1688499905254651
 40
0.1688499905254651
 40
0.1688499905254651
 40
0.1688499905254651
 10
60.69044519293209
 20
1125.862725881439
 30
0.0
 10
60.72153732831327
 20
1125.867164151134
 30
0.0
 10
60.74217028202952
 20
1125.865812591343
 30
0.0
 10
60.77640911601327
 20
1125.851273247704
 30
0.0
 10
60.77209215597509
 20
1125.846543585028
 30
0.0
 10
60.74189476847459
 20
1125.842165451236
 30
0.0
  0
SPLINE
  5
2BC
330
1F
100
AcDbEntity
  8
Make2D$可见线$普通线
100
AcDbSpline
210
0.0
220
0.0
230
1.0
 70
     8
 71
     3
 72
    10
 73
     6
 74
     0
 42
0.000000001
 43
0.0000000001
 12
1.0
 22
0.0
 32
0.0
 13
1.0
 23
0.0
 33
0.0
 40
0.0
 40
0.0
 40
0.0
 40
0.0
 40
0.426635107401118
 40
0.426635107401118
 40
0.8411595638892886
 40
0.8411595638892886
 40
0.8411595638892886
 40
0.8411595638892886
 10
60.07305028642315
 20
1126.084751841474
 30
0.0
 10
60.19369692813416
 20
1126.098782920507
 30
0.0
 10
60.35092837099626
 20
1126.090968229761
 30
0.0
 10
60.48501459177271
 20
1126.043694796646
 30
0.0
 10
60.44835201231808
 20
1126.012768272317
 30
0.0
 10
60.33029816413523
 20
1125.997748112534
 30
0.0
  0
LINE
  5
2BD
330
1F
100
AcDbEntity
  8
Make2D$可见线$普通线
100
AcDbLine
 10
58.70106160527973
 20
1125.910769111823
 30
0.0
 11
60.07305028642315
 21
1126.084751841474
 31
0.0
  0
SPLINE
  5
2BE
330
1F
100
AcDbEntity
  8
Make2D$可见线$普通线
100
AcDbSpline
210
0.0
220
0.0
230
1.0
 70
     8
 71
     3
 72
    10
 73
     6
 74
     0
 42
0.000000001
 43
0.0000000001
 12
1.0
 22
0.0
 32
0.0
 13
1.0
 23
0.0
 33
0.0
 40
0.0
 40
0.0
 40
0.0
 40
0.0
 40
0.4282869823133386
 40
0.4282869823133386
 40
0.8442313380563288
 40
0.8442313380563288
 40
0.8442313380563288
 40
0.8442313380563288
 10
58.95830948299181
 20
1125.808602296355
 30
0.0
 10
58.83712906440837
 20
1125.790597738822
 30
0.0
 10
58.68034736010259
 20
1125.801432941385
 30
0.0
 10
58.54662109611354
 20
1125.859426159059
 30
0.0
 10
58.58234624468514
 20
1125.894457925431
 30
0.0
 10
58.70106160527973
 20
1125.910769111823
 30
0.0
  0
LINE
  5
2BF
330
1F
100
AcDbEntity
  8
Make2D$可见线$普通线
100
AcDbLine
 10
60.33029816413523
 20
1125.997748112534
 30
0.0
 11
58.95830948299181
 21
1125.808602296355
 31
0.0
  0
LINE
  5
2C0
330
1F
100
AcDbEntity
  8
Make2D$可见线$普通线
100
AcDbLine
 10
60.22739901305033
 20
1126.033487366766
 30
0.0
 11
58.85541033190691
 21
1125.850428007714
 31
0.0
  0
SPLINE
  5
2C1
330
1F
100
AcDbEntity
  8
Make2D$可见线$普通线
100
AcDbSpline
210
0.0
220
0.0
230
1.0
 70
     8
 71
     3
 72
    10
 73
     6
 74
     0
 42
0.000000001
 43
0.0000000001
 12
1.0
 22
0.0
 32
0.0
 13
1.0
 23
0.0
 33
0.0
 40
0.0
 40
0.0
 40
0.0
 40
0.0
 40
0.0859793718239873
 40
0.0859793718239873
 40
0.1688305021353252
 40
0.1688305021353252
 40
0.1688305021353252
 40
0.1688305021353252
 10
58.85541033190691
 20
1125.850428007714
 30
0.0
 10
58.82431382009224
 20
1125.845947378717
 30
0.0
 10
58.8036802931864
 20
1125.847347736653
 30
0.0
 10
58.76945763520132
 20
1125.861923240669
 30
0.0
 10
58.7737616741407
 20
1125.866576761559
 30
0.0
 10
58.80396075636452
 20
1125.870860565388
 30
0.0
  0
LINE
  5
2C2
330
1F
100
AcDbEntity
  8
Make2D$可见线$普通线
100
AcDbLine
 10
58.80396075636452
 20
1125.870860565388
 30
0.0
 11
60.17594943750794
 21
1126.050887446776
 31
0.0
  0
ARC
  5
2C3
330
1F
100
AcDbEntity
  8
Make2D$可见线$普通线
100
AcDbCircle
 10
60.20294511860975
 20
1125.905404405794
 30
0.0
 40
0.1479664894886941
100
AcDbArc
 50
73.43479420239994
 51
100.5121810158715
  0
LINE
  5
2C4
330
1F
100
AcDbEntity
  8
Make2D$可见线$普通线
100
AcDbLine
 10
60.2538279888163
 20
1126.039475319179
 30
0.0
 11
60.22739901305033
 21
1126.033487366766
 31
0.0
  0
SPLINE
  5
2C5
330
1F
100
AcDbEntity
  8
Make2D$可见线$普通线
100
AcDbSpline
210
0.0
220
0.0
230
1.0
 70
     8
 71
     3
 72
    10
 73
     6
 74
     0
 42
0.000000001
 43
0.0000000001
 12
1.0
 22
0.0
 32
0.0
 13
1.0
 23
0.0
 33
0.0
 40
0.0
 40
0.0
 40
0.0
 40
0.0
 40
0.8098793085399839
 40
0.8098793085399839
 40
1.656039538163979
 40
1.656039538163979
 40
1.656039538163979
 40
1.656039538163979
 10
64.07305028642315
 20
1125.143609129725
 30
0.0
 10
64.20989235666354
 20
1125.063958174797
 30
0.0
 10
64.14553796828591
 20
1124.951730850648
 30
0.0
 10
63.66862093703583
 20
1124.836269607634
 30
0.0
 10
63.35679493191947
 20
1124.869551946978
 30
0.0
 10
63.21555736071059
 20
1124.957586515126
 30
0.0
  0
ARC
  5
2C6
330
1F
100
AcDbEntity
  8
Make2D$可见线$普通线
100
AcDbCircle
 10
58.7641708353122
 20
1116.125760891739
 30
0.0
 40
10.46450131968938
100
AcDbArc
 50
59.51433742761485
 51
75.52189190534592
  0
SPLINE
  5
2C7
330
1F
100
AcDbEntity
  8
Make2D$可见线$普通线
100
AcDbSpline
210
0.0
220
0.0
230
1.0
 70
     8
 71
     3
 72
    10
 73
     6
 74
     0
 42
0.000000001
 43
0.0000000001
 12
1.0
 22
0.0
 32
0.0
 13
1.0
 23
0.0
 33
0.0
 40
0.0
 40
0.0
 40
0.0
 40
0.0
 40
0.7927750192228652
 40
0.7927750192228652
 40
1.613590247610345
 40
1.613590247610345
 40
1.613590247610345
 40
1.613590247610345
 10
60.52291162188556
 20
1126.174282122696
 30
0.0
 10
60.38443496325158
 20
1126.214284080145
 30
0.0
 10
60.45297083609432
 20
1126.261168334268
 30
0.0
 10
60.92165577989454
 20
1126.304363277241
 30
0.0
 10
61.23623154443169
 20
1126.294448030336
 30
0.0
 10
61.38040154584337
 20
1126.257943516378
 30
0.0
  0
ARC
  5
2C8
330
1F
100
AcDbEntity
  8
Make2D$可见线$普通线
100
AcDbCircle
 10
57.49411183570442
 20
1115.883434191411
 30
0.0
 40
10.72730997452742
100
AcDbArc
 50
57.76769905461112
 51
73.59980257161621
  0
ARC
  5
2C9
330
1F
100
AcDbEntity
  8
Make2D$可见线$普通线
100
AcDbCircle
 10
57.74951606890994
 20
1115.933389982357
 30
0.0
 40
10.67283225093077
100
AcDbArc
 50
58.11513583384757
 51
73.98289660940895
  0
ARC
  5
2CA
330
1F
100
AcDbEntity
  8
Make2D$可见线$普通线
100
AcDbCircle
 10
60.6797336825956
 20
1126.212566157334
 30
0.0
 40
0.0253502283632121
100
AcDbArc
 50
138.9628370813502
 51
305.375436370228
  0
ARC
  5
2CB
330
1F
100
AcDbEntity
  8
Make2D$可见线$普通线
100
AcDbCircle
 10
60.93246726241546
 20
1125.279191764255
 30
0.0
 40
0.9881494547127673
100
AcDbArc
 50
84.66086773082357
 51
105.9688742509078
  0
ARC
  5
2CC
330
1F
100
AcDbEntity
  8
Make2D$可见线$普通线
100
AcDbCircle
 10
61.01663090748159
 20
1125.37224396152
 30
0.0
 40
0.8908440611292117
100
AcDbArc
 50
77.53568790080706
 51
89.49933721549691
  0
ARC
  5
2CD
330
1F
100
AcDbEntity
  8
Make2D$可见线$普通线
100
AcDbCircle
 10
58.51152901234576
 20
1116.078792196136
 30
0.0
 40
10.51515465499427
100
AcDbArc
 50
59.16311914833662
 51
75.13617905756925
  0
SPLINE
  5
2CE
330
1F
100
AcDbEntity
  8
Make2D$可见线$普通线
100
AcDbSpline
210
0.0
220
0.0
230
1.0
 70
     8
 71
     3
 72
    10
 73
     6
 74
     0
 42
0.000000001
 43
0.0000000001
 12
1.0
 22
0.0
 32
0.0
 13
1.0
 23
0.0
 33
0.0
 40
0.0
 40
0.0
 40
0.0
 40
0.0
 40
0.5039865182483017
 40
0.5039865182483017
 40
1.029916859942732
 40
1.029916859942732
 40
1.029916859942732
 40
1.029916859942732
 10
63.90155170128071
 20
1125.107420709438
 30
0.0
 10
63.98326151159608
 20
1125.059192610773
 30
0.0
 10
63.94534478563276
 20
1124.992073168532
 30
0.0
 10
63.65869081552069
 20
1124.924612807961
 30
0.0
 10
63.4719968731813
 20
1124.943574997539
 30
0.0
 10
63.38705594585326
 20
1124.995811976084
 30
0.0
  0
ARC
  5
2CF
330
1F
100
AcDbEntity
  8
Make2D$可见线$普通线
100
AcDbCircle
 10
86.94876547296104
 20
1101.511553341075
 30
0.0
 40
30.50167794465546
100
AcDbArc
 50
235.0474764077431
 51
304.9525235922565
  0
ARC
  5
2D0
330
1F
100
AcDbEntity
  8
Make2D$可见线$普通线
100
AcDbCircle
 10
86.94876547296104
 20
1101.511553341073
 30
0.0
 40
30.50167794465688
100
AcDbArc
 50
55.04747640774524
 51
124.9525235922548
  0
ARC
  5
2D1
330
1F
100
AcDbEntity
  8
Make2D$可见线$普通线
100
AcDbCircle
 10
238.0812420918163
 20
1101.511553341075
 30
0.0
 40
30.50167794465595
100
AcDbArc
 50
235.0474764077441
 51
304.9525235922561
  0
ARC
  5
2D2
330
1F
100
AcDbEntity
  8
Make2D$可见线$普通线
100
AcDbCircle
 10
238.0812420918161
 20
1101.511553341075
 30
0.0
 40
30.5016779446555
100
AcDbArc
 50
55.04747640774297
 51
124.9525235922569
  0
ARC
  5
2D3
330
1F
100
AcDbEntity
  8
Make2D$可见线$普通线
100
AcDbCircle
 10
332.5578639656784
 20
1101.511553341087
 30
0.0
 40
332.5578639656784
100
AcDbArc
 50
175.8489535754835
 51
184.1510464245137
  0
LINE
  5
2D4
330
1F
100
AcDbEntity
  8
Make2D$可见线$普通线
100
AcDbLine
 10
44.06575240211525
 20
1136.511553341075
 30
0.0
 11
40.8907461862774
 21
1136.511553341075
 31
0.0
  0
LINE
  5
2D5
330
1F
100
AcDbEntity
  8
Make2D$可见线$普通线
100
AcDbLine
 10
40.89063044370221
 20
1136.511553341075
 30
0.0
 11
11.89910268884705
 21
1136.511553341075
 31
0.0
  0
LINE
  5
2D6
330
1F
100
AcDbEntity
  8
Make2D$可见线$普通线
100
AcDbLine
 10
11.89910268884705
 20
1136.511553341075
 30
0.0
 11
9.145834253683374
 21
1136.511553341075
 31
0.0
  0
LINE
  5
2D7
330
1F
100
AcDbEntity
  8
Make2D$可见线$普通线
100
AcDbLine
 10
53.74000000000149
 20
1101.511553341075
 30
0.0
 11
53.74000000000157
 21
1084.536137648956
 31
0.0
  0
LINE
  5
2D8
330
1F
100
AcDbEntity
  8
Make2D$可见线$普通线
100
AcDbLine
 10
53.74000000000158
 20
1082.970313083187
 30
0.0
 11
53.74000000000158
 21
1082.946992902168
 31
0.0
  0
LINE
  5
2D9
330
1F
100
AcDbEntity
  8
Make2D$可见线$普通线
100
AcDbLine
 10
53.74000000000159
 20
1082.60608386275
 30
0.0
 11
53.74000000000159
 21
1082.351504206158
 31
0.0
  0
LINE
  5
2DA
330
1F
100
AcDbEntity
  8
Make2D$可见线$普通线
100
AcDbLine
 10
53.74000000000161
 20
1082.253054167744
 30
0.0
 11
53.74000000000161
 21
1082.073713263822
 31
0.0
  0
LINE
  5
2DB
330
1F
100
AcDbEntity
  8
Make2D$可见线$普通线
100
AcDbLine
 10
53.74000000000161
 20
1081.911378359358
 30
0.0
 11
53.74000000000161
 21
1081.321689600631
 31
0.0
  0
LINE
  5
2DC
330
1F
100
AcDbEntity
  8
Make2D$可见线$普通线
100
AcDbLine
 10
53.74000000000164
 20
1081.2627058868
 30
0.0
 11
53.74000000000162
 21
1081.098393643355
 31
0.0
  0
LINE
  5
2DD
330
1F
100
AcDbEntity
  8
Make2D$可见线$普通线
100
AcDbLine
 10
53.74000000000161
 20
1080.956017964807
 30
0.0
 11
53.74000000000161
 21
1080.888848810001
 31
0.0
  0
LINE
  5
2DE
330
1F
100
AcDbEntity
  8
Make2D$可见线$普通线
100
AcDbLine
 10
53.74000000000164
 20
1080.66130141379
 30
0.0
 11
53.74000000000163
 21
1079.918376231954
 31
0.0
  0
LINE
  5
2DF
330
1F
100
AcDbEntity
  8
Make2D$可见线$普通线
100
AcDbLine
 10
53.74000000000164
 20
1079.850523697486
 30
0.0
 11
53.74000000000164
 21
1079.123680925024
 31
0.0
  0
LINE
  5
2E0
330
1F
100
AcDbEntity
  8
Make2D$可见线$普通线
100
AcDbLine
 10
53.74000000000162
 20
1078.946451115493
 30
0.0
 11
53.74000000000162
 21
1078.917291797411
 31
0.0
  0
LINE
  5
2E1
330
1F
100
AcDbEntity
  8
Make2D$可见线$普通线
100
AcDbLine
 10
53.74000000000164
 20
1078.753062891502
 30
0.0
 11
53.74000000000164
 21
1078.724347827643
 31
0.0
  0
LINE
  5
2E2
330
1F
100
AcDbEntity
  8
Make2D$可见线$普通线
100
AcDbLine
 10
53.74000000000164
 20
1078.573035378297
 30
0.0
 11
53.74000000000161
 21
1078.545007186614
 31
0.0
  0
LINE
  5
2E3
330
1F
100
AcDbEntity
  8
Make2D$可见线$普通线
100
AcDbLine
 10
53.74000000000161
 20
1078.406522946975
 30
0.0
 11
53.74000000000161
 21
1078.379428045216
 31
0.0
  0
LINE
  5
2E4
330
1F
100
AcDbEntity
  8
Make2D$可见线$普通线
100
AcDbLine
 10
53.74000000000158
 20
1078.253679968639
 30
0.0
 11
53.7400000000016
 21
1078.227768574344
 31
0.0
  0
LINE
  5
2E5
330
1F
100
AcDbEntity
  8
Make2D$可见线$普通线
100
AcDbLine
 10
53.74000000000161
 20
1078.11466081441
 30
0.0
 11
53.74000000000161
 21
1078.090186944891
 31
0.0
  0
LINE
  5
2E6
330
1F
100
AcDbEntity
  8
Make2D$可见线$普通线
100
AcDbLine
 10
53.74000000000162
 20
1077.989619855449
 30
0.0
 11
53.7400000000016
 21
1077.96684132775
 31
0.0
  0
LINE
  5
2E7
330
1F
100
AcDbEntity
  8
Make2D$可见线$普通线
100
AcDbLine
 10
53.7400000000016
 20
1077.878711463019
 30
0.0
 11
53.7400000000016
 21
1077.857889893814
 31
0.0
  0
LINE
  5
2E8
330
1F
100
AcDbEntity
  8
Make2D$可见线$普通线
100
AcDbLine
 10
53.74000000000157
 20
1077.782090008699
 30
0.0
 11
53.74000000000157
 21
1077.763490813978
 31
0.0
  0
LINE
  5
2E9
330
1F
100
AcDbEntity
  8
Make2D$可见线$普通线
100
AcDbLine
 10
53.74000000000156
 20
1077.683802259134
 30
0.0
 11
53.74000000000156
 21
1077.63232539109
 31
0.0
  0
LINE
  5
2EA
330
1F
100
AcDbEntity
  8
Make2D$可见线$普通线
100
AcDbLine
 10
53.74000000000157
 20
1077.618982400176
 30
0.0
 11
53.74000000000154
 21
1077.579490973843
 31
0.0
  0
LINE
  5
2EB
330
1F
100
AcDbEntity
  8
Make2D$可见线$普通线
100
AcDbLine
 10
53.74000000000145
 20
1125.443615708306
 30
0.0
 11
53.74000000000144
 21
1125.404124281974
 31
0.0
  0
LINE
  5
2EC
330
1F
100
AcDbEntity
  8
Make2D$可见线$普通线
100
AcDbLine
 10
53.74000000000145
 20
1125.39078129106
 30
0.0
 11
53.74000000000145
 21
1125.339304423016
 31
0.0
  0
LINE
  5
2ED
330
1F
100
AcDbEntity
  8
Make2D$可见线$普通线
100
AcDbLine
 10
53.74000000000143
 20
1125.259615868172
 30
0.0
 11
53.74000000000143
 21
1125.241016673451
 31
0.0
  0
LINE
  5
2EE
330
1F
100
AcDbEntity
  8
Make2D$可见线$普通线
100
AcDbLine
 10
53.74000000000142
 20
1125.165216788336
 30
0.0
 11
53.74000000000144
 21
1125.14439521913
 31
0.0
  0
LINE
  5
2EF
330
1F
100
AcDbEntity
  8
Make2D$可见线$普通线
100
AcDbLine
 10
53.74000000000141
 20
1125.0562653544
 30
0.0
 11
53.74000000000141
 21
1125.033486826701
 31
0.0
  0
LINE
  5
2F0
330
1F
100
AcDbEntity
  8
Make2D$可见线$普通线
100
AcDbLine
 10
53.74000000000141
 20
1124.932919737259
 30
0.0
 11
53.74000000000143
 21
1124.908445867739
 31
0.0
  0
LINE
  5
2F1
330
1F
100
AcDbEntity
  8
Make2D$可见线$普通线
100
AcDbLine
 10
53.74000000000144
 20
1124.795338107805
 30
0.0
 11
53.74000000000144
 21
1124.769426713511
 31
0.0
  0
LINE
  5
2F2
330
1F
100
AcDbEntity
  8
Make2D$可见线$普通线
100
AcDbLine
 10
53.74000000000145
 20
1124.643678636933
 30
0.0
 11
53.74000000000143
 21
1124.616583735175
 31
0.0
  0
LINE
  5
2F3
330
1F
100
AcDbEntity
  8
Make2D$可见线$普通线
100
AcDbLine
 10
53.74000000000144
 20
1124.478099495536
 30
0.0
 11
53.74000000000144
 21
1124.450071303853
 31
0.0
  0
LINE
  5
2F4
330
1F
100
AcDbEntity
  8
Make2D$可见线$普通线
100
AcDbLine
 10
53.74000000000145
 20
1124.298758854507
 30
0.0
 11
53.74000000000145
 21
1124.270043790648
 31
0.0
  0
LINE
  5
2F5
330
1F
100
AcDbEntity
  8
Make2D$可见线$普通线
100
AcDbLine
 10
53.74000000000144
 20
1124.105814884738
 30
0.0
 11
53.74000000000144
 21
1124.076655566656
 31
0.0
  0
LINE
  5
2F6
330
1F
100
AcDbEntity
  8
Make2D$可见线$普通线
100
AcDbLine
 10
53.74000000000145
 20
1123.899425757126
 30
0.0
 11
53.74000000000147
 21
1123.172582984664
 31
0.0
  0
LINE
  5
2F7
330
1F
100
AcDbEntity
  8
Make2D$可见线$普通线
100
AcDbLine
 10
53.74000000000148
 20
1123.104730450196
 30
0.0
 11
53.74000000000148
 21
1122.36180526836
 31
0.0
  0
LINE
  5
2F8
330
1F
100
AcDbEntity
  8
Make2D$可见线$普通线
100
AcDbLine
 10
53.74000000000149
 20
1122.134257872149
 30
0.0
 11
53.74000000000149
 21
1122.067088717343
 31
0.0
  0
LINE
  5
2F9
330
1F
100
AcDbEntity
  8
Make2D$可见线$普通线
100
AcDbLine
 10
53.74000000000151
 20
1121.924713038795
 30
0.0
 11
53.7400000000015
 21
1121.76040079535
 31
0.0
  0
LINE
  5
2FA
330
1F
100
AcDbEntity
  8
Make2D$可见线$普通线
100
AcDbLine
 10
53.74000000000149
 20
1121.701417081519
 30
0.0
 11
53.74000000000151
 21
1121.111728322792
 31
0.0
  0
LINE
  5
2FB
330
1F
100
AcDbEntity
  8
Make2D$可见线$普通线
100
AcDbLine
 10
53.74000000000149
 20
1120.949393418327
 30
0.0
 11
53.74000000000151
 21
1120.770052514406
 31
0.0
  0
LINE
  5
2FC
330
1F
100
AcDbEntity
  8
Make2D$可见线$普通线
100
AcDbLine
 10
53.74000000000154
 20
1120.671602475992
 30
0.0
 11
53.74000000000152
 21
1120.417022819399
 31
0.0
  0
LINE
  5
2FD
330
1F
100
AcDbEntity
  8
Make2D$可见线$普通线
100
AcDbLine
 10
53.74000000000152
 20
1120.076113779982
 30
0.0
 11
53.74000000000152
 21
1120.052793598963
 31
0.0
  0
LINE
  5
2FE
330
1F
100
AcDbEntity
  8
Make2D$可见线$普通线
100
AcDbLine
 10
53.74000000000152
 20
1118.486969033188
 30
0.0
 11
53.74000000000149
 21
1101.511553341075
 31
0.0
  0
ARC
  5
2FF
330
1F
100
AcDbEntity
  8
Make2D$可见线$普通线
100
AcDbCircle
 10
-8.527863965684666
 20
1101.511553341087
 30
0.0
 40
332.5578639656877
100
AcDbArc
 50
355.8489535754864
 51
4.151046424516383
  0
LINE
  5
300
330
1F
100
AcDbEntity
  8
Make2D$可见线$普通线
100
AcDbLine
 10
279.9642475978878
 20
1136.511553341075
 30
0.0
 11
283.1392538137256
 21
1136.511553341075
 31
0.0
  0
LINE
  5
301
330
1F
100
AcDbEntity
  8
Make2D$可见线$普通线
100
AcDbLine
 10
283.1393695563007
 20
1136.511553341075
 30
0.0
 11
312.1308973111559
 21
1136.511553341075
 31
0.0
  0
LINE
  5
302
330
1F
100
AcDbEntity
  8
Make2D$可见线$普通线
100
AcDbLine
 10
312.1308973111559
 20
1136.511553341075
 30
0.0
 11
314.8841657463195
 21
1136.511553341075
 31
0.0
  0
LINE
  5
303
330
1F
100
AcDbEntity
  8
Make2D$可见线$普通线
100
AcDbLine
 10
270.2900000000014
 20
1101.511553341075
 30
0.0
 11
270.2900000000014
 21
1084.536137648956
 31
0.0
  0
LINE
  5
304
330
1F
100
AcDbEntity
  8
Make2D$可见线$普通线
100
AcDbLine
 10
270.2900000000014
 20
1082.970313083187
 30
0.0
 11
270.2900000000014
 21
1082.946992902168
 31
0.0
  0
LINE
  5
305
330
1F
100
AcDbEntity
  8
Make2D$可见线$普通线
100
AcDbLine
 10
270.2900000000014
 20
1082.60608386275
 30
0.0
 11
270.2900000000014
 21
1082.351504206158
 31
0.0
  0
LINE
  5
306
330
1F
100
AcDbEntity
  8
Make2D$可见线$普通线
100
AcDbLine
 10
270.2900000000014
 20
1082.253054167744
 30
0.0
 11
270.2900000000014
 21
1082.073713263822
 31
0.0
  0
LINE
  5
307
330
1F
100
AcDbEntity
  8
Make2D$可见线$普通线
100
AcDbLine
 10
270.2900000000013
 20
1081.911378359358
 30
0.0
 11
270.2900000000013
 21
1081.321689600631
 31
0.0
  0
LINE
  5
308
330
1F
100
AcDbEntity
  8
Make2D$可见线$普通线
100
AcDbLine
 10
270.2900000000014
 20
1081.2627058868
 30
0.0
 11
270.2900000000014
 21
1081.098393643355
 31
0.0
  0
LINE
  5
309
330
1F
100
AcDbEntity
  8
Make2D$可见线$普通线
100
AcDbLine
 10
270.2900000000013
 20
1080.956017964807
 30
0.0
 11
270.2900000000013
 21
1080.888848810001
 31
0.0
  0
LINE
  5
30A
330
1F
100
AcDbEntity
  8
Make2D$可见线$普通线
100
AcDbLine
 10
270.2900000000014
 20
1080.66130141379
 30
0.0
 11
270.2900000000014
 21
1079.918376231954
 31
0.0
  0
LINE
  5
30B
330
1F
100
AcDbEntity
  8
Make2D$可见线$普通线
100
AcDbLine
 10
270.2900000000014
 20
1079.850523697486
 30
0.0
 11
270.2900000000014
 21
1079.123680925024
 31
0.0
  0
LINE
  5
30C
330
1F
100
AcDbEntity
  8
Make2D$可见线$普通线
100
AcDbLine
 10
270.2900000000013
 20
1078.946451115493
 30
0.0
 11
270.2900000000013
 21
1078.917291797411
 31
0.0
  0
LINE
  5
30D
330
1F
100
AcDbEntity
  8
Make2D$可见线$普通线
100
AcDbLine
 10
270.2900000000014
 20
1078.753062891502
 30
0.0
 11
270.2900000000014
 21
1078.724347827643
 31
0.0
  0
LINE
  5
30E
330
1F
100
AcDbEntity
  8
Make2D$可见线$普通线
100
AcDbLine
 10
270.2900000000013
 20
1078.573035378297
 30
0.0
 11
270.2900000000013
 21
1078.545007186614
 31
0.0
  0
LINE
  5
30F
330
1F
100
AcDbEntity
  8
Make2D$可见线$普通线
100
AcDbLine
 10
270.2900000000014
 20
1078.406522946975
 30
0.0
 11
270.2900000000014
 21
1078.379428045216
 31
0.0
  0
LINE
  5
310
330
1F
100
AcDbEntity
  8
Make2D$可见线$普通线
100
AcDbLine
 10
270.2900000000014
 20
1078.253679968639
 30
0.0
 11
270.2900000000014
 21
1078.227768574344
 31
0.0
  0
LINE
  5
311
330
1F
100
AcDbEntity
  8
Make2D$可见线$普通线
100
AcDbLine
 10
270.2900000000014
 20
1078.11466081441
 30
0.0
 11
270.2900000000014
 21
1078.090186944891
 31
0.0
  0
LINE
  5
312
330
1F
100
AcDbEntity
  8
Make2D$可见线$普通线
100
AcDbLine
 10
270.2900000000014
 20
1077.989619855449
 30
0.0
 11
270.2900000000014
 21
1077.96684132775
 31
0.0
  0
LINE
  5
313
330
1F
100
AcDbEntity
  8
Make2D$可见线$普通线
100
AcDbLine
 10
270.2900000000014
 20
1077.878711463019
 30
0.0
 11
270.2900000000014
 21
1077.857889893814
 31
0.0
  0
LINE
  5
314
330
1F
100
AcDbEntity
  8
Make2D$可见线$普通线
100
AcDbLine
 10
270.2900000000014
 20
1077.782090008699
 30
0.0
 11
270.2900000000014
 21
1077.763490813978
 31
0.0
  0
LINE
  5
315
330
1F
100
AcDbEntity
  8
Make2D$可见线$普通线
100
AcDbLine
 10
270.2900000000014
 20
1077.683802259134
 30
0.0
 11
270.2900000000014
 21
1077.63232539109
 31
0.0
  0
LINE
  5
316
330
1F
100
AcDbEntity
  8
Make2D$可见线$普通线
100
AcDbLine
 10
270.2900000000014
 20
1077.618982400176
 30
0.0
 11
270.2900000000014
 21
1077.579490973843
 31
0.0
  0
LINE
  5
317
330
1F
100
AcDbEntity
  8
Make2D$可见线$普通线
100
AcDbLine
 10
270.2900000000014
 20
1125.443615708306
 30
0.0
 11
270.2900000000014
 21
1125.404124281974
 31
0.0
  0
LINE
  5
318
330
1F
100
AcDbEntity
  8
Make2D$可见线$普通线
100
AcDbLine
 10
270.2900000000015
 20
1125.39078129106
 30
0.0
 11
270.2900000000016
 21
1125.339304423016
 31
0.0
  0
LINE
  5
319
330
1F
100
AcDbEntity
  8
Make2D$可见线$普通线
100
AcDbLine
 10
270.2900000000016
 20
1125.259615868172
 30
0.0
 11
270.2900000000016
 21
1125.241016673451
 31
0.0
  0
LINE
  5
31A
330
1F
100
AcDbEntity
  8
Make2D$可见线$普通线
100
AcDbLine
 10
270.2900000000015
 20
1125.165216788336
 30
0.0
 11
270.2900000000015
 21
1125.14439521913
 31
0.0
  0
LINE
  5
31B
330
1F
100
AcDbEntity
  8
Make2D$可见线$普通线
100
AcDbLine
 10
270.2900000000015
 20
1125.0562653544
 30
0.0
 11
270.2900000000015
 21
1125.033486826701
 31
0.0
  0
LINE
  5
31C
330
1F
100
AcDbEntity
  8
Make2D$可见线$普通线
100
AcDbLine
 10
270.2900000000015
 20
1124.932919737259
 30
0.0
 11
270.2900000000015
 21
1124.908445867739
 31
0.0
  0
LINE
  5
31D
330
1F
100
AcDbEntity
  8
Make2D$可见线$普通线
100
AcDbLine
 10
270.2900000000015
 20
1124.795338107805
 30
0.0
 11
270.2900000000015
 21
1124.76942671351
 31
0.0
  0
LINE
  5
31E
330
1F
100
AcDbEntity
  8
Make2D$可见线$普通线
100
AcDbLine
 10
270.2900000000015
 20
1124.643678636933
 30
0.0
 11
270.2900000000015
 21
1124.616583735175
 31
0.0
  0
LINE
  5
31F
330
1F
100
AcDbEntity
  8
Make2D$可见线$普通线
100
AcDbLine
 10
270.2900000000014
 20
1124.478099495536
 30
0.0
 11
270.2900000000014
 21
1124.450071303853
 31
0.0
  0
LINE
  5
320
330
1F
100
AcDbEntity
  8
Make2D$可见线$普通线
100
AcDbLine
 10
270.2900000000016
 20
1124.298758854507
 30
0.0
 11
270.2900000000016
 21
1124.270043790648
 31
0.0
  0
LINE
  5
321
330
1F
100
AcDbEntity
  8
Make2D$可见线$普通线
100
AcDbLine
 10
270.2900000000016
 20
1124.105814884739
 30
0.0
 11
270.2900000000014
 21
1124.076655566656
 31
0.0
  0
LINE
  5
322
330
1F
100
AcDbEntity
  8
Make2D$可见线$普通线
100
AcDbLine
 10
270.2900000000014
 20
1123.899425757126
 30
0.0
 11
270.2900000000014
 21
1123.172582984664
 31
0.0
  0
LINE
  5
323
330
1F
100
AcDbEntity
  8
Make2D$可见线$普通线
100
AcDbLine
 10
270.2900000000014
 20
1123.104730450196
 30
0.0
 11
270.2900000000014
 21
1122.36180526836
 31
0.0
  0
LINE
  5
324
330
1F
100
AcDbEntity
  8
Make2D$可见线$普通线
100
AcDbLine
 10
270.2900000000014
 20
1122.134257872149
 30
0.0
 11
270.2900000000014
 21
1122.067088717343
 31
0.0
  0
LINE
  5
325
330
1F
100
AcDbEntity
  8
Make2D$可见线$普通线
100
AcDbLine
 10
270.2900000000014
 20
1121.924713038795
 30
0.0
 11
270.2900000000014
 21
1121.76040079535
 31
0.0
  0
LINE
  5
326
330
1F
100
AcDbEntity
  8
Make2D$可见线$普通线
100
AcDbLine
 10
270.2900000000013
 20
1121.701417081519
 30
0.0
 11
270.2900000000013
 21
1121.111728322792
 31
0.0
  0
LINE
  5
327
330
1F
100
AcDbEntity
  8
Make2D$可见线$普通线
100
AcDbLine
 10
270.2900000000014
 20
1120.949393418327
 30
0.0
 11
270.2900000000013
 21
1120.770052514405
 31
0.0
  0
LINE
  5
328
330
1F
100
AcDbEntity
  8
Make2D$可见线$普通线
100
AcDbLine
 10
270.2900000000014
 20
1120.671602475992
 30
0.0
 11
270.2900000000013
 21
1120.417022819399
 31
0.0
  0
LINE
  5
329
330
1F
100
AcDbEntity
  8
Make2D$可见线$普通线
100
AcDbLine
 10
270.2900000000014
 20
1120.076113779982
 30
0.0
 11
270.2900000000013
 21
1120.052793598963
 31
0.0
  0
LINE
  5
32A
330
1F
100
AcDbEntity
  8
Make2D$可见线$普通线
100
AcDbLine
 10
270.2900000000014
 20
1118.486969033194
 30
0.0
 11
270.2900000000014
 21
1101.511553341075
 31
0.0
  0
LINE
  5
32B
330
1F
100
AcDbEntity
  8
Make2D$可见线$普通线
100
AcDbLine
 10
263.0800000000016
 20
1124.865360920456
 30
0.0
 11
263.0800000000016
 21
1125.541553341075
 31
0.0
  0
LINE
  5
32C
330
1F
100
AcDbEntity
  8
Make2D$可见线$普通线
100
AcDbLine
 10
264.0800000000016
 20
1124.865360920456
 30
0.0
 11
263.0800000000016
 21
1124.865360920456
 31
0.0
  0
LINE
  5
32D
330
1F
100
AcDbEntity
  8
Make2D$可见线$普通线
100
AcDbLine
 10
264.0800000000016
 20
1125.541553341075
 30
0.0
 11
264.0800000000016
 21
1124.865360920456
 31
0.0
  0
LINE
  5
32E
330
1F
100
AcDbEntity
  8
Make2D$可见线$普通线
100
AcDbLine
 10
266.0800000000016
 20
1125.541553341075
 30
0.0
 11
264.0800000000016
 21
1125.541553341075
 31
0.0
  0
LINE
  5
32F
330
1F
100
AcDbEntity
  8
Make2D$可见线$普通线
100
AcDbLine
 10
266.0800000000016
 20
1125.810875540098
 30
0.0
 11
266.0800000000016
 21
1125.541553341075
 31
0.0
  0
LINE
  5
330
330
1F
100
AcDbEntity
  8
Make2D$可见线$普通线
100
AcDbLine
 10
264.0800000000016
 20
1125.810875540098
 30
0.0
 11
266.0800000000016
 21
1125.810875540098
 31
0.0
  0
LINE
  5
331
330
1F
100
AcDbEntity
  8
Make2D$可见线$普通线
100
AcDbLine
 10
264.0800000000016
 20
1126.219478699581
 30
0.0
 11
264.0800000000015
 21
1125.810875540098
 31
0.0
  0
LINE
  5
332
330
1F
100
AcDbEntity
  8
Make2D$可见线$普通线
100
AcDbLine
 10
263.0800000000016
 20
1126.219478699581
 30
0.0
 11
264.0800000000016
 21
1126.219478699581
 31
0.0
  0
LINE
  5
333
330
1F
100
AcDbEntity
  8
Make2D$可见线$普通线
100
AcDbLine
 10
263.0800000000016
 20
1125.810875540098
 30
0.0
 11
263.0800000000016
 21
1126.219478699581
 31
0.0
  0
LINE
  5
334
330
1F
100
AcDbEntity
  8
Make2D$可见线$普通线
100
AcDbLine
 10
261.0800000000016
 20
1125.810875540098
 30
0.0
 11
263.0800000000016
 21
1125.810875540098
 31
0.0
  0
LINE
  5
335
330
1F
100
AcDbEntity
  8
Make2D$可见线$普通线
100
AcDbLine
 10
261.0800000000016
 20
1125.541553341075
 30
0.0
 11
261.0800000000016
 21
1125.810875540098
 31
0.0
  0
LINE
  5
336
330
1F
100
AcDbEntity
  8
Make2D$可见线$普通线
100
AcDbLine
 10
263.0800000000016
 20
1125.541553341075
 30
0.0
 11
261.0800000000016
 21
1125.541553341075
 31
0.0
  0
LINE
  5
337
330
1F
100
AcDbEntity
  8
Make2D$可见线$普通线
100
AcDbLine
 10
263.2800000000016
 20
1125.598984625399
 30
0.0
 11
261.2800000000016
 21
1125.598984625399
 31
0.0
  0
LINE
  5
338
330
1F
100
AcDbEntity
  8
Make2D$可见线$普通线
100
AcDbLine
 10
261.2800000000016
 20
1125.598984625399
 30
0.0
 11
261.2800000000016
 21
1125.760554146228
 31
0.0
  0
LINE
  5
339
330
1F
100
AcDbEntity
  8
Make2D$可见线$普通线
100
AcDbLine
 10
261.2800000000016
 20
1125.760554146228
 30
0.0
 11
263.2800000000016
 21
1125.760554146228
 31
0.0
  0
LINE
  5
33A
330
1F
100
AcDbEntity
  8
Make2D$可见线$普通线
100
AcDbLine
 10
263.2800000000016
 20
1125.760554146228
 30
0.0
 11
263.2800000000017
 21
1126.186228222274
 31
0.0
  0
LINE
  5
33B
330
1F
100
AcDbEntity
  8
Make2D$可见线$普通线
100
AcDbLine
 10
263.2800000000016
 20
1126.186228222274
 30
0.0
 11
263.8800000000016
 21
1126.186228222274
 31
0.0
  0
LINE
  5
33C
330
1F
100
AcDbEntity
  8
Make2D$可见线$普通线
100
AcDbLine
 10
263.8800000000017
 20
1126.186228222274
 30
0.0
 11
263.8800000000017
 21
1125.760554146228
 31
0.0
  0
LINE
  5
33D
330
1F
100
AcDbEntity
  8
Make2D$可见线$普通线
100
AcDbLine
 10
263.8800000000017
 20
1125.760554146228
 30
0.0
 11
265.8800000000017
 21
1125.760554146228
 31
0.0
  0
LINE
  5
33E
330
1F
100
AcDbEntity
  8
Make2D$可见线$普通线
100
AcDbLine
 10
265.8800000000017
 20
1125.760554146228
 30
0.0
 11
265.8800000000017
 21
1125.598984625399
 31
0.0
  0
LINE
  5
33F
330
1F
100
AcDbEntity
  8
Make2D$可见线$普通线
100
AcDbLine
 10
265.8800000000017
 20
1125.598984625399
 30
0.0
 11
263.8800000000017
 21
1125.598984625399
 31
0.0
  0
LINE
  5
340
330
1F
100
AcDbEntity
  8
Make2D$可见线$普通线
100
AcDbLine
 10
263.8800000000017
 20
1125.598984625399
 30
0.0
 11
263.8800000000016
 21
1124.941553341075
 31
0.0
  0
LINE
  5
341
330
1F
100
AcDbEntity
  8
Make2D$可见线$普通线
100
AcDbLine
 10
263.8800000000016
 20
1124.941553341075
 30
0.0
 11
263.2800000000016
 21
1124.941553341075
 31
0.0
  0
LINE
  5
342
330
1F
100
AcDbEntity
  8
Make2D$可见线$普通线
100
AcDbLine
 10
263.2800000000016
 20
1124.941553341075
 30
0.0
 11
263.2800000000016
 21
1125.598984625399
 31
0.0
  0
LINE
  5
343
330
1F
100
AcDbEntity
  8
Make2D$可见线$普通线
100
AcDbLine
 10
55.4500003024581
 20
1084.536137648959
 30
0.0
 11
55.45000030245809
 21
1082.970313073287
 31
0.0
  0
LINE
  5
344
330
1F
100
AcDbEntity
  8
Make2D$可见线$普通线
100
AcDbLine
 10
55.45000030245811
 20
1082.958281191266
 30
0.0
 11
55.4500003024581
 21
1082.60608386275
 31
0.0
  0
LINE
  5
345
330
1F
100
AcDbEntity
  8
Make2D$可见线$普通线
100
AcDbLine
 10
55.4500003024581
 20
1082.591498562868
 30
0.0
 11
55.4500003024581
 21
1082.253054167744
 31
0.0
  0
LINE
  5
346
330
1F
100
AcDbEntity
  8
Make2D$可见线$普通线
100
AcDbLine
 10
55.45000030245811
 20
1082.236104870628
 30
0.0
 11
55.45000030245811
 21
1081.911378359358
 31
0.0
  0
LINE
  5
347
330
1F
100
AcDbEntity
  8
Make2D$可见线$普通线
100
AcDbLine
 10
55.45000030245811
 20
1081.892258285408
 30
0.0
 11
55.45000030245811
 21
1081.58121080868
 31
0.0
  0
LINE
  5
348
330
1F
100
AcDbEntity
  8
Make2D$可见线$普通线
100
AcDbLine
 10
55.4500003024581
 20
1081.560116978059
 30
0.0
 11
55.4500003024581
 21
1081.2627058868
 31
0.0
  0
LINE
  5
349
330
1F
100
AcDbEntity
  8
Make2D$可见线$普通线
100
AcDbLine
 10
55.45000030245811
 20
1081.239839119419
 30
0.0
 11
55.45000030245811
 21
1080.956017964807
 31
0.0
  0
LINE
  5
34A
330
1F
100
AcDbEntity
  8
Make2D$可见线$普通线
100
AcDbLine
 10
55.45000030245813
 20
1080.93158288031
 30
0.0
 11
55.45000030245811
 21
1080.661301413789
 31
0.0
  0
LINE
  5
34B
330
1F
100
AcDbEntity
  8
Make2D$可见线$普通线
100
AcDbLine
 10
55.4500003024581
 20
1080.635506431528
 30
0.0
 11
55.4500003024581
 21
1080.378710604836
 31
0.0
  0
LINE
  5
34C
330
1F
100
AcDbEntity
  8
Make2D$可见线$普通线
100
AcDbLine
 10
55.45000030245812
 20
1080.351767943838
 30
0.0
 11
55.4500003024581
 21
1080.108399909037
 31
0.0
  0
LINE
  5
34D
330
1F
100
AcDbEntity
  8
Make2D$可见线$普通线
100
AcDbLine
 10
55.4500003024581
 20
1080.080525587959
 30
0.0
 11
55.4500003024581
 21
1079.850523697482
 31
0.0
  0
LINE
  5
34E
330
1F
100
AcDbEntity
  8
Make2D$可见线$普通线
100
AcDbLine
 10
55.45000030245811
 20
1079.82193753455
 30
0.0
 11
55.45000030245811
 21
1079.605236341259
 31
0.0
  0
LINE
  5
34F
330
1F
100
AcDbEntity
  8
Make2D$可见线$普通线
100
AcDbLine
 10
55.45000030245813
 20
1079.576161954182
 30
0.0
 11
55.45000030245811
 21
1079.372692211456
 31
0.0
  0
LINE
  5
350
330
1F
100
AcDbEntity
  8
Make2D$可见线$普通线
100
AcDbLine
 10
55.45000030245811
 20
1079.343357017301
 30
0.0
 11
55.45000030245811
 21
1079.153045679164
 31
0.0
  0
LINE
  5
351
330
1F
100
AcDbEntity
  8
Make2D$可见线$普通线
100
AcDbLine
 10
55.4500003024581
 20
1079.123680944562
 30
0.0
 11
55.4500003024581
 21
1078.946451115471
 31
0.0
  0
LINE
  5
352
330
1F
100
AcDbEntity
  8
Make2D$可见线$普通线
100
AcDbLine
 10
55.45000030245813
 20
1078.917291802031
 30
0.0
 11
55.4500003024581
 21
1078.753062891466
 31
0.0
  0
LINE
  5
353
330
1F
100
AcDbEntity
  8
Make2D$可见线$普通线
100
AcDbLine
 10
55.45000030245814
 20
1078.724347827644
 30
0.0
 11
55.45000030245811
 21
1078.573035378239
 31
0.0
  0
LINE
  5
354
330
1F
100
AcDbEntity
  8
Make2D$可见线$普通线
100
AcDbLine
 10
55.45000030245809
 20
1078.545007186614
 30
0.0
 11
55.45000030245811
 21
1078.406522946878
 31
0.0
  0
LINE
  5
355
330
1F
100
AcDbEntity
  8
Make2D$可见线$普通线
100
AcDbLine
 10
55.45000030245814
 20
1078.379428045218
 30
0.0
 11
55.45000030245811
 21
1078.253679968472
 31
0.0
  0
LINE
  5
356
330
1F
100
AcDbEntity
  8
Make2D$可见线$普通线
100
AcDbLine
 10
55.45000030245808
 20
1078.227768574346
 30
0.0
 11
55.4500003024581
 21
1078.114660814112
 31
0.0
  0
LINE
  5
357
330
1F
100
AcDbEntity
  8
Make2D$可见线$普通线
100
AcDbLine
 10
55.45000030245814
 20
1078.090186944896
 30
0.0
 11
55.45000030245811
 21
1077.989619854884
 31
0.0
  0
LINE
  5
358
330
1F
100
AcDbEntity
  8
Make2D$可见线$普通线
100
AcDbLine
 10
55.45000030245812
 20
1077.96684132776
 30
0.0
 11
55.4500003024581
 21
1077.878711461879
 31
0.0
  0
LINE
  5
359
330
1F
100
AcDbEntity
  8
Make2D$可见线$普通线
100
AcDbLine
 10
55.4500003024581
 20
1077.857889893839
 30
0.0
 11
55.4500003024581
 21
1077.782090006187
 31
0.0
  0
LINE
  5
35A
330
1F
100
AcDbEntity
  8
Make2D$可见线$普通线
100
AcDbLine
 10
55.45000030245811
 20
1077.763490814045
 30
0.0
 11
55.4500003024581
 21
1077.683802259342
 31
0.0
  0
LINE
  5
35B
330
1F
100
AcDbEntity
  8
Make2D$可见线$普通线
100
AcDbLine
 10
55.4500003024581
 20
1077.632325391092
 30
0.0
 11
55.4500003024581
 21
1077.618982400953
 31
0.0
  0
LINE
  5
35C
330
1F
100
AcDbEntity
  8
Make2D$可见线$普通线
100
AcDbLine
 10
55.4500003024581
 20
1077.579490973868
 30
0.0
 11
55.45000030245808
 21
1077.515316707555
 31
0.0
  0
ARC
  5
35D
330
1F
100
AcDbEntity
  8
Make2D$可见线$普通线
100
AcDbCircle
 10
56.45000422522658
 20
1077.511013925959
 30
0.0
 40
1.000003922927098
100
AcDbArc
 50
179.9989795316778
 51
269.9997752428027
  0
ARC
  5
35E
330
1F
100
AcDbEntity
  8
Make2D$可见线$普通线
100
AcDbCircle
 10
56.44975575334365
 20
1125.512341222674
 30
0.0
 40
0.999755486345987
100
AcDbArc
 50
89.98598494084702
 51
180.0152602846711
  0
LINE
  5
35F
330
1F
100
AcDbEntity
  8
Make2D$可见线$普通线
100
AcDbLine
 10
55.45000030245808
 20
1125.507789974595
 30
0.0
 11
55.45000030245808
 21
1125.443615708281
 31
0.0
  0
LINE
  5
360
330
1F
100
AcDbEntity
  8
Make2D$可见线$普通线
100
AcDbLine
 10
55.45000030245808
 20
1125.404124281197
 30
0.0
 11
55.45000030245808
 21
1125.390781291058
 31
0.0
  0
LINE
  5
361
330
1F
100
AcDbEntity
  8
Make2D$可见线$普通线
100
AcDbLine
 10
55.45000030245809
 20
1125.339304422808
 30
0.0
 11
55.45000030245809
 21
1125.259615868104
 31
0.0
  0
LINE
  5
362
330
1F
100
AcDbEntity
  8
Make2D$可见线$普通线
100
AcDbLine
 10
55.45000030245808
 20
1125.241016675963
 30
0.0
 11
55.45000030245808
 21
1125.16521678831
 31
0.0
  0
LINE
  5
363
330
1F
100
AcDbEntity
  8
Make2D$可见线$普通线
100
AcDbLine
 10
55.45000030245809
 20
1125.14439522027
 30
0.0
 11
55.45000030245809
 21
1125.05626535439
 31
0.0
  0
LINE
  5
364
330
1F
100
AcDbEntity
  8
Make2D$可见线$普通线
100
AcDbLine
 10
55.45000030245809
 20
1125.033486827266
 30
0.0
 11
55.45000030245809
 21
1124.932919737254
 31
0.0
  0
LINE
  5
365
330
1F
100
AcDbEntity
  8
Make2D$可见线$普通线
100
AcDbLine
 10
55.45000030245808
 20
1124.908445868038
 30
0.0
 11
55.45000030245808
 21
1124.795338107803
 31
0.0
  0
LINE
  5
366
330
1F
100
AcDbEntity
  8
Make2D$可见线$普通线
100
AcDbLine
 10
55.45000030245808
 20
1124.769426713677
 30
0.0
 11
55.4500003024581
 21
1124.643678636932
 31
0.0
  0
LINE
  5
367
330
1F
100
AcDbEntity
  8
Make2D$可见线$普通线
100
AcDbLine
 10
55.45000030245811
 20
1124.616583735272
 30
0.0
 11
55.45000030245809
 21
1124.478099495535
 31
0.0
  0
LINE
  5
368
330
1F
100
AcDbEntity
  8
Make2D$可见线$普通线
100
AcDbLine
 10
55.45000030245809
 20
1124.450071303911
 30
0.0
 11
55.45000030245809
 21
1124.298758854506
 31
0.0
  0
LINE
  5
369
330
1F
100
AcDbEntity
  8
Make2D$可见线$普通线
100
AcDbLine
 10
55.45000030245809
 20
1124.270043790683
 30
0.0
 11
55.45000030245809
 21
1124.105814880119
 31
0.0
  0
LINE
  5
36A
330
1F
100
AcDbEntity
  8
Make2D$可见线$普通线
100
AcDbLine
 10
55.45000030245809
 20
1124.076655566679
 30
0.0
 11
55.45000030245809
 21
1123.899425737587
 31
0.0
  0
LINE
  5
36B
330
1F
100
AcDbEntity
  8
Make2D$可见线$普通线
100
AcDbLine
 10
55.45000030245809
 20
1123.870061002986
 30
0.0
 11
55.45000030245809
 21
1123.679749664849
 31
0.0
  0
LINE
  5
36C
330
1F
100
AcDbEntity
  8
Make2D$可见线$普通线
100
AcDbLine
 10
55.4500003024581
 20
1123.650414470694
 30
0.0
 11
55.4500003024581
 21
1123.446944727968
 31
0.0
  0
LINE
  5
36D
330
1F
100
AcDbEntity
  8
Make2D$可见线$普通线
100
AcDbLine
 10
55.4500003024581
 20
1123.417870340891
 30
0.0
 11
55.4500003024581
 21
1123.2011691476
 31
0.0
  0
LINE
  5
36E
330
1F
100
AcDbEntity
  8
Make2D$可见线$普通线
100
AcDbLine
 10
55.45000030245809
 20
1123.172582984668
 30
0.0
 11
55.45000030245809
 21
1122.94258109419
 31
0.0
  0
LINE
  5
36F
330
1F
100
AcDbEntity
  8
Make2D$可见线$普通线
100
AcDbLine
 10
55.45000030245811
 20
1122.914706773112
 30
0.0
 11
55.45000030245809
 21
1122.671338738312
 31
0.0
  0
LINE
  5
370
330
1F
100
AcDbEntity
  8
Make2D$可见线$普通线
100
AcDbLine
 10
55.4500003024581
 20
1122.644396077314
 30
0.0
 11
55.4500003024581
 21
1122.387600250621
 31
0.0
  0
LINE
  5
371
330
1F
100
AcDbEntity
  8
Make2D$可见线$普通线
100
AcDbLine
 10
55.45000030245811
 20
1122.361805268361
 30
0.0
 11
55.45000030245809
 21
1122.091523801839
 31
0.0
  0
LINE
  5
372
330
1F
100
AcDbEntity
  8
Make2D$可见线$普通线
100
AcDbLine
 10
55.45000030245811
 20
1122.067088717344
 30
0.0
 11
55.45000030245809
 21
1121.783267562731
 31
0.0
  0
LINE
  5
373
330
1F
100
AcDbEntity
  8
Make2D$可见线$普通线
100
AcDbLine
 10
55.45000030245809
 20
1121.76040079535
 30
0.0
 11
55.45000030245809
 21
1121.462989704091
 31
0.0
  0
LINE
  5
374
330
1F
100
AcDbEntity
  8
Make2D$可见线$普通线
100
AcDbLine
 10
55.4500003024581
 20
1121.44189587347
 30
0.0
 11
55.45000030245808
 21
1121.130848396742
 31
0.0
  0
LINE
  5
375
330
1F
100
AcDbEntity
  8
Make2D$可见线$普通线
100
AcDbLine
 10
55.45000030245807
 20
1121.111728322792
 30
0.0
 11
55.45000030245807
 21
1120.787001811521
 31
0.0
  0
LINE
  5
376
330
1F
100
AcDbEntity
  8
Make2D$可见线$普通线
100
AcDbLine
 10
55.45000030245808
 20
1120.770052514406
 30
0.0
 11
55.45000030245808
 21
1120.431608119281
 31
0.0
  0
LINE
  5
377
330
1F
100
AcDbEntity
  8
Make2D$可见线$普通线
100
AcDbLine
 10
55.45000030245809
 20
1120.417022819399
 30
0.0
 11
55.45000030245807
 21
1120.064825490884
 31
0.0
  0
LINE
  5
378
330
1F
100
AcDbEntity
  8
Make2D$可见线$普通线
100
AcDbLine
 10
55.45000030245807
 20
1120.052793608862
 30
0.0
 11
55.45000030245803
 21
1118.486969033188
 31
0.0
  0
LINE
  5
379
330
1F
100
AcDbEntity
  8
Make2D$可见线$普通线
100
AcDbLine
 10
268.580000302458
 20
1084.536137648962
 30
0.0
 11
268.580000302458
 21
1082.970313073287
 31
0.0
  0
LINE
  5
37A
330
1F
100
AcDbEntity
  8
Make2D$可见线$普通线
100
AcDbLine
 10
268.5800003024581
 20
1082.958281191266
 30
0.0
 11
268.580000302458
 21
1082.60608386275
 31
0.0
  0
LINE
  5
37B
330
1F
100
AcDbEntity
  8
Make2D$可见线$普通线
100
AcDbLine
 10
268.580000302458
 20
1082.591498562868
 30
0.0
 11
268.580000302458
 21
1082.253054167744
 31
0.0
  0
LINE
  5
37C
330
1F
100
AcDbEntity
  8
Make2D$可见线$普通线
100
AcDbLine
 10
268.580000302458
 20
1082.236104870628
 30
0.0
 11
268.580000302458
 21
1081.911378359358
 31
0.0
  0
LINE
  5
37D
330
1F
100
AcDbEntity
  8
Make2D$可见线$普通线
100
AcDbLine
 10
268.580000302458
 20
1081.892258285408
 30
0.0
 11
268.580000302458
 21
1081.58121080868
 31
0.0
  0
LINE
  5
37E
330
1F
100
AcDbEntity
  8
Make2D$可见线$普通线
100
AcDbLine
 10
268.580000302458
 20
1081.560116978059
 30
0.0
 11
268.580000302458
 21
1081.2627058868
 31
0.0
  0
LINE
  5
37F
330
1F
100
AcDbEntity
  8
Make2D$可见线$普通线
100
AcDbLine
 10
268.580000302458
 20
1081.239839119419
 30
0.0
 11
268.580000302458
 21
1080.956017964807
 31
0.0
  0
LINE
  5
380
330
1F
100
AcDbEntity
  8
Make2D$可见线$普通线
100
AcDbLine
 10
268.580000302458
 20
1080.931582880311
 30
0.0
 11
268.580000302458
 21
1080.661301413789
 31
0.0
  0
LINE
  5
381
330
1F
100
AcDbEntity
  8
Make2D$可见线$普通线
100
AcDbLine
 10
268.580000302458
 20
1080.635506431528
 30
0.0
 11
268.580000302458
 21
1080.378710604836
 31
0.0
  0
LINE
  5
382
330
1F
100
AcDbEntity
  8
Make2D$可见线$普通线
100
AcDbLine
 10
268.580000302458
 20
1080.351767943838
 30
0.0
 11
268.580000302458
 21
1080.108399909038
 31
0.0
  0
LINE
  5
383
330
1F
100
AcDbEntity
  8
Make2D$可见线$普通线
100
AcDbLine
 10
268.580000302458
 20
1080.080525587959
 30
0.0
 11
268.580000302458
 21
1079.850523697482
 31
0.0
  0
LINE
  5
384
330
1F
100
AcDbEntity
  8
Make2D$可见线$普通线
100
AcDbLine
 10
268.580000302458
 20
1079.82193753455
 30
0.0
 11
268.580000302458
 21
1079.605236341259
 31
0.0
  0
LINE
  5
385
330
1F
100
AcDbEntity
  8
Make2D$可见线$普通线
100
AcDbLine
 10
268.580000302458
 20
1079.576161954181
 30
0.0
 11
268.580000302458
 21
1079.372692211456
 31
0.0
  0
LINE
  5
386
330
1F
100
AcDbEntity
  8
Make2D$可见线$普通线
100
AcDbLine
 10
268.580000302458
 20
1079.343357017301
 30
0.0
 11
268.580000302458
 21
1079.153045679164
 31
0.0
  0
LINE
  5
387
330
1F
100
AcDbEntity
  8
Make2D$可见线$普通线
100
AcDbLine
 10
268.580000302458
 20
1079.123680944563
 30
0.0
 11
268.580000302458
 21
1078.946451115471
 31
0.0
  0
LINE
  5
388
330
1F
100
AcDbEntity
  8
Make2D$可见线$普通线
100
AcDbLine
 10
268.580000302458
 20
1078.917291802031
 30
0.0
 11
268.580000302458
 21
1078.753062891466
 31
0.0
  0
LINE
  5
389
330
1F
100
AcDbEntity
  8
Make2D$可见线$普通线
100
AcDbLine
 10
268.580000302458
 20
1078.724347827644
 30
0.0
 11
268.580000302458
 21
1078.573035378239
 31
0.0
  0
LINE
  5
38A
330
1F
100
AcDbEntity
  8
Make2D$可见线$普通线
100
AcDbLine
 10
268.580000302458
 20
1078.545007186614
 30
0.0
 11
268.580000302458
 21
1078.406522946878
 31
0.0
  0
LINE
  5
38B
330
1F
100
AcDbEntity
  8
Make2D$可见线$普通线
100
AcDbLine
 10
268.580000302458
 20
1078.379428045217
 30
0.0
 11
268.580000302458
 21
1078.253679968473
 31
0.0
  0
LINE
  5
38C
330
1F
100
AcDbEntity
  8
Make2D$可见线$普通线
100
AcDbLine
 10
268.5800003024581
 20
1078.227768574347
 30
0.0
 11
268.5800003024581
 21
1078.114660814112
 31
0.0
  0
LINE
  5
38D
330
1F
100
AcDbEntity
  8
Make2D$可见线$普通线
100
AcDbLine
 10
268.5800003024581
 20
1078.090186944895
 30
0.0
 11
268.5800003024581
 21
1077.989619854884
 31
0.0
  0
LINE
  5
38E
330
1F
100
AcDbEntity
  8
Make2D$可见线$普通线
100
AcDbLine
 10
268.5800003024582
 20
1077.96684132776
 30
0.0
 11
268.580000302458
 21
1077.878711461879
 31
0.0
  0
LINE
  5
38F
330
1F
100
AcDbEntity
  8
Make2D$可见线$普通线
100
AcDbLine
 10
268.5800003024581
 20
1077.857889893839
 30
0.0
 11
268.5800003024581
 21
1077.782090006187
 31
0.0
  0
LINE
  5
390
330
1F
100
AcDbEntity
  8
Make2D$可见线$普通线
100
AcDbLine
 10
268.5800003024581
 20
1077.763490814045
 30
0.0
 11
268.5800003024581
 21
1077.683802259342
 31
0.0
  0
LINE
  5
391
330
1F
100
AcDbEntity
  8
Make2D$可见线$普通线
100
AcDbLine
 10
268.5800003024581
 20
1077.632325391092
 30
0.0
 11
268.5800003024581
 21
1077.618982400953
 31
0.0
  0
LINE
  5
392
330
1F
100
AcDbEntity
  8
Make2D$可见线$普通线
100
AcDbLine
 10
268.5800003024581
 20
1077.579490973868
 30
0.0
 11
268.5800003024581
 21
1077.515316707555
 31
0.0
  0
ARC
  5
393
330
1F
100
AcDbEntity
  8
Make2D$可见线$普通线
100
AcDbCircle
 10
267.5802448515737
 20
1077.510765459475
 30
0.0
 40
0.9997554863447937
100
AcDbArc
 50
269.9859849407782
 51
0.0152602847493498
  0
ARC
  5
394
330
1F
100
AcDbEntity
  8
Make2D$可见线$普通线
100
AcDbCircle
 10
267.5799922850193
 20
1125.51208866161
 30
0.0
 40
1.000008017532616
100
AcDbArc
 50
359.9992141361896
 51
89.99954063828035
  0
LINE
  5
395
330
1F
100
AcDbEntity
  8
Make2D$可见线$普通线
100
AcDbLine
 10
268.5800003024581
 20
1125.507789974595
 30
0.0
 11
268.5800003024582
 21
1125.443615708282
 31
0.0
  0
LINE
  5
396
330
1F
100
AcDbEntity
  8
Make2D$可见线$普通线
100
AcDbLine
 10
268.5800003024582
 20
1125.404124281197
 30
0.0
 11
268.5800003024582
 21
1125.390781291058
 31
0.0
  0
LINE
  5
397
330
1F
100
AcDbEntity
  8
Make2D$可见线$普通线
100
AcDbLine
 10
268.5800003024581
 20
1125.339304422808
 30
0.0
 11
268.5800003024582
 21
1125.259615868104
 31
0.0
  0
LINE
  5
398
330
1F
100
AcDbEntity
  8
Make2D$可见线$普通线
100
AcDbLine
 10
268.5800003024581
 20
1125.241016675963
 30
0.0
 11
268.5800003024581
 21
1125.16521678831
 31
0.0
  0
LINE
  5
399
330
1F
100
AcDbEntity
  8
Make2D$可见线$普通线
100
AcDbLine
 10
268.5800003024581
 20
1125.14439522027
 30
0.0
 11
268.5800003024581
 21
1125.05626535439
 31
0.0
  0
LINE
  5
39A
330
1F
100
AcDbEntity
  8
Make2D$可见线$普通线
100
AcDbLine
 10
268.5800003024581
 20
1125.033486827266
 30
0.0
 11
268.5800003024581
 21
1124.932919737254
 31
0.0
  0
LINE
  5
39B
330
1F
100
AcDbEntity
  8
Make2D$可见线$普通线
100
AcDbLine
 10
268.5800003024581
 20
1124.908445868038
 30
0.0
 11
268.5800003024581
 21
1124.795338107803
 31
0.0
  0
LINE
  5
39C
330
1F
100
AcDbEntity
  8
Make2D$可见线$普通线
100
AcDbLine
 10
268.5800003024581
 20
1124.769426713678
 30
0.0
 11
268.5800003024581
 21
1124.643678636932
 31
0.0
  0
LINE
  5
39D
330
1F
100
AcDbEntity
  8
Make2D$可见线$普通线
100
AcDbLine
 10
268.5800003024581
 20
1124.616583735272
 30
0.0
 11
268.5800003024581
 21
1124.478099495535
 31
0.0
  0
LINE
  5
39E
330
1F
100
AcDbEntity
  8
Make2D$可见线$普通线
100
AcDbLine
 10
268.5800003024581
 20
1124.450071303911
 30
0.0
 11
268.5800003024581
 21
1124.298758854506
 31
0.0
  0
LINE
  5
39F
330
1F
100
AcDbEntity
  8
Make2D$可见线$普通线
100
AcDbLine
 10
268.5800003024581
 20
1124.270043790684
 30
0.0
 11
268.5800003024581
 21
1124.105814880119
 31
0.0
  0
LINE
  5
3A0
330
1F
100
AcDbEntity
  8
Make2D$可见线$普通线
100
AcDbLine
 10
268.5800003024581
 20
1124.076655566679
 30
0.0
 11
268.580000302458
 21
1123.899425737587
 31
0.0
  0
LINE
  5
3A1
330
1F
100
AcDbEntity
  8
Make2D$可见线$普通线
100
AcDbLine
 10
268.5800003024581
 20
1123.870061002986
 30
0.0
 11
268.5800003024581
 21
1123.679749664849
 31
0.0
  0
LINE
  5
3A2
330
1F
100
AcDbEntity
  8
Make2D$可见线$普通线
100
AcDbLine
 10
268.5800003024581
 20
1123.650414470694
 30
0.0
 11
268.5800003024581
 21
1123.446944727968
 31
0.0
  0
LINE
  5
3A3
330
1F
100
AcDbEntity
  8
Make2D$可见线$普通线
100
AcDbLine
 10
268.5800003024581
 20
1123.417870340892
 30
0.0
 11
268.5800003024581
 21
1123.2011691476
 31
0.0
  0
LINE
  5
3A4
330
1F
100
AcDbEntity
  8
Make2D$可见线$普通线
100
AcDbLine
 10
268.5800003024581
 20
1123.172582984668
 30
0.0
 11
268.580000302458
 21
1122.94258109419
 31
0.0
  0
LINE
  5
3A5
330
1F
100
AcDbEntity
  8
Make2D$可见线$普通线
100
AcDbLine
 10
268.5800003024581
 20
1122.914706773112
 30
0.0
 11
268.5800003024581
 21
1122.671338738312
 31
0.0
  0
LINE
  5
3A6
330
1F
100
AcDbEntity
  8
Make2D$可见线$普通线
100
AcDbLine
 10
268.5800003024581
 20
1122.644396077314
 30
0.0
 11
268.5800003024581
 21
1122.387600250621
 31
0.0
  0
LINE
  5
3A7
330
1F
100
AcDbEntity
  8
Make2D$可见线$普通线
100
AcDbLine
 10
268.5800003024581
 20
1122.361805268361
 30
0.0
 11
268.5800003024581
 21
1122.091523801839
 31
0.0
  0
LINE
  5
3A8
330
1F
100
AcDbEntity
  8
Make2D$可见线$普通线
100
AcDbLine
 10
268.5800003024581
 20
1122.067088717343
 30
0.0
 11
268.580000302458
 21
1121.783267562731
 31
0.0
  0
LINE
  5
3A9
330
1F
100
AcDbEntity
  8
Make2D$可见线$普通线
100
AcDbLine
 10
268.580000302458
 20
1121.76040079535
 30
0.0
 11
268.580000302458
 21
1121.462989704091
 31
0.0
  0
LINE
  5
3AA
330
1F
100
AcDbEntity
  8
Make2D$可见线$普通线
100
AcDbLine
 10
268.5800003024582
 20
1121.44189587347
 30
0.0
 11
268.5800003024581
 21
1121.130848396742
 31
0.0
  0
LINE
  5
3AB
330
1F
100
AcDbEntity
  8
Make2D$可见线$普通线
100
AcDbLine
 10
268.5800003024582
 20
1121.111728322792
 30
0.0
 11
268.5800003024581
 21
1120.787001811521
 31
0.0
  0
LINE
  5
3AC
330
1F
100
AcDbEntity
  8
Make2D$可见线$普通线
100
AcDbLine
 10
268.5800003024581
 20
1120.770052514406
 30
0.0
 11
268.5800003024581
 21
1120.431608119281
 31
0.0
  0
LINE
  5
3AD
330
1F
100
AcDbEntity
  8
Make2D$可见线$普通线
100
AcDbLine
 10
268.5800003024581
 20
1120.417022819399
 30
0.0
 11
268.5800003024581
 21
1120.064825490884
 31
0.0
  0
LINE
  5
3AE
330
1F
100
AcDbEntity
  8
Make2D$可见线$普通线
100
AcDbLine
 10
268.5800003024581
 20
1120.052793608862
 30
0.0
 11
268.5800003024581
 21
1118.486969033188
 31
0.0
  0
LINE
  5
3AF
330
1F
100
AcDbEntity
  8
Make2D$可见线$普通线
100
AcDbLine
 10
56.45000030245807
 20
1076.511553341075
 30
0.0
 11
149.9237308136674
 21
1076.511553341075
 31
0.0
  0
LINE
  5
3B0
330
1F
100
AcDbEntity
  8
Make2D$可见线$普通线
100
AcDbLine
 10
174.1062691863355
 20
1076.511553341075
 30
0.0
 11
267.5800003024581
 21
1076.511553341075
 31
0.0
  0
LINE
  5
3B1
330
1F
100
AcDbEntity
  8
Make2D$可见线$普通线
100
AcDbLine
 10
56.45000030245807
 20
1126.511553341075
 30
0.0
 11
267.5800003024581
 21
1126.511553341075
 31
0.0
  0
LINE
  5
3B2
330
1F
100
AcDbEntity
  8
Make2D$可见线$普通线
100
AcDbLine
 10
158.0150000000015
 20
1078.511553341075
 30
0.0
 11
160.8056230081893
 21
1078.511553341075
 31
0.0
  0
LINE
  5
3B3
330
1F
100
AcDbEntity
  8
Make2D$可见线$普通线
100
AcDbLine
 10
162.0150000000015
 20
1071.369288974562
 30
0.0
 11
164.5494122858207
 21
1071.369288974562
 31
0.0
  0
LINE
  5
3B4
330
1F
100
AcDbEntity
  8
Make2D$可见线$普通线
100
AcDbLine
 10
167.7184979664603
 20
1071.369288974562
 30
0.0
 11
170.9745717259206
 21
1071.369288974562
 31
0.0
  0
LINE
  5
3B5
330
1F
100
AcDbEntity
  8
Make2D$可见线$普通线
100
AcDbLine
 10
172.8931352887502
 20
1071.369288974562
 30
0.0
 11
172.9211045308895
 21
1071.369288974562
 31
0.0
  0
LINE
  5
3B6
330
1F
100
AcDbEntity
  8
Make2D$可见线$普通线
100
AcDbLine
 10
172.9885277801603
 20
1071.369288974562
 30
0.0
 11
173.1062691864009
 21
1071.369288974562
 31
0.0
  0
ARC
  5
3B7
330
1F
100
AcDbEntity
  8
Make2D$可见线$普通线
100
AcDbCircle
 10
173.1133409344243
 20
1072.369594117953
 30
0.0
 40
1.000305189876263
100
AcDbArc
 50
269.9825325623937
 51
359.9825219054311
  0
ARC
  5
3B8
330
1F
100
AcDbEntity
  8
Make2D$可见线$普通线
100
AcDbCircle
 10
150.9166590655781
 20
1072.369594117953
 30
0.0
 40
1.000305189875808
100
AcDbArc
 50
180.0174780945559
 51
270.0174674376649
  0
LINE
  5
3B9
330
1F
100
AcDbEntity
  8
Make2D$可见线$普通线
100
AcDbLine
 10
150.9602322039688
 20
1071.369288974562
 30
0.0
 11
151.0413003879953
 21
1071.369288974562
 31
0.0
  0
LINE
  5
3BA
330
1F
100
AcDbEntity
  8
Make2D$可见线$普通线
100
AcDbLine
 10
151.1088954687538
 20
1071.369288974562
 30
0.0
 11
151.1366308641469
 21
1071.369288974562
 31
0.0
  0
LINE
  5
3BB
330
1F
100
AcDbEntity
  8
Make2D$可见线$普通线
100
AcDbLine
 10
152.7949213218918
 20
1071.369288974562
 30
0.0
 11
156.3120749720276
 21
1071.369288974562
 31
0.0
  0
LINE
  5
3BC
330
1F
100
AcDbEntity
  8
Make2D$可见线$普通线
100
AcDbLine
 10
159.8541604336714
 20
1071.369288974562
 30
0.0
 11
162.0150000000015
 21
1071.369288974562
 31
0.0
  0
POLYLINE
  5
3BD
330
1F
100
AcDbEntity
  8
Make2D$可见线$普通线
100
AcDb2dPolyline
 66
     1
 10
0.0
 20
0.0
 30
0.0
  0
VERTEX
  5
3BE
330
3BD
100
AcDbEntity
  8
Make2D$可见线$普通线
100
AcDbVertex
100
AcDb2dVertex
 10
152.3815224335623
 20
1071.361492451683
 30
0.0
 42
-0.3628268635502339
  0
VERTEX
  5
3BF
330
3BD
100
AcDbEntity
  8
Make2D$可见线$普通线
100
AcDbVertex
100
AcDb2dVertex
 10
152.7963720635987
 20
1070.865905577962
 30
0.0
  0
VERTEX
  5
3C0
330
3BD
100
AcDbEntity
  8
Make2D$可见线$普通线
100
AcDbVertex
100
AcDb2dVertex
 10
152.7963720635986
 20
1069.855782895452
 30
0.0
 42
-0.3589818407708181
  0
VERTEX
  5
3C1
330
3BD
100
AcDbEntity
  8
Make2D$可见线$普通线
100
AcDbVertex
100
AcDb2dVertex
 10
152.3830503429096
 20
1069.359762706493
 30
0.0
  0
SEQEND
  5
3C2
330
3BD
100
AcDbEntity
  8
Make2D$可见线$普通线
  0
POLYLINE
  5
3C3
330
1F
100
AcDbEntity
  8
Make2D$可见线$普通线
100
AcDb2dPolyline
 66
     1
 10
0.0
 20
0.0
 30
0.0
  0
VERTEX
  5
3C4
330
3C3
100
AcDbEntity
  8
Make2D$可见线$普通线
100
AcDbVertex
100
AcDb2dVertex
 10
171.6484775660734
 20
1071.361492451618
 30
0.0
 42
0.3628268633416596
  0
VERTEX
  5
3C5
330
3C3
100
AcDbEntity
  8
Make2D$可见线$普通线
100
AcDbVertex
100
AcDb2dVertex
 10
171.2336279364044
 20
1070.865905577962
 30
0.0
  0
VERTEX
  5
3C6
330
3C3
100
AcDbEntity
  8
Make2D$可见线$普通线
100
AcDbVertex
100
AcDb2dVertex
 10
171.2336279364043
 20
1069.855782895452
 30
0.0
 42
0.3589818407702972
  0
VERTEX
  5
3C7
330
3C3
100
AcDbEntity
  8
Make2D$可见线$普通线
100
AcDbVertex
100
AcDb2dVertex
 10
171.6469496570931
 20
1069.359762706493
 30
0.0
  0
SEQEND
  5
3C8
330
3C3
100
AcDbEntity
  8
Make2D$可见线$普通线
  0
LINE
  5
3C9
330
1F
100
AcDbEntity
  8
Make2D$可见线$普通线
100
AcDbLine
 10
172.2697135652588
 20
1067.712536214481
 30
0.0
 11
172.2011408725527
 21
1067.663769553882
 31
0.0
  0
LINE
  5
3CA
330
1F
100
AcDbEntity
  8
Make2D$可见线$普通线
100
AcDbLine
 10
151.7390522316864
 20
1065.252827581606
 30
0.0
 11
151.6888476951385
 21
1065.271456635789
 31
0.0
  0
ARC
  5
3CB
330
1F
100
AcDbEntity
  8
Make2D$可见线$普通线
100
AcDbCircle
 10
151.5356655907055
 20
1066.517293996653
 30
0.0
 40
0.4348009834628047
100
AcDbArc
 50
52.70968300819745
 51
68.55172388900574
  0
ARC
  5
3CC
330
1F
100
AcDbEntity
  8
Make2D$可见线$普通线
100
AcDbCircle
 10
151.6396524435283
 20
1068.279326839665
 30
0.0
 40
0.2840174221894026
100
AcDbArc
 50
39.93105715493682
 51
79.0454017311507
  0
LINE
  5
3CD
330
1F
100
AcDbEntity
  8
Make2D$可见线$普通线
100
AcDbLine
 10
151.457372228642
 20
1069.352399498851
 30
0.0
 11
151.457372228642
 21
1068.597343751432
 31
0.0
  0
LINE
  5
3CE
330
1F
100
AcDbEntity
  8
Make2D$可见线$普通线
100
AcDbLine
 10
172.5726277713609
 20
1069.352399498851
 30
0.0
 11
172.5726277713609
 21
1067.775364892267
 31
0.0
  0
LINE
  5
3CF
330
1F
100
AcDbEntity
  8
Make2D$可见线$普通线
100
AcDbLine
 10
151.457372228642
 20
1065.95973206781
 30
0.0
 11
151.457372228642
 21
1065.318908852769
 31
0.0
  0
LINE
  5
3D0
330
1F
100
AcDbEntity
  8
Make2D$可见线$普通线
100
AcDbLine
 10
172.5726277713609
 20
1065.137741907261
 30
0.0
 11
172.5726277713609
 21
1064.48734416255
 31
0.0
  0
LINE
  5
3D1
330
1F
100
AcDbEntity
  8
Make2D$可见线$普通线
100
AcDbLine
 10
151.457372228642
 20
1064.315753894753
 30
0.0
 11
151.457372228642
 21
1063.665362794109
 31
0.0
  0
LINE
  5
3D2
330
1F
100
AcDbEntity
  8
Make2D$可见线$普通线
100
AcDbLine
 10
172.5726277713609
 20
1063.484203509076
 30
0.0
 11
172.5726277713609
 21
1062.843374646846
 31
0.0
  0
LINE
  5
3D3
330
1F
100
AcDbEntity
  8
Make2D$可见线$普通线
100
AcDbLine
 10
151.457372228642
 20
1067.603762592638
 30
0.0
 11
151.457372228642
 21
1066.953374630044
 31
0.0
  0
LINE
  5
3D4
330
1F
100
AcDbEntity
  8
Make2D$可见线$普通线
100
AcDbLine
 10
172.5726277713609
 20
1066.781742248191
 30
0.0
 11
172.5726277713609
 21
1066.131364482487
 31
0.0
  0
ARC
  5
3D5
330
1F
100
AcDbEntity
  8
Make2D$可见线$普通线
100
AcDbCircle
 10
151.5238013901747
 20
1068.100855830517
 30
0.0
 40
0.491398428292202
100
AcDbArc
 50
298.5922885024866
 51
47.23746786927709
  0
ARC
  5
3D6
330
1F
100
AcDbEntity
  8
Make2D$可见线$普通线
100
AcDbCircle
 10
172.5034106088148
 20
1062.346247896085
 30
0.0
 40
0.489310897529187
100
AcDbArc
 50
117.1513542928513
 51
235.8019319214354
  0
ARC
  5
3D7
330
1F
100
AcDbEntity
  8
Make2D$可见线$普通线
100
AcDbCircle
 10
172.5020865000068
 20
1063.991884060866
 30
0.0
 40
0.4875686538400953
100
AcDbArc
 50
119.3853832314929
 51
250.7152701570884
  0
ARC
  5
3D8
330
1F
100
AcDbEntity
  8
Make2D$可见线$普通线
100
AcDbCircle
 10
172.5008453410539
 20
1065.63567939928
 30
0.0
 40
0.487047500208928
100
AcDbArc
 50
119.4809452588752
 51
250.7400854599913
  0
ARC
  5
3D9
330
1F
100
AcDbEntity
  8
Make2D$可见线$普通线
100
AcDbCircle
 10
172.509683713442
 20
1067.278092940363
 30
0.0
 40
0.4939080226922362
100
AcDbArc
 50
128.6599486669921
 51
249.7628605554789
  0
LINE
  5
3DA
330
1F
100
AcDbEntity
  8
Make2D$可见线$普通线
100
AcDbLine
 10
151.91493613437
 20
1061.82715949219
 30
0.0
 11
151.8440586758322
 21
1061.898336865259
 31
0.0
  0
ARC
  5
3DB
330
1F
100
AcDbEntity
  8
Make2D$可见线$普通线
100
AcDbCircle
 10
151.5285170991237
 20
1063.167554378416
 30
0.0
 40
0.4872838700222493
100
AcDbArc
 50
297.0242643985116
 51
70.44051815474015
  0
ARC
  5
3DC
330
1F
100
AcDbEntity
  8
Make2D$可见线$普通线
100
AcDbCircle
 10
151.5240626243696
 20
1064.810500791867
 30
0.0
 40
0.491820738426103
100
AcDbArc
 50
298.541566467195
 51
64.00686835327683
  0
ARC
  5
3DD
330
1F
100
AcDbEntity
  8
Make2D$可见线$普通线
100
AcDbCircle
 10
151.5213568539587
 20
1066.455172890472
 30
0.0
 40
0.4935906865148805
100
AcDbArc
 50
300.7131136853419
 51
55.75851505633766
  0
LINE
  5
3DE
330
1F
100
AcDbEntity
  8
Make2D$可见线$普通线
100
AcDbLine
 10
151.4619705946396
 20
1062.273586465967
 30
0.0
 11
151.7713146549319
 21
1061.964242405675
 31
0.0
  0
LINE
  5
3DF
330
1F
100
AcDbEntity
  8
Make2D$可见线$普通线
100
AcDbLine
 10
151.9539254734495
 20
1061.781631587157
 30
0.0
 11
152.4440036859785
 21
1061.291553374628
 31
0.0
  0
LINE
  5
3E0
330
1F
100
AcDbEntity
  8
Make2D$可见线$普通线
100
AcDbLine
 10
172.2300252951649
 20
1061.935582355769
 30
0.0
 11
171.5859963140244
 21
1061.291553374628
 31
0.0
  0
LINE
  5
3E1
330
1F
100
AcDbEntity
  8
Make2D$可见线$普通线
100
AcDbLine
 10
151.457372228642
 20
1062.671744460685
 30
0.0
 11
151.457372228642
 21
1062.278184831965
 31
0.0
  0
LINE
  5
3E2
330
1F
100
AcDbEntity
  8
Make2D$可见线$普通线
100
AcDbLine
 10
174.1062691863358
 20
1072.369288974562
 30
0.0
 11
174.1062691863358
 21
1076.511553341075
 31
0.0
  0
LINE
  5
3E3
330
1F
100
AcDbEntity
  8
Make2D$可见线$普通线
100
AcDbLine
 10
149.9237308136671
 20
1072.369288974562
 30
0.0
 11
149.9237308136671
 21
1076.511553341075
 31
0.0
  0
LINE
  5
3E4
330
1F
100
AcDbEntity
  8
Make2D$可见线$普通线
100
AcDbLine
 10
269.0800000000015
 20
1079.331553341075
 30
0.0
 11
270.2900000000014
 21
1079.331553341075
 31
0.0
  0
LINE
  5
3E5
330
1F
100
AcDbEntity
  8
Make2D$可见线$普通线
100
AcDbLine
 10
269.0800000000015
 20
1123.691553341075
 30
0.0
 11
270.2900000000014
 21
1123.691553341075
 31
0.0
  0
LINE
  5
3E6
330
1F
100
AcDbEntity
  8
Make2D$可见线$普通线
100
AcDbLine
 10
54.95000000000141
 20
1123.691553341075
 30
0.0
 11
53.74000000000149
 21
1123.691553341075
 31
0.0
  0
LINE
  5
3E7
330
1F
100
AcDbEntity
  8
Make2D$可见线$普通线
100
AcDbLine
 10
54.95000000000141
 20
1079.331553341075
 30
0.0
 11
53.74000000000149
 21
1079.331553341075
 31
0.0
  0
LINE
  5
3E8
330
1F
100
AcDbEntity
  8
Make2D$可见线$普通线
100
AcDbLine
 10
46.00025911877742
 20
1128.511405416888
 30
0.0
 11
46.00025911877742
 21
1135.511553341075
 31
0.0
  0
LINE
  5
3E9
330
1F
100
AcDbEntity
  8
Make2D$可见线$普通线
100
AcDbLine
 10
7.009859162788871
 20
1128.511409322927
 30
0.0
 11
7.009859162788871
 21
1135.511553341075
 31
0.0
  0
ARC
  5
3EA
330
1F
100
AcDbEntity
  8
Make2D$可见线$普通线
100
AcDbCircle
 10
45.0003594781075
 20
1135.511542474084
 30
0.0
 40
1.000010867050073
100
AcDbArc
 50
0.0006226259561168
 51
90.00062259962122
  0
LINE
  5
3EB
330
1F
100
AcDbEntity
  8
Make2D$可见线$普通线
100
AcDbLine
 10
44.99630813640275
 20
1136.511553341074
 30
0.0
 11
44.06575240253634
 21
1136.511553341075
 31
0.0
  0
LINE
  5
3EC
330
1F
100
AcDbEntity
  8
Make2D$可见线$普通线
100
AcDbLine
 10
9.145834253683352
 20
1136.511553341075
 30
0.0
 11
8.00985916278552
 21
1136.511553341075
 31
0.0
  0
ARC
  5
3ED
330
1F
100
AcDbEntity
  8
Make2D$可见线$普通线
100
AcDbCircle
 10
8.009763945395264
 20
1135.511542474085
 30
0.0
 40
1.00001086704843
100
AcDbArc
 50
89.99937740028923
 51
179.9993773741351
  0
ARC
  5
3EE
330
1F
100
AcDbEntity
  8
Make2D$可见线$普通线
100
AcDbCircle
 10
48.00025911879538
 20
1128.51155334109
 30
0.0
 40
2.000000000007791
100
AcDbArc
 50
221.0461216650325
 51
236.8241998225944
  0
ARC
  5
3EF
330
1F
100
AcDbEntity
  8
Make2D$可见线$普通线
100
AcDbCircle
 10
48.0006630621708
 20
1128.512969222714
 30
0.0
 40
2.001406175966458
100
AcDbArc
 50
236.8367011495713
 51
269.9881801908135
  0
ARC
  5
3F0
330
1F
100
AcDbEntity
  8
Make2D$可见线$普通线
100
AcDbCircle
 10
48.00015092768018
 20
1128.511513836455
 30
0.0
 40
1.999887827380016
100
AcDbArc
 50
180.0031060710782
 51
213.1765490196982
  0
ARC
  5
3F1
330
1F
100
AcDbEntity
  8
Make2D$可见线$普通线
100
AcDbCircle
 10
5.009890585928696
 20
1128.511536505668
 30
0.0
 40
1.999964907664584
100
AcDbArc
 50
322.8982089272487
 51
359.9963564352169
  0
ARC
  5
3F2
330
1F
100
AcDbEntity
  8
Make2D$可见线$普通线
100
AcDbCircle
 10
5.009638862000003
 20
1128.512103959456
 30
0.0
 40
2.000545250724496
100
AcDbArc
 50
270.0063194251327
 51
314.9933138331382
  0
LINE
  5
3F3
330
1F
100
AcDbEntity
  8
Make2D$可见线$普通线
100
AcDbLine
 10
53.74000000000151
 20
1084.536137648956
 30
0.0
 11
53.74000000000157
 21
1082.970313073287
 31
0.0
  0
LINE
  5
3F4
330
1F
100
AcDbEntity
  8
Make2D$可见线$普通线
100
AcDbLine
 10
53.74000000000154
 20
1082.946992901597
 30
0.0
 11
53.74000000000155
 21
1082.60608386275
 31
0.0
  0
LINE
  5
3F5
330
1F
100
AcDbEntity
  8
Make2D$可见线$普通线
100
AcDbLine
 10
53.74000000000155
 20
1082.351504206158
 30
0.0
 11
53.74000000000157
 21
1082.253054167744
 31
0.0
  0
LINE
  5
3F6
330
1F
100
AcDbEntity
  8
Make2D$可见线$普通线
100
AcDbLine
 10
53.74000000000157
 20
1082.073713263822
 30
0.0
 11
53.74000000000157
 21
1081.911378359358
 31
0.0
  0
LINE
  5
3F7
330
1F
100
AcDbEntity
  8
Make2D$可见线$普通线
100
AcDbLine
 10
53.74000000000159
 20
1081.321689600632
 30
0.0
 11
53.74000000000159
 21
1081.2627058868
 31
0.0
  0
LINE
  5
3F8
330
1F
100
AcDbEntity
  8
Make2D$可见线$普通线
100
AcDbLine
 10
53.74000000000161
 20
1081.098393643355
 30
0.0
 11
53.74000000000161
 21
1080.956017964807
 31
0.0
  0
LINE
  5
3F9
330
1F
100
AcDbEntity
  8
Make2D$可见线$普通线
100
AcDbLine
 10
53.74000000000161
 20
1080.888848847978
 30
0.0
 11
53.74000000000161
 21
1080.661301413789
 31
0.0
  0
LINE
  5
3FA
330
1F
100
AcDbEntity
  8
Make2D$可见线$普通线
100
AcDbLine
 10
53.74000000000161
 20
1079.918376231954
 30
0.0
 11
53.74000000000161
 21
1079.850523697482
 31
0.0
  0
LINE
  5
3FB
330
1F
100
AcDbEntity
  8
Make2D$可见线$普通线
100
AcDbLine
 10
53.74000000000163
 20
1079.123680944563
 30
0.0
 11
53.74000000000163
 21
1078.946451115471
 31
0.0
  0
LINE
  5
3FC
330
1F
100
AcDbEntity
  8
Make2D$可见线$普通线
100
AcDbLine
 10
53.74000000000165
 20
1078.917291802031
 30
0.0
 11
53.74000000000163
 21
1078.753062891466
 31
0.0
  0
LINE
  5
3FD
330
1F
100
AcDbEntity
  8
Make2D$可见线$普通线
100
AcDbLine
 10
53.74000000000164
 20
1078.724347827644
 30
0.0
 11
53.74000000000161
 21
1078.573035378239
 31
0.0
  0
LINE
  5
3FE
330
1F
100
AcDbEntity
  8
Make2D$可见线$普通线
100
AcDbLine
 10
53.74000000000161
 20
1078.545007186614
 30
0.0
 11
53.74000000000161
 21
1078.406522946878
 31
0.0
  0
LINE
  5
3FF
330
1F
100
AcDbEntity
  8
Make2D$可见线$普通线
100
AcDbLine
 10
53.74000000000164
 20
1078.379428045218
 30
0.0
 11
53.74000000000161
 21
1078.253679968472
 31
0.0
  0
LINE
  5
400
330
1F
100
AcDbEntity
  8
Make2D$可见线$普通线
100
AcDbLine
 10
53.74000000000161
 20
1078.227768574347
 30
0.0
 11
53.7400000000016
 21
1078.114660814112
 31
0.0
  0
LINE
  5
401
330
1F
100
AcDbEntity
  8
Make2D$可见线$普通线
100
AcDbLine
 10
53.7400000000016
 20
1078.090186944895
 30
0.0
 11
53.7400000000016
 21
1077.989619854884
 31
0.0
  0
LINE
  5
402
330
1F
100
AcDbEntity
  8
Make2D$可见线$普通线
100
AcDbLine
 10
53.74000000000159
 20
1077.96684132776
 30
0.0
 11
53.74000000000159
 21
1077.878711461879
 31
0.0
  0
LINE
  5
403
330
1F
100
AcDbEntity
  8
Make2D$可见线$普通线
100
AcDbLine
 10
53.74000000000158
 20
1077.857889893839
 30
0.0
 11
53.74000000000158
 21
1077.782090006187
 31
0.0
  0
LINE
  5
404
330
1F
100
AcDbEntity
  8
Make2D$可见线$普通线
100
AcDbLine
 10
53.74000000000159
 20
1077.763490814045
 30
0.0
 11
53.74000000000157
 21
1077.683802259342
 31
0.0
  0
LINE
  5
405
330
1F
100
AcDbEntity
  8
Make2D$可见线$普通线
100
AcDbLine
 10
53.74000000000156
 20
1077.632325391092
 30
0.0
 11
53.74000000000156
 21
1077.618982400953
 31
0.0
  0
LINE
  5
406
330
1F
100
AcDbEntity
  8
Make2D$可见线$普通线
100
AcDbLine
 10
53.74000000000154
 20
1077.579490973868
 30
0.0
 11
53.7400000000015
 21
1077.515316707555
 31
0.0
  0
ARC
  5
407
330
1F
100
AcDbEntity
  8
Make2D$可见线$普通线
100
AcDbCircle
 10
52.73998913312339
 20
1077.511020869918
 30
0.0
 40
1.000010866937141
100
AcDbArc
 50
270.0006226194856
 51
0.0006226060242491
  0
ARC
  5
408
330
1F
100
AcDbEntity
  8
Make2D$可见线$普通线
100
AcDbCircle
 10
52.7396594233503
 20
1125.511756109625
 30
0.0
 40
1.000340627461869
100
AcDbArc
 50
0.0182617349539534
 51
89.98049303951596
  0
LINE
  5
409
330
1F
100
AcDbEntity
  8
Make2D$可见线$普通线
100
AcDbLine
 10
53.7400000000015
 20
1125.507789974595
 30
0.0
 11
53.74000000000147
 21
1125.443615708281
 31
0.0
  0
LINE
  5
40A
330
1F
100
AcDbEntity
  8
Make2D$可见线$普通线
100
AcDbLine
 10
53.74000000000144
 20
1125.404124281197
 30
0.0
 11
53.74000000000144
 21
1125.390781291058
 31
0.0
  0
LINE
  5
40B
330
1F
100
AcDbEntity
  8
Make2D$可见线$普通线
100
AcDbLine
 10
53.74000000000142
 20
1125.339304422808
 30
0.0
 11
53.74000000000142
 21
1125.259615868104
 31
0.0
  0
LINE
  5
40C
330
1F
100
AcDbEntity
  8
Make2D$可见线$普通线
100
AcDbLine
 10
53.74000000000141
 20
1125.241016675963
 30
0.0
 11
53.74000000000142
 21
1125.16521678831
 31
0.0
  0
LINE
  5
40D
330
1F
100
AcDbEntity
  8
Make2D$可见线$普通线
100
AcDbLine
 10
53.74000000000142
 20
1125.14439522027
 30
0.0
 11
53.74000000000142
 21
1125.05626535439
 31
0.0
  0
LINE
  5
40E
330
1F
100
AcDbEntity
  8
Make2D$可见线$普通线
100
AcDbLine
 10
53.74000000000142
 20
1125.033486827265
 30
0.0
 11
53.74000000000142
 21
1124.932919737254
 31
0.0
  0
LINE
  5
40F
330
1F
100
AcDbEntity
  8
Make2D$可见线$普通线
100
AcDbLine
 10
53.74000000000142
 20
1124.908445868038
 30
0.0
 11
53.74000000000141
 21
1124.795338107803
 31
0.0
  0
LINE
  5
410
330
1F
100
AcDbEntity
  8
Make2D$可见线$普通线
100
AcDbLine
 10
53.74000000000139
 20
1124.769426713677
 30
0.0
 11
53.74000000000139
 21
1124.643678636932
 31
0.0
  0
LINE
  5
411
330
1F
100
AcDbEntity
  8
Make2D$可见线$普通线
100
AcDbLine
 10
53.74000000000141
 20
1124.616583735272
 30
0.0
 11
53.74000000000141
 21
1124.478099495535
 31
0.0
  0
LINE
  5
412
330
1F
100
AcDbEntity
  8
Make2D$可见线$普通线
100
AcDbLine
 10
53.74000000000142
 20
1124.450071303911
 30
0.0
 11
53.7400000000014
 21
1124.298758854506
 31
0.0
  0
LINE
  5
413
330
1F
100
AcDbEntity
  8
Make2D$可见线$普通线
100
AcDbLine
 10
53.74000000000141
 20
1124.270043790683
 30
0.0
 11
53.74000000000139
 21
1124.105814880119
 31
0.0
  0
LINE
  5
414
330
1F
100
AcDbEntity
  8
Make2D$可见线$普通线
100
AcDbLine
 10
53.74000000000139
 20
1124.076655566679
 30
0.0
 11
53.74000000000139
 21
1123.899425737587
 31
0.0
  0
LINE
  5
415
330
1F
100
AcDbEntity
  8
Make2D$可见线$普通线
100
AcDbLine
 10
53.7400000000014
 20
1123.172582984668
 30
0.0
 11
53.7400000000014
 21
1123.104730450195
 31
0.0
  0
LINE
  5
416
330
1F
100
AcDbEntity
  8
Make2D$可见线$普通线
100
AcDbLine
 10
53.7400000000014
 20
1122.361805268361
 30
0.0
 11
53.7400000000014
 21
1122.134257834172
 31
0.0
  0
LINE
  5
417
330
1F
100
AcDbEntity
  8
Make2D$可见线$普通线
100
AcDbLine
 10
53.74000000000143
 20
1122.067088717343
 30
0.0
 11
53.74000000000143
 21
1121.924713038794
 31
0.0
  0
LINE
  5
418
330
1F
100
AcDbEntity
  8
Make2D$可见线$普通线
100
AcDbLine
 10
53.74000000000142
 20
1121.76040079535
 30
0.0
 11
53.74000000000142
 21
1121.701417081518
 31
0.0
  0
LINE
  5
419
330
1F
100
AcDbEntity
  8
Make2D$可见线$普通线
100
AcDbLine
 10
53.74000000000141
 20
1121.111728322792
 30
0.0
 11
53.74000000000141
 21
1120.949393418327
 31
0.0
  0
LINE
  5
41A
330
1F
100
AcDbEntity
  8
Make2D$可见线$普通线
100
AcDbLine
 10
53.74000000000142
 20
1120.770052514406
 30
0.0
 11
53.74000000000142
 21
1120.671602475992
 31
0.0
  0
LINE
  5
41B
330
1F
100
AcDbEntity
  8
Make2D$可见线$普通线
100
AcDbLine
 10
53.74000000000142
 20
1120.417022819399
 30
0.0
 11
53.74000000000142
 21
1120.076113780553
 31
0.0
  0
LINE
  5
41C
330
1F
100
AcDbEntity
  8
Make2D$可见线$普通线
100
AcDbLine
 10
53.74000000000142
 20
1120.052793608862
 30
0.0
 11
53.74000000000142
 21
1118.486969033188
 31
0.0
  0
LINE
  5
41D
330
1F
100
AcDbEntity
  8
Make2D$可见线$普通线
100
AcDbLine
 10
52.74000000000149
 20
1076.511553341075
 30
0.0
 11
1.869767465363152
 21
1076.511553341075
 31
0.0
  0
LINE
  5
41E
330
1F
100
AcDbEntity
  8
Make2D$可见线$普通线
100
AcDbLine
 10
52.74000000000149
 20
1126.511553341075
 30
0.0
 11
48.00025911881647
 21
1126.511553341075
 31
0.0
  0
LINE
  5
41F
330
1F
100
AcDbEntity
  8
Make2D$可见线$普通线
100
AcDbLine
 10
5.009859367369689
 20
1126.511553341075
 30
0.0
 11
1.869767465363124
 21
1126.511553341075
 31
0.0
  0
ARC
  5
420
330
1F
100
AcDbEntity
  8
Make2D$可见线$普通线
100
AcDbCircle
 10
1.869777229793101
 20
1077.51101892614
 30
0.0
 40
1.000008923760939
100
AcDbArc
 50
184.1600575596525
 51
269.9994405443647
  0
ARC
  5
421
330
1F
100
AcDbEntity
  8
Make2D$可见线$普通线
100
AcDbCircle
 10
1.86977722979384
 20
1125.51208775605
 30
0.0
 40
1.000008923761527
100
AcDbArc
 50
90.00055945567115
 51
175.8399424404022
  0
LINE
  5
422
330
1F
100
AcDbEntity
  8
Make2D$可见线$普通线
100
AcDbLine
 10
278.0297408812255
 20
1128.511405416888
 30
0.0
 11
278.0297408812255
 21
1135.511553341075
 31
0.0
  0
LINE
  5
423
330
1F
100
AcDbEntity
  8
Make2D$可见线$普通线
100
AcDbLine
 10
317.0201408372141
 20
1128.511409322927
 30
0.0
 11
317.0201408372141
 21
1135.511553341075
 31
0.0
  0
ARC
  5
424
330
1F
100
AcDbEntity
  8
Make2D$可见线$普通线
100
AcDbCircle
 10
279.0296405218952
 20
1135.511542474084
 30
0.0
 40
1.000010867049737
100
AcDbArc
 50
89.99937740035925
 51
179.99937737407
  0
LINE
  5
425
330
1F
100
AcDbEntity
  8
Make2D$可见线$普通线
100
AcDbLine
 10
279.0336918636002
 20
1136.511553341074
 30
0.0
 11
279.964247597467
 21
1136.511553341075
 31
0.0
  0
LINE
  5
426
330
1F
100
AcDbEntity
  8
Make2D$可见线$普通线
100
AcDbLine
 10
314.8841657463195
 20
1136.511553341075
 30
0.0
 11
316.0202251880747
 21
1136.511553341075
 31
0.0
  0
ARC
  5
427
330
1F
100
AcDbEntity
  8
Make2D$可见线$普通线
100
AcDbCircle
 10
316.020236054609
 20
1135.511542474087
 30
0.0
 40
1.000010867047118
100
AcDbArc
 50
0.0006226257867623
 51
90.00062259978405
  0
ARC
  5
428
330
1F
100
AcDbEntity
  8
Make2D$可见线$普通线
100
AcDbCircle
 10
276.029740881221
 20
1128.511553341095
 30
0.0
 40
1.99999999999966
100
AcDbArc
 50
326.8241998214268
 51
338.4018390156721
  0
ARC
  5
429
330
1F
100
AcDbEntity
  8
Make2D$可见线$普通线
100
AcDbCircle
 10
276.0297408810003
 20
1128.511553341287
 30
0.0
 40
2.000000000292952
100
AcDbArc
 50
314.9999999997973
 51
318.9538783346269
  0
ARC
  5
42A
330
1F
100
AcDbEntity
  8
Make2D$可见线$普通线
100
AcDbCircle
 10
276.0297896236748
 20
1128.511533230326
 30
0.0
 40
1.99994727716895
100
AcDbArc
 50
338.4018607003492
 51
359.9963382493111
  0
ARC
  5
42B
330
1F
100
AcDbEntity
  8
Make2D$可见线$普通线
100
AcDbCircle
 10
276.0293023010478
 20
1128.512645461211
 30
0.0
 40
2.001082421916125
100
AcDbArc
 50
270.0128134555716
 51
314.9867683250639
  0
ARC
  5
42C
330
1F
100
AcDbEntity
  8
Make2D$可见线$普通线
100
AcDbCircle
 10
319.0202782351374
 20
1128.511903812423
 30
0.0
 40
2.000345096264887
100
AcDbArc
 50
225.004312216751
 51
269.9960545249771
  0
ARC
  5
42D
330
1F
100
AcDbEntity
  8
Make2D$可见线$普通线
100
AcDbCircle
 10
319.0200648280555
 20
1128.511521541768
 30
0.0
 40
1.99992032075232
100
AcDbArc
 50
180.0032149271897
 51
217.1022196929194
  0
LINE
  5
42E
330
1F
100
AcDbEntity
  8
Make2D$可见线$普通线
100
AcDbLine
 10
270.2900000000014
 20
1084.536137648959
 30
0.0
 11
270.2900000000014
 21
1082.970313073287
 31
0.0
  0
LINE
  5
42F
330
1F
100
AcDbEntity
  8
Make2D$可见线$普通线
100
AcDbLine
 10
270.2900000000014
 20
1082.946992901597
 30
0.0
 11
270.2900000000015
 21
1082.606083862751
 31
0.0
  0
LINE
  5
430
330
1F
100
AcDbEntity
  8
Make2D$可见线$普通线
100
AcDbLine
 10
270.2900000000014
 20
1082.351504206158
 30
0.0
 11
270.2900000000014
 21
1082.253054167744
 31
0.0
  0
LINE
  5
431
330
1F
100
AcDbEntity
  8
Make2D$可见线$普通线
100
AcDbLine
 10
270.2900000000014
 20
1082.073713263823
 30
0.0
 11
270.2900000000014
 21
1081.911378359358
 31
0.0
  0
LINE
  5
432
330
1F
100
AcDbEntity
  8
Make2D$可见线$普通线
100
AcDbLine
 10
270.2900000000014
 20
1081.321689600632
 30
0.0
 11
270.2900000000014
 21
1081.2627058868
 31
0.0
  0
LINE
  5
433
330
1F
100
AcDbEntity
  8
Make2D$可见线$普通线
100
AcDbLine
 10
270.2900000000014
 20
1081.098393643355
 30
0.0
 11
270.2900000000014
 21
1080.956017964806
 31
0.0
  0
LINE
  5
434
330
1F
100
AcDbEntity
  8
Make2D$可见线$普通线
100
AcDbLine
 10
270.2900000000014
 20
1080.888848847978
 30
0.0
 11
270.2900000000014
 21
1080.661301413789
 31
0.0
  0
LINE
  5
435
330
1F
100
AcDbEntity
  8
Make2D$可见线$普通线
100
AcDbLine
 10
270.2900000000014
 20
1079.918376231955
 30
0.0
 11
270.2900000000014
 21
1079.850523697482
 31
0.0
  0
LINE
  5
436
330
1F
100
AcDbEntity
  8
Make2D$可见线$普通线
100
AcDbLine
 10
270.2900000000014
 20
1079.123680944563
 30
0.0
 11
270.2900000000014
 21
1078.946451115471
 31
0.0
  0
LINE
  5
437
330
1F
100
AcDbEntity
  8
Make2D$可见线$普通线
100
AcDbLine
 10
270.2900000000014
 20
1078.917291802031
 30
0.0
 11
270.2900000000014
 21
1078.753062891466
 31
0.0
  0
LINE
  5
438
330
1F
100
AcDbEntity
  8
Make2D$可见线$普通线
100
AcDbLine
 10
270.2900000000014
 20
1078.724347827644
 30
0.0
 11
270.2900000000014
 21
1078.573035378239
 31
0.0
  0
LINE
  5
439
330
1F
100
AcDbEntity
  8
Make2D$可见线$普通线
100
AcDbLine
 10
270.2900000000016
 20
1078.545007186614
 30
0.0
 11
270.2900000000014
 21
1078.406522946878
 31
0.0
  0
LINE
  5
43A
330
1F
100
AcDbEntity
  8
Make2D$可见线$普通线
100
AcDbLine
 10
270.2900000000014
 20
1078.379428045218
 30
0.0
 11
270.2900000000014
 21
1078.253679968472
 31
0.0
  0
LINE
  5
43B
330
1F
100
AcDbEntity
  8
Make2D$可见线$普通线
100
AcDbLine
 10
270.2900000000014
 20
1078.227768574346
 30
0.0
 11
270.2900000000014
 21
1078.114660814112
 31
0.0
  0
LINE
  5
43C
330
1F
100
AcDbEntity
  8
Make2D$可见线$普通线
100
AcDbLine
 10
270.2900000000014
 20
1078.090186944895
 30
0.0
 11
270.2900000000014
 21
1077.989619854884
 31
0.0
  0
LINE
  5
43D
330
1F
100
AcDbEntity
  8
Make2D$可见线$普通线
100
AcDbLine
 10
270.2900000000013
 20
1077.96684132776
 30
0.0
 11
270.2900000000014
 21
1077.878711461879
 31
0.0
  0
LINE
  5
43E
330
1F
100
AcDbEntity
  8
Make2D$可见线$普通线
100
AcDbLine
 10
270.2900000000014
 20
1077.857889893839
 30
0.0
 11
270.2900000000014
 21
1077.782090006187
 31
0.0
  0
LINE
  5
43F
330
1F
100
AcDbEntity
  8
Make2D$可见线$普通线
100
AcDbLine
 10
270.2900000000014
 20
1077.763490814045
 30
0.0
 11
270.2900000000014
 21
1077.683802259342
 31
0.0
  0
LINE
  5
440
330
1F
100
AcDbEntity
  8
Make2D$可见线$普通线
100
AcDbLine
 10
270.2900000000014
 20
1077.632325391092
 30
0.0
 11
270.2900000000014
 21
1077.618982400953
 31
0.0
  0
LINE
  5
441
330
1F
100
AcDbEntity
  8
Make2D$可见线$普通线
100
AcDbLine
 10
270.2900000000014
 20
1077.579490973868
 30
0.0
 11
270.2900000000014
 21
1077.515316707555
 31
0.0
  0
ARC
  5
442
330
1F
100
AcDbEntity
  8
Make2D$可见线$普通线
100
AcDbCircle
 10
271.2900039225297
 20
1077.511013925719
 30
0.0
 40
1.000003922686763
100
AcDbArc
 50
179.9989795179075
 51
269.999775256567
  0
ARC
  5
443
330
1F
100
AcDbEntity
  8
Make2D$可见线$普通线
100
AcDbCircle
 10
271.289755450886
 20
1125.512341222675
 30
0.0
 40
0.9997554863450209
100
AcDbArc
 50
89.98598494079121
 51
180.0152602847363
  0
LINE
  5
444
330
1F
100
AcDbEntity
  8
Make2D$可见线$普通线
100
AcDbLine
 10
270.2900000000015
 20
1125.507789974595
 30
0.0
 11
270.2900000000016
 21
1125.443615708281
 31
0.0
  0
LINE
  5
445
330
1F
100
AcDbEntity
  8
Make2D$可见线$普通线
100
AcDbLine
 10
270.2900000000016
 20
1125.404124281197
 30
0.0
 11
270.2900000000016
 21
1125.390781291058
 31
0.0
  0
LINE
  5
446
330
1F
100
AcDbEntity
  8
Make2D$可见线$普通线
100
AcDbLine
 10
270.2900000000015
 20
1125.339304422808
 30
0.0
 11
270.2900000000015
 21
1125.259615868104
 31
0.0
  0
LINE
  5
447
330
1F
100
AcDbEntity
  8
Make2D$可见线$普通线
100
AcDbLine
 10
270.2900000000015
 20
1125.241016675963
 30
0.0
 11
270.2900000000015
 21
1125.16521678831
 31
0.0
  0
LINE
  5
448
330
1F
100
AcDbEntity
  8
Make2D$可见线$普通线
100
AcDbLine
 10
270.2900000000014
 20
1125.14439522027
 30
0.0
 11
270.2900000000015
 21
1125.05626535439
 31
0.0
  0
LINE
  5
449
330
1F
100
AcDbEntity
  8
Make2D$可见线$普通线
100
AcDbLine
 10
270.2900000000015
 20
1125.033486827266
 30
0.0
 11
270.2900000000015
 21
1124.932919737254
 31
0.0
  0
LINE
  5
44A
330
1F
100
AcDbEntity
  8
Make2D$可见线$普通线
100
AcDbLine
 10
270.2900000000014
 20
1124.908445868038
 30
0.0
 11
270.2900000000015
 21
1124.795338107803
 31
0.0
  0
LINE
  5
44B
330
1F
100
AcDbEntity
  8
Make2D$可见线$普通线
100
AcDbLine
 10
270.2900000000014
 20
1124.769426713677
 30
0.0
 11
270.2900000000014
 21
1124.643678636932
 31
0.0
  0
LINE
  5
44C
330
1F
100
AcDbEntity
  8
Make2D$可见线$普通线
100
AcDbLine
 10
270.2900000000016
 20
1124.616583735272
 30
0.0
 11
270.2900000000015
 21
1124.478099495535
 31
0.0
  0
LINE
  5
44D
330
1F
100
AcDbEntity
  8
Make2D$可见线$普通线
100
AcDbLine
 10
270.2900000000015
 20
1124.450071303911
 30
0.0
 11
270.2900000000015
 21
1124.298758854506
 31
0.0
  0
LINE
  5
44E
330
1F
100
AcDbEntity
  8
Make2D$可见线$普通线
100
AcDbLine
 10
270.2900000000014
 20
1124.270043790683
 30
0.0
 11
270.2900000000015
 21
1124.105814880119
 31
0.0
  0
LINE
  5
44F
330
1F
100
AcDbEntity
  8
Make2D$可见线$普通线
100
AcDbLine
 10
270.2900000000014
 20
1124.076655566679
 30
0.0
 11
270.2900000000014
 21
1123.899425737587
 31
0.0
  0
LINE
  5
450
330
1F
100
AcDbEntity
  8
Make2D$可见线$普通线
100
AcDbLine
 10
270.2900000000016
 20
1123.172582984668
 30
0.0
 11
270.2900000000014
 21
1123.104730450195
 31
0.0
  0
LINE
  5
451
330
1F
100
AcDbEntity
  8
Make2D$可见线$普通线
100
AcDbLine
 10
270.2900000000013
 20
1122.361805268361
 30
0.0
 11
270.2900000000013
 21
1122.134257834172
 31
0.0
  0
LINE
  5
452
330
1F
100
AcDbEntity
  8
Make2D$可见线$普通线
100
AcDbLine
 10
270.2900000000014
 20
1122.067088717344
 30
0.0
 11
270.2900000000014
 21
1121.924713038794
 31
0.0
  0
LINE
  5
453
330
1F
100
AcDbEntity
  8
Make2D$可见线$普通线
100
AcDbLine
 10
270.2900000000014
 20
1121.76040079535
 30
0.0
 11
270.2900000000014
 21
1121.701417081518
 31
0.0
  0
LINE
  5
454
330
1F
100
AcDbEntity
  8
Make2D$可见线$普通线
100
AcDbLine
 10
270.2900000000014
 20
1121.111728322792
 30
0.0
 11
270.2900000000013
 21
1120.949393418327
 31
0.0
  0
LINE
  5
455
330
1F
100
AcDbEntity
  8
Make2D$可见线$普通线
100
AcDbLine
 10
270.2900000000014
 20
1120.770052514406
 30
0.0
 11
270.2900000000013
 21
1120.671602475992
 31
0.0
  0
LINE
  5
456
330
1F
100
AcDbEntity
  8
Make2D$可见线$普通线
100
AcDbLine
 10
270.2900000000014
 20
1120.417022819399
 30
0.0
 11
270.2900000000013
 21
1120.076113780553
 31
0.0
  0
LINE
  5
457
330
1F
100
AcDbEntity
  8
Make2D$可见线$普通线
100
AcDbLine
 10
270.2900000000013
 20
1120.052793608862
 30
0.0
 11
270.2900000000013
 21
1118.486969033194
 31
0.0
  0
LINE
  5
458
330
1F
100
AcDbEntity
  8
Make2D$可见线$普通线
100
AcDbLine
 10
271.2900000000014
 20
1076.511553341075
 30
0.0
 11
322.1602325346398
 21
1076.511553341075
 31
0.0
  0
LINE
  5
459
330
1F
100
AcDbEntity
  8
Make2D$可见线$普通线
100
AcDbLine
 10
271.2900000000014
 20
1126.511553341075
 30
0.0
 11
276.0297408811865
 21
1126.511553341075
 31
0.0
  0
LINE
  5
45A
330
1F
100
AcDbEntity
  8
Make2D$可见线$普通线
100
AcDbLine
 10
319.0201406326332
 20
1126.511553341075
 30
0.0
 11
322.1602325346399
 21
1126.511553341075
 31
0.0
  0
ARC
  5
45B
330
1F
100
AcDbEntity
  8
Make2D$可见线$普通线
100
AcDbCircle
 10
322.16022277021
 20
1077.51101892614
 30
0.0
 40
1.000008923760669
100
AcDbArc
 50
270.0005594556125
 51
355.8399424403594
  0
ARC
  5
45C
330
1F
100
AcDbEntity
  8
Make2D$可见线$普通线
100
AcDbCircle
 10
322.1602227702093
 20
1125.51208775605
 30
0.0
 40
1.000008923761393
100
AcDbArc
 50
4.160057559598292
 51
89.99944054434839
  0
ENDSEC
  0
SECTION
  2
OBJECTS
  0
DICTIONARY
  5
C
330
0
100
AcDbDictionary
281
     1
  3
ACAD_GROUP
350
D
  3
ACAD_LAYOUT
350
1A
  3
ACAD_MATERIAL
350
3B
  3
ACAD_MLEADERSTYLE
350
487
  3
ACAD_MLINESTYLE
350
17
  3
ACAD_PLOTSETTINGS
350
19
  3
ACAD_PLOTSTYLENAME
350
E
  3
ACAD_SCALELIST
350
3F
  3
ACAD_TABLESTYLE
350
486
  3
ACAD_VISUALSTYLE
350
2A
  3
AcDbVariableDictionary
350
45D
  0
DICTIONARY
  5
D
102
{ACAD_REACTORS
330
C
102
}
330
C
100
AcDbDictionary
281
     1
  0
DICTIONARY
  5
1A
102
{ACAD_REACTORS
330
C
102
}
330
C
100
AcDbDictionary
281
     1
  3
Layout1
350
1E
  3
Layout2
350
26
  3
Model
350
22
  0
DICTIONARY
  5
3B
102
{ACAD_REACTORS
330
C
102
}
330
C
100
AcDbDictionary
281
     1
  3
ByBlock
350
3D
  3
ByLayer
350
3C
  3
Global
350
3E
  0
DICTIONARY
  5
487
102
{ACAD_REACTORS
330
C
102
}
330
C
100
AcDbDictionary
281
     1
  0
DICTIONARY
  5
17
102
{ACAD_REACTORS
330
C
102
}
330
C
100
AcDbDictionary
281
     1
  3
Standard
350
18
  0
DICTIONARY
  5
19
102
{ACAD_REACTORS
330
C
102
}
330
C
100
AcDbDictionary
281
     1
  0
ACDBDICTIONARYWDFLT
  5
E
102
{ACAD_REACTORS
330
C
102
}
330
C
100
AcDbDictionary
281
     1
  3
Normal
350
F
100
AcDbDictionaryWithDefault
340
F
  0
DICTIONARY
  5
3F
102
{ACAD_REACTORS
330
C
102
}
330
C
100
AcDbDictionary
281
     1
  3
A0
350
40
  3
A1
350
41
  3
A2
350
42
  3
A3
350
43
  3
A4
350
44
  3
A5
350
45
  3
A6
350
46
  3
A7
350
47
  3
A8
350
48
  3
A9
350
49
  3
B0
350
4A
  3
B1
350
4B
  3
B2
350
4C
  3
B3
350
4D
  3
B4
350
4E
  3
B5
350
4F
  3
B6
350
50
  3
B7
350
51
  3
B8
350
52
  3
B9
350
53
  3
C0
350
54
  3
C1
350
55
  3
C2
350
56
  3
C3
350
57
  3
C4
350
58
  3
C5
350
59
  3
C6
350
5A
  3
C7
350
5B
  3
C8
350
5C
  3
C9
350
5D
  3
D0
350
5E
  3
D1
350
5F
  3
D2
350
60
  0
DICTIONARY
  5
486
102
{ACAD_REACTORS
330
C
102
}
330
C
100
AcDbDictionary
281
     1
  0
DICTIONARY
  5
2A
102
{ACAD_REACTORS
330
C
102
}
330
C
100
AcDbDictionary
281
     1
  3
2dWireframe
350
2F
  3
3D Hidden
350
31
  3
3dWireframe
350
30
  3
Basic
350
32
  3
Brighten
350
36
  3
ColorChange
350
3A
  3
Conceptual
350
34
  3
Dim
350
35
  3
Facepattern
350
39
  3
Flat
350
2B
  3
FlatWithEdges
350
2C
  3
Gouraud
350
2D
  3
GouraudWithEdges
350
2E
  3
Linepattern
350
38
  3
Realistic
350
33
  3
Thicken
350
37
  0
DICTIONARY
  5
45D
102
{ACAD_REACTORS
330
C
102
}
330
C
100
AcDbDictionary
281
     1
  3
CANNOSCALE
350
45E
  3
MSLTSCALE
350
45F
  0
LAYOUT
  5
1E
102
{ACAD_REACTORS
330
1A
102
}
330
1A
100
AcDbPlotSettings
  1

  2
none_device
  4

  6

 40
0.0
 41
0.0
 42
0.0
 43
0.0
 44
0.0
 45
0.0
 46
0.0
 47
0.0
 48
0.0
 49
0.0
140
0.0
141
0.0
142
1.0
143
1.0
 70
   688
 72
     0
 73
     0
 74
     5
  7

 75
    16
 76
     0
 77
     2
 78
   300
147
1.0
148
0.0
149
0.0
100
AcDbLayout
  1
Layout1
 70
     1
 71
     1
 10
0.0
 20
0.0
 11
12.0
 21
9.0
 12
0.0
 22
0.0
 32
0.0
 14
1.000000000000000E+20
 24
1.000000000000000E+20
 34
1.000000000000000E+20
 15
-1.000000000000000E+20
 25
-1.000000000000000E+20
 35
-1.000000000000000E+20
146
0.0
 13
0.0
 23
0.0
 33
0.0
 16
1.0
 26
0.0
 36
0.0
 17
0.0
 27
1.0
 37
0.0
 76
     0
330
1B
  0
LAYOUT
  5
26
102
{ACAD_REACTORS
330
1A
102
}
330
1A
100
AcDbPlotSettings
  1

  2
none_device
  4

  6

 40
0.0
 41
0.0
 42
0.0
 43
0.0
 44
0.0
 45
0.0
 46
0.0
 47
0.0
 48
0.0
 49
0.0
140
0.0
141
0.0
142
1.0
143
1.0
 70
   688
 72
     0
 73
     0
 74
     5
  7

 75
    16
 76
     0
 77
     2
 78
   300
147
1.0
148
0.0
149
0.0
100
AcDbLayout
  1
Layout2
 70
     1
 71
     2
 10
0.0
 20
0.0
 11
0.0
 21
0.0
 12
0.0
 22
0.0
 32
0.0
 14
0.0
 24
0.0
 34
0.0
 15
0.0
 25
0.0
 35
0.0
146
0.0
 13
0.0
 23
0.0
 33
0.0
 16
1.0
 26
0.0
 36
0.0
 17
0.0
 27
1.0
 37
0.0
 76
     0
330
23
  0
LAYOUT
  5
22
102
{ACAD_REACTORS
330
1A
102
}
330
1A
100
AcDbPlotSettings
  1

  2
none_device
  4
Letter_(8.50_x_11.00_Inches)
  6

 40
6.35
 41
6.35
 42
6.35000508
 43
6.35000508
 44
215.9
 45
279.4
 46
0.0
 47
0.0
 48
0.0
 49
0.0
140
0.0
141
0.0
142
1.0
143
1.0
 70
  1712
 72
     0
 73
     0
 74
     0
  7

 75
     0
 76
     0
 77
     2
 78
   300
147
1.0
148
0.0
149
0.0
100
AcDbLayout
  1
Model
 70
     1
 71
     0
 10
0.0
 20
0.0
 11
12.0
 21
9.0
 12
0.0
 22
0.0
 32
0.0
 14
0.0000000000000004
 24
1061.291553374628
 34
0.0
 15
324.030000000003
 25
1136.511553341134
 35
0.0
146
0.0
 13
0.0
 23
0.0
 33
0.0
 16
1.0
 26
0.0
 36
0.0
 17
0.0
 27
1.0
 37
0.0
 76
     0
330
1F
331
29
  0
MATERIAL
  5
3D
102
{ACAD_REACTORS
330
3B
102
}
102
{ACAD_XDICTIONARY
360
482
102
}
330
3B
100
AcDbMaterial
  1
ByBlock
  0
MATERIAL
  5
3C
102
{ACAD_REACTORS
330
3B
102
}
102
{ACAD_XDICTIONARY
360
480
102
}
330
3B
100
AcDbMaterial
  1
ByLayer
  0
MATERIAL
  5
3E
102
{ACAD_REACTORS
330
3B
102
}
102
{ACAD_XDICTIONARY
360
484
102
}
330
3B
100
AcDbMaterial
  1
Global
  0
MLINESTYLE
  5
18
102
{ACAD_REACTORS
330
17
102
}
330
17
100
AcDbMlineStyle
  2
Standard
 70
     0
  3

 62
   256
 51
90.0
 52
90.0
 71
     2
 49
0.5
 62
   256
  6
BYLAYER
 49
-0.5
 62
   256
  6
BYLAYER
  0
ACDBPLACEHOLDER
  5
F
102
{ACAD_REACTORS
330
E
102
}
330
E
  0
SCALE
  5
40
102
{ACAD_REACTORS
330
3F
102
}
330
3F
100
AcDbScale
 70
     0
300
1:1
140
1.0
141
1.0
290
     1
  0
SCALE
  5
41
102
{ACAD_REACTORS
330
3F
102
}
330
3F
100
AcDbScale
 70
     0
300
1:2
140
1.0
141
2.0
290
     0
  0
SCALE
  5
42
102
{ACAD_REACTORS
330
3F
102
}
330
3F
100
AcDbScale
 70
     0
300
1:4
140
1.0
141
4.0
290
     0
  0
SCALE
  5
43
102
{ACAD_REACTORS
330
3F
102
}
330
3F
100
AcDbScale
 70
     0
300
1:5
140
1.0
141
5.0
290
     0
  0
SCALE
  5
44
102
{ACAD_REACTORS
330
3F
102
}
330
3F
100
AcDbScale
 70
     0
300
1:8
140
1.0
141
8.0
290
     0
  0
SCALE
  5
45
102
{ACAD_REACTORS
330
3F
102
}
330
3F
100
AcDbScale
 70
     0
300
1:10
140
1.0
141
10.0
290
     0
  0
SCALE
  5
46
102
{ACAD_REACTORS
330
3F
102
}
330
3F
100
AcDbScale
 70
     0
300
1:16
140
1.0
141
16.0
290
     0
  0
SCALE
  5
47
102
{ACAD_REACTORS
330
3F
102
}
330
3F
100
AcDbScale
 70
     0
300
1:20
140
1.0
141
20.0
290
     0
  0
SCALE
  5
48
102
{ACAD_REACTORS
330
3F
102
}
330
3F
100
AcDbScale
 70
     0
300
1:30
140
1.0
141
30.0
290
     0
  0
SCALE
  5
49
102
{ACAD_REACTORS
330
3F
102
}
330
3F
100
AcDbScale
 70
     0
300
1:40
140
1.0
141
40.0
290
     0
  0
SCALE
  5
4A
102
{ACAD_REACTORS
330
3F
102
}
330
3F
100
AcDbScale
 70
     0
300
1:50
140
1.0
141
50.0
290
     0
  0
SCALE
  5
4B
102
{ACAD_REACTORS
330
3F
102
}
330
3F
100
AcDbScale
 70
     0
300
1:100
140
1.0
141
100.0
290
     0
  0
SCALE
  5
4C
102
{ACAD_REACTORS
330
3F
102
}
330
3F
100
AcDbScale
 70
     0
300
2:1
140
2.0
141
1.0
290
     0
  0
SCALE
  5
4D
102
{ACAD_REACTORS
330
3F
102
}
330
3F
100
AcDbScale
 70
     0
300
4:1
140
4.0
141
1.0
290
     0
  0
SCALE
  5
4E
102
{ACAD_REACTORS
330
3F
102
}
330
3F
100
AcDbScale
 70
     0
300
8:1
140
8.0
141
1.0
290
     0
  0
SCALE
  5
4F
102
{ACAD_REACTORS
330
3F
102
}
330
3F
100
AcDbScale
 70
     0
300
10:1
140
10.0
141
1.0
290
     0
  0
SCALE
  5
50
102
{ACAD_REACTORS
330
3F
102
}
330
3F
100
AcDbScale
 70
     0
300
100:1
140
100.0
141
1.0
290
     0
  0
SCALE
  5
51
102
{ACAD_REACTORS
330
3F
102
}
330
3F
100
AcDbScale
 70
     0
300
1/128" = 1'-0"
140
0.0078125
141
12.0
290
     0
  0
SCALE
  5
52
102
{ACAD_REACTORS
330
3F
102
}
330
3F
100
AcDbScale
 70
     0
300
1/64" = 1'-0"
140
0.015625
141
12.0
290
     0
  0
SCALE
  5
53
102
{ACAD_REACTORS
330
3F
102
}
330
3F
100
AcDbScale
 70
     0
300
1/32" = 1'-0"
140
0.03125
141
12.0
290
     0
  0
SCALE
  5
54
102
{ACAD_REACTORS
330
3F
102
}
330
3F
100
AcDbScale
 70
     0
300
1/16" = 1'-0"
140
0.0625
141
12.0
290
     0
  0
SCALE
  5
55
102
{ACAD_REACTORS
330
3F
102
}
330
3F
100
AcDbScale
 70
     0
300
3/32" = 1'-0"
140
0.09375
141
12.0
290
     0
  0
SCALE
  5
56
102
{ACAD_REACTORS
330
3F
102
}
330
3F
100
AcDbScale
 70
     0
300
1/8" = 1'-0"
140
0.125
141
12.0
290
     0
  0
SCALE
  5
57
102
{ACAD_REACTORS
330
3F
102
}
330
3F
100
AcDbScale
 70
     0
300
3/16" = 1'-0"
140
0.1875
141
12.0
290
     0
  0
SCALE
  5
58
102
{ACAD_REACTORS
330
3F
102
}
330
3F
100
AcDbScale
 70
     0
300
1/4" = 1'-0"
140
0.25
141
12.0
290
     0
  0
SCALE
  5
59
102
{ACAD_REACTORS
330
3F
102
}
330
3F
100
AcDbScale
 70
     0
300
3/8" = 1'-0"
140
0.375
141
12.0
290
     0
  0
SCALE
  5
5A
102
{ACAD_REACTORS
330
3F
102
}
330
3F
100
AcDbScale
 70
     0
300
1/2" = 1'-0"
140
0.5
141
12.0
290
     0
  0
SCALE
  5
5B
102
{ACAD_REACTORS
330
3F
102
}
330
3F
100
AcDbScale
 70
     0
300
3/4" = 1'-0"
140
0.75
141
12.0
290
     0
  0
SCALE
  5
5C
102
{ACAD_REACTORS
330
3F
102
}
330
3F
100
AcDbScale
 70
     0
300
1" = 1'-0"
140
1.0
141
12.0
290
     0
  0
SCALE
  5
5D
102
{ACAD_REACTORS
330
3F
102
}
330
3F
100
AcDbScale
 70
     0
300
1-1/2" = 1'-0"
140
1.5
141
12.0
290
     0
  0
SCALE
  5
5E
102
{ACAD_REACTORS
330
3F
102
}
330
3F
100
AcDbScale
 70
     0
300
3" = 1'-0"
140
3.0
141
12.0
290
     0
  0
SCALE
  5
5F
102
{ACAD_REACTORS
330
3F
102
}
330
3F
100
AcDbScale
 70
     0
300
6" = 1'-0"
140
6.0
141
12.0
290
     0
  0
SCALE
  5
60
102
{ACAD_REACTORS
330
3F
102
}
330
3F
100
AcDbScale
 70
     0
300
1'-0" = 1'-0"
140
12.0
141
12.0
290
     0
  0
VISUALSTYLE
  5
2F
102
{ACAD_REACTORS
330
2A
102
}
102
{ACAD_XDICTIONARY
360
468
102
}
330
2A
100
AcDbVisualStyle
  2
2dWireframe
 70
     4
 71
     0
 72
     2
 73
     0
 90
        0
 40
0.6
 41
30.0
 62
     5
 63
     7
421
 16777215
 74
     1
 91
        4
 64
     7
 65
   257
 75
     1
175
     1
 42
1.0
 92
        0
 66
   257
 43
1.0
 76
     1
 77
     6
 78
     2
 67
     7
 79
     5
170
     0
171
     0
290
     0
174
     0
 93
        1
 44
0.0
173
     0
291
     0
 45
0.0
1001
ACAD
1000
AcDbSavedByObjectVersion
1070
     0
  0
VISUALSTYLE
  5
31
102
{ACAD_REACTORS
330
2A
102
}
102
{ACAD_XDICTIONARY
360
46C
102
}
330
2A
100
AcDbVisualStyle
  2
3D Hidden
 70
     6
 71
     1
 72
     2
 73
     2
 90
        0
 40
0.6
 41
30.0
 62
     5
 63
     7
421
 16777215
 74
     2
 91
        2
 64
     7
 65
   257
 75
     2
175
     1
 42
40.0
 92
        0
 66
   257
 43
1.0
 76
     1
 77
     6
 78
     2
 67
     7
 79
     3
170
     0
171
     0
290
     0
174
     0
 93
        1
 44
0.0
173
     0
291
     0
 45
0.0
1001
ACAD
1000
AcDbSavedByObjectVersion
1070
     0
  0
VISUALSTYLE
  5
30
102
{ACAD_REACTORS
330
2A
102
}
102
{ACAD_XDICTIONARY
360
46A
102
}
330
2A
100
AcDbVisualStyle
  2
3dWireframe
 70
     5
 71
     0
 72
     2
 73
     0
 90
        0
 40
0.6
 41
30.0
 62
     5
 63
     7
421
 16777215
 74
     1
 91
        4
 64
     7
 65
   257
 75
     1
175
     1
 42
1.0
 92
        0
 66
   257
 43
1.0
 76
     1
 77
     6
 78
     2
 67
     7
 79
     5
170
     0
171
     0
290
     0
174
     0
 93
        1
 44
0.0
173
     0
291
     0
 45
0.0
1001
ACAD
1000
AcDbSavedByObjectVersion
1070
     0
  0
VISUALSTYLE
  5
32
102
{ACAD_REACTORS
330
2A
102
}
102
{ACAD_XDICTIONARY
360
46E
102
}
330
2A
100
AcDbVisualStyle
  2
Basic
 70
     7
 71
     1
 72
     0
 73
     1
 90
        0
 40
0.6
 41
30.0
 62
     5
 63
     7
421
 16777215
 74
     0
 91
        4
 64
     7
 65
   257
 75
     1
175
     1
 42
1.0
 92
        8
 66
     7
 43
1.0
 76
     1
 77
     6
 78
     2
 67
     7
 79
     5
170
     0
171
     0
290
     0
174
     0
 93
        1
 44
0.0
173
     0
291
     1
 45
0.0
1001
ACAD
1000
AcDbSavedByObjectVersion
1070
     0
  0
VISUALSTYLE
  5
36
102
{ACAD_REACTORS
330
2A
102
}
102
{ACAD_XDICTIONARY
360
476
102
}
330
2A
100
AcDbVisualStyle
  2
Brighten
 70
    12
 71
     2
 72
     2
 73
     0
 90
        0
 40
0.6
 41
30.0
 62
     5
 63
     7
421
 16777215
 74
     1
 91
        4
 64
     7
 65
   257
 75
     1
175
     1
 42
1.0
 92
        8
 66
     7
 43
1.0
 76
     1
 77
     6
 78
     2
 67
     7
 79
     5
170
     0
171
     0
290
     0
174
     0
 93
        1
 44
50.0
173
     0
291
     1
 45
0.0
1001
ACAD
1000
AcDbSavedByObjectVersion
1070
     0
  0
VISUALSTYLE
  5
3A
102
{ACAD_REACTORS
330
2A
102
}
102
{ACAD_XDICTIONARY
360
47E
102
}
330
2A
100
AcDbVisualStyle
  2
ColorChange
 70
    16
 71
     2
 72
     2
 73
     3
 90
        0
 40
0.6
 41
30.0
 62
     5
 63
     8
421
  8421504
 74
     1
 91
        4
 64
     7
 65
   257
 75
     1
175
     1
 42
1.0
 92
        8
 66
     8
424
  8421504
 43
1.0
 76
     1
 77
     6
 78
     2
 67
     7
 79
     5
170
     0
171
     0
290
     0
174
     0
 93
        1
 44
0.0
173
     0
291
     1
 45
0.0
1001
ACAD
1000
AcDbSavedByObjectVersion
1070
     0
  0
VISUALSTYLE
  5
34
102
{ACAD_REACTORS
330
2A
102
}
102
{ACAD_XDICTIONARY
360
472
102
}
330
2A
100
AcDbVisualStyle
  2
Conceptual
 70
     9
 71
     3
 72
     2
 73
     0
 90
        0
 40
0.6
 41
30.0
 62
     5
 63
     7
421
 16777215
 74
     2
 91
        2
 64
     7
 65
   257
 75
     1
175
     1
 42
40.0
 92
        8
 66
     7
 43
1.0
 76
     1
 77
     6
 78
     2
 67
     7
 79
     3
170
     0
171
     0
290
     0
174
     0
 93
        1
 44
0.0
173
     0
291
     0
 45
0.0
1001
ACAD
1000
AcDbSavedByObjectVersion
1070
     0
  0
VISUALSTYLE
  5
35
102
{ACAD_REACTORS
330
2A
102
}
102
{ACAD_XDICTIONARY
360
474
102
}
330
2A
100
AcDbVisualStyle
  2
Dim
 70
    11
 71
     2
 72
     2
 73
     0
 90
        0
 40
0.6
 41
30.0
 62
     5
 63
     7
421
 16777215
 74
     1
 91
        4
 64
     7
 65
   257
 75
     1
175
     1
 42
1.0
 92
        8
 66
     7
 43
1.0
 76
     1
 77
     6
 78
     2
 67
     7
 79
     5
170
     0
171
     0
290
     0
174
     0
 93
        1
 44
-50.0
173
     0
291
     1
 45
0.0
1001
ACAD
1000
AcDbSavedByObjectVersion
1070
     0
  0
VISUALSTYLE
  5
39
102
{ACAD_REACTORS
330
2A
102
}
102
{ACAD_XDICTIONARY
360
47C
102
}
330
2A
100
AcDbVisualStyle
  2
Facepattern
 70
    15
 71
     2
 72
     2
 73
     0
 90
        0
 40
0.6
 41
30.0
 62
     5
 63
     7
421
 16777215
 74
     1
 91
        4
 64
     7
 65
   257
 75
     1
175
     1
 42
1.0
 92
        8
 66
     7
 43
1.0
 76
     1
 77
     6
 78
     2
 67
     7
 79
     5
170
     0
171
     0
290
     0
174
     0
 93
        1
 44
0.0
173
     0
291
     1
 45
0.0
1001
ACAD
1000
AcDbSavedByObjectVersion
1070
     0
  0
VISUALSTYLE
  5
2B
102
{ACAD_REACTORS
330
2A
102
}
102
{ACAD_XDICTIONARY
360
460
102
}
330
2A
100
AcDbVisualStyle
  2
Flat
 70
     0
 71
     2
 72
     1
 73
     1
 90
        2
 40
0.6
 41
30.0
 62
     5
 63
     7
421
 16777215
 74
     0
 91
        4
 64
     7
 65
   257
 75
     1
175
     1
 42
1.0
 92
        8
 66
     7
 43
1.0
 76
     1
 77
     6
 78
     2
 67
     7
 79
     5
170
     0
171
     0
290
     0
174
     0
 93
       13
 44
0.0
173
     0
291
     1
 45
0.0
1001
ACAD
1000
AcDbSavedByObjectVersion
1070
     0
  0
VISUALSTYLE
  5
2C
102
{ACAD_REACTORS
330
2A
102
}
102
{ACAD_XDICTIONARY
360
462
102
}
330
2A
100
AcDbVisualStyle
  2
FlatWithEdges
 70
     1
 71
     2
 72
     1
 73
     1
 90
        2
 40
0.6
 41
30.0
 62
     5
 63
     7
421
 16777215
 74
     1
 91
        4
 64
     7
 65
   257
 75
     1
175
     1
 42
1.0
 92
        0
 66
   257
 43
1.0
 76
     1
 77
     6
 78
     2
 67
     7
 79
     5
170
     0
171
     0
290
     0
174
     0
 93
       13
 44
0.0
173
     0
291
     1
 45
0.0
1001
ACAD
1000
AcDbSavedByObjectVersion
1070
     0
  0
VISUALSTYLE
  5
2D
102
{ACAD_REACTORS
330
2A
102
}
102
{ACAD_XDICTIONARY
360
464
102
}
330
2A
100
AcDbVisualStyle
  2
Gouraud
 70
     2
 71
     2
 72
     2
 73
     1
 90
        2
 40
0.6
 41
30.0
 62
     5
 63
     7
421
 16777215
 74
     0
 91
        4
 64
     7
 65
   257
 75
     1
175
     1
 42
1.0
 92
        0
 66
     7
 43
1.0
 76
     1
 77
     6
 78
     2
 67
     7
 79
     5
170
     0
171
     0
290
     0
174
     0
 93
       13
 44
0.0
173
     0
291
     1
 45
0.0
1001
ACAD
1000
AcDbSavedByObjectVersion
1070
     0
  0
VISUALSTYLE
  5
2E
102
{ACAD_REACTORS
330
2A
102
}
102
{ACAD_XDICTIONARY
360
466
102
}
330
2A
100
AcDbVisualStyle
  2
GouraudWithEdges
 70
     3
 71
     2
 72
     2
 73
     1
 90
        2
 40
0.6
 41
30.0
 62
     5
 63
     7
421
 16777215
 74
     1
 91
        4
 64
     7
 65
   257
 75
     1
175
     1
 42
1.0
 92
        0
 66
   257
 43
1.0
 76
     1
 77
     6
 78
     2
 67
     7
 79
     5
170
     0
171
     0
290
     0
174
     0
 93
       13
 44
0.0
173
     0
291
     1
 45
0.0
1001
ACAD
1000
AcDbSavedByObjectVersion
1070
     0
  0
VISUALSTYLE
  5
38
102
{ACAD_REACTORS
330
2A
102
}
102
{ACAD_XDICTIONARY
360
47A
102
}
330
2A
100
AcDbVisualStyle
  2
Linepattern
 70
    14
 71
     2
 72
     2
 73
     0
 90
        0
 40
0.6
 41
30.0
 62
     5
 63
     7
421
 16777215
 74
     1
 91
        4
 64
     7
 65
   257
 75
     7
175
     7
 42
1.0
 92
        8
 66
     7
 43
1.0
 76
     1
 77
     6
 78
     2
 67
     7
 79
     5
170
     0
171
     0
290
     0
174
     0
 93
        1
 44
0.0
173
     0
291
     1
 45
0.0
1001
ACAD
1000
AcDbSavedByObjectVersion
1070
     0
  0
VISUALSTYLE
  5
33
102
{ACAD_REACTORS
330
2A
102
}
102
{ACAD_XDICTIONARY
360
470
102
}
330
2A
100
AcDbVisualStyle
  2
Realistic
 70
     8
 71
     2
 72
     3
 73
     0
 90
        2
 40
0.6
 41
30.0
 62
     5
 63
     7
421
 16777215
 74
     0
 91
        0
 64
     7
 65
   257
 75
     1
175
     1
 42
1.0
 92
        8
 66
   257
 43
1.0
 76
     1
 77
     6
 78
     2
 67
     7
 79
     3
170
     0
171
     0
290
     0
174
     0
 93
       13
 44
0.0
173
     0
291
     0
 45
0.0
1001
ACAD
1000
AcDbSavedByObjectVersion
1070
     0
  0
VISUALSTYLE
  5
37
102
{ACAD_REACTORS
330
2A
102
}
102
{ACAD_XDICTIONARY
360
478
102
}
330
2A
100
AcDbVisualStyle
  2
Thicken
 70
    13
 71
     2
 72
     2
 73
     0
 90
        0
 40
0.6
 41
30.0
 62
     5
 63
     7
421
 16777215
 74
     1
 91
        4
 64
     7
 65
   257
 75
     1
175
     1
 42
1.0
 92
       12
 66
     7
 43
1.0
 76
     1
 77
     6
 78
     2
 67
     7
 79
     5
170
     0
171
     0
290
     0
174
     0
 93
        1
 44
0.0
173
     0
291
     1
 45
0.0
1001
ACAD
1000
AcDbSavedByObjectVersion
1070
     0
  0
DICTIONARYVAR
  5
45E
102
{ACAD_REACTORS
330
45D
102
}
330
45D
100
DictionaryVariables
280
     0
  1
1:1
  0
DICTIONARYVAR
  5
45F
102
{ACAD_REACTORS
330
45D
102
}
330
45D
100
DictionaryVariables
280
     0
  1
1
  0
DICTIONARY
  5
482
330
3D
100
AcDbDictionary
280
     1
281
     1
  3
ACAD_XREC_ROUNDTRIP
360
483
  0
DICTIONARY
  5
480
330
3C
100
AcDbDictionary
280
     1
281
     1
  3
ACAD_XREC_ROUNDTRIP
360
481
  0
DICTIONARY
  5
484
330
3E
100
AcDbDictionary
280
     1
281
     1
  3
ACAD_XREC_ROUNDTRIP
360
485
  0
DICTIONARY
  5
468
330
2F
100
AcDbDictionary
280
     1
281
     1
  3
ACAD_XREC_ROUNDTRIP
360
469
  0
DICTIONARY
  5
46C
330
31
100
AcDbDictionary
280
     1
281
     1
  3
ACAD_XREC_ROUNDTRIP
360
46D
  0
DICTIONARY
  5
46A
330
30
100
AcDbDictionary
280
     1
281
     1
  3
ACAD_XREC_ROUNDTRIP
360
46B
  0
DICTIONARY
  5
46E
330
32
100
AcDbDictionary
280
     1
281
     1
  3
ACAD_XREC_ROUNDTRIP
360
46F
  0
DICTIONARY
  5
476
330
36
100
AcDbDictionary
280
     1
281
     1
  3
ACAD_XREC_ROUNDTRIP
360
477
  0
DICTIONARY
  5
47E
330
3A
100
AcDbDictionary
280
     1
281
     1
  3
ACAD_XREC_ROUNDTRIP
360
47F
  0
DICTIONARY
  5
472
330
34
100
AcDbDictionary
280
     1
281
     1
  3
ACAD_XREC_ROUNDTRIP
360
473
  0
DICTIONARY
  5
474
330
35
100
AcDbDictionary
280
     1
281
     1
  3
ACAD_XREC_ROUNDTRIP
360
475
  0
DICTIONARY
  5
47C
330
39
100
AcDbDictionary
280
     1
281
     1
  3
ACAD_XREC_ROUNDTRIP
360
47D
  0
DICTIONARY
  5
460
330
2B
100
AcDbDictionary
280
     1
281
     1
  3
ACAD_XREC_ROUNDTRIP
360
461
  0
DICTIONARY
  5
462
330
2C
100
AcDbDictionary
280
     1
281
     1
  3
ACAD_XREC_ROUNDTRIP
360
463
  0
DICTIONARY
  5
464
330
2D
100
AcDbDictionary
280
     1
281
     1
  3
ACAD_XREC_ROUNDTRIP
360
465
  0
DICTIONARY
  5
466
330
2E
100
AcDbDictionary
280
     1
281
     1
  3
ACAD_XREC_ROUNDTRIP
360
467
  0
DICTIONARY
  5
47A
330
38
100
AcDbDictionary
280
     1
281
     1
  3
ACAD_XREC_ROUNDTRIP
360
47B
  0
DICTIONARY
  5
470
330
33
100
AcDbDictionary
280
     1
281
     1
  3
ACAD_XREC_ROUNDTRIP
360
471
  0
DICTIONARY
  5
478
330
37
100
AcDbDictionary
280
     1
281
     1
  3
ACAD_XREC_ROUNDTRIP
360
479
  0
XRECORD
  5
483
102
{ACAD_REACTORS
330
482
102
}
330
482
100
AcDbXrecord
280
     1
102
MATERIAL
148
0.0
149
0.0
149
0.0
 93
        0
 94
      127
282
     0
 72
     1
 77
     1
171
     1
175
     1
179
     1
273
     0
  0
XRECORD
  5
481
102
{ACAD_REACTORS
330
480
102
}
330
480
100
AcDbXrecord
280
     1
102
MATERIAL
148
0.0
149
0.0
149
0.0
 93
        0
 94
      127
282
     0
 72
     1
 77
     1
171
     1
175
     1
179
     1
273
     0
  0
XRECORD
  5
485
102
{ACAD_REACTORS
330
484
102
}
330
484
100
AcDbXrecord
280
     1
102
MATERIAL
148
0.0
149
0.0
149
0.0
 93
        0
 94
      127
282
     0
 72
     1
 77
     1
171
     1
175
     1
179
     1
273
     0
  0
XRECORD
  5
469
102
{ACAD_REACTORS
330
468
102
}
330
468
100
AcDbXrecord
280
     1
102
RTVSPropertyOp0
 70
     1
102
RTVSPropertyOp1
 70
     1
102
RTVSPropertyOp2
 70
     1
102
RTVSPropertyOp3
 70
     1
102
RTVSPropertyOp4
 70
     1
102
RTVSPropertyOp5
 70
     1
102
RTVSPropertyOp6
 70
     1
102
RTVSPropertyOp7
 70
     1
102
RTVSPropertyOp8
 70
     1
102
RTVSPropertyOp9
 70
     1
102
RTVSPropertyOp10
 70
     1
102
RTVSPropertyOp11
 70
     1
102
RTVSPropertyOp12
 70
     1
102
RTVSPropertyOp13
 70
     1
102
RTVSPropertyOp14
 70
     1
102
RTVSPropertyOp15
 70
     1
102
RTVSPropertyOp16
 70
     1
102
RTVSPropertyOp17
 70
     1
102
RTVSPropertyOp18
 70
     1
102
RTVSPropertyOp19
 70
     1
102
RTVSPropertyOp20
 70
     1
102
RTVSPropertyOp21
 70
     1
102
RTVSPropertyOp22
 70
     1
102
RTVSPropertyOp23
 70
     1
102
RTVSPropertyOp24
 70
     1
102
RTVSPropertyOp25
 70
     1
102
RTVSPropertyOp26
 70
     1
102
RTVSPropertyOp27
 70
     1
102
RTVSPropertyOp28
 70
     1
102
RTVSPropertyOp29
 70
     1
102
RTVSPropertyOp30
 70
     1
102
RTVSPropertyOp31
 70
     1
102
RTVSPropertyOp32
 70
     1
102
RTVSPropertyOp33
 70
     1
102
RTVSPropertyOp34
 70
     1
102
RTVSPropertyOp35
 70
     1
102
RTVSPropertyOp36
 70
     1
102
RTVSPropertyOp37
 70
     1
102
RTVSPropertyOp38
 70
     1
102
RTVSPropertyOp39
 70
     1
102
RTVSPropertyOp40
 70
     1
102
RTVSPropertyOp41
 70
     1
102
RTVSPropertyOp42
 70
     1
102
RTVSPropertyOp43
 70
     1
102
RTVSPropertyOp44
 70
     1
102
RTVSPropertyOp45
 70
     1
102
RTVSPropertyOp46
 70
     1
102
RTVSPropertyOp47
 70
     1
102
RTVSPropertyOp48
 70
     1
102
RTVSPropertyOp49
 70
     1
102
RTVSPropertyOp50
 70
     1
102
RTVSPropertyOp51
 70
     0
102
RTVSPropertyOp52
 70
     0
102
RTVSPropertyOp53
 70
     1
102
RTVSPropertyOp54
 70
     1
102
RTVSPropertyOp55
 70
     1
102
RTVSPropertyOp56
 70
     1
102
RTVSPropertyOp57
 70
     1
102
RTVSPost2010Prop28
280
     1
102
RTVSPost2010PropOp28
 70
     1
102
RTVSPost2010Prop29
280
     1
102
RTVSPost2010PropOp29
 70
     1
102
RTVSPost2010Prop30
280
     0
102
RTVSPost2010PropOp30
 70
     1
102
RTVSPost2010Prop31
280
     0
102
RTVSPost2010PropOp31
 70
     1
102
RTVSPost2010Prop32
280
     0
102
RTVSPost2010PropOp32
 70
     1
102
RTVSPost2010Prop33
280
     0
102
RTVSPost2010PropOp33
 70
     1
102
RTVSPost2010Prop34
280
     0
102
RTVSPost2010PropOp34
 70
     1
102
RTVSPost2010Prop35
280
     0
102
RTVSPost2010PropOp35
 70
     1
102
RTVSPost2010Prop36
280
     0
102
RTVSPost2010PropOp36
 70
     1
102
RTVSPost2010Prop37
 90
       50
102
RTVSPost2010PropOp37
 70
     1
102
RTVSPost2010Prop38
140
0.0
102
RTVSPost2010PropOp38
 70
     1
102
RTVSPost2010Prop39
140
1.0
102
RTVSPost2010PropOp39
 70
     1
102
RTVSPost2010Prop40
 90
        0
102
RTVSPost2010PropOp40
 70
     1
102
RTVSPost2010Prop41ColorIndex
 90
       18
102
RTVSPost2010Prop41ColorRGB
 90
        0
102
RTVSPost2010PropOp41
 70
     1
102
RTVSPost2010Prop42
 90
       50
102
RTVSPost2010PropOp42
 70
     1
102
RTVSPost2010Prop43
 90
        3
102
RTVSPost2010PropOp43
 70
     1
102
RTVSPost2010Prop44ColorIndex
 90
        5
102
RTVSPost2010Prop44ColorRGB
 90
      255
102
RTVSPost2010PropOp44
 70
     1
102
RTVSPost2010Prop45
280
     0
102
RTVSPost2010PropOp45
 70
     1
102
RTVSPost2010Prop46
 90
       50
102
RTVSPost2010PropOp46
 70
     1
102
RTVSPost2010Prop47
 90
       50
102
RTVSPost2010PropOp47
 70
     1
102
RTVSPost2010Prop48
 90
       50
102
RTVSPost2010PropOp48
 70
     1
102
RTVSPost2010Prop49
280
     0
102
RTVSPost2010PropOp49
 70
     1
102
RTVSPost2010Prop50
 90
       50
102
RTVSPost2010PropOp50
 70
     1
102
RTVSPost2010Prop51ColorIndex
 90
      256
102
RTVSPost2010Prop51ColorRGB
 90
-16777216
102
RTVSPost2010PropOp51
 70
     0
102
RTVSPost2010Prop52
140
1.0
102
RTVSPost2010PropOp52
 70
     0
102
RTVSPost2010Prop53
 90
        2
102
RTVSPost2010PropOp53
 70
     1
102
RTVSPost2010Prop54
  1
strokes_ogs.tif
102
RTVSPost2010PropOp54
 70
     1
102
RTVSPost2010Prop55
280
     0
102
RTVSPost2010PropOp55
 70
     1
102
RTVSPost2010Prop56
140
1.0
102
RTVSPost2010PropOp56
 70
     1
102
RTVSPost2010Prop57
140
1.0
102
RTVSPost2010PropOp57
 70
     1
  0
XRECORD
  5
46D
102
{ACAD_REACTORS
330
46C
102
}
330
46C
100
AcDbXrecord
280
     1
102
RTVSPropertyOp0
 70
     1
102
RTVSPropertyOp1
 70
     1
102
RTVSPropertyOp2
 70
     1
102
RTVSPropertyOp3
 70
     1
102
RTVSPropertyOp4
 70
     1
102
RTVSPropertyOp5
 70
     1
102
RTVSPropertyOp6
 70
     1
102
RTVSPropertyOp7
 70
     1
102
RTVSPropertyOp8
 70
     1
102
RTVSPropertyOp9
 70
     1
102
RTVSPropertyOp10
 70
     1
102
RTVSPropertyOp11
 70
     1
102
RTVSPropertyOp12
 70
     1
102
RTVSPropertyOp13
 70
     1
102
RTVSPropertyOp14
 70
     1
102
RTVSPropertyOp15
 70
     1
102
RTVSPropertyOp16
 70
     1
102
RTVSPropertyOp17
 70
     1
102
RTVSPropertyOp18
 70
     1
102
RTVSPropertyOp19
 70
     1
102
RTVSPropertyOp20
 70
     1
102
RTVSPropertyOp21
 70
     1
102
RTVSPropertyOp22
 70
     1
102
RTVSPropertyOp23
 70
     1
102
RTVSPropertyOp24
 70
     1
102
RTVSPropertyOp25
 70
     1
102
RTVSPropertyOp26
 70
     1
102
RTVSPropertyOp27
 70
     1
102
RTVSPropertyOp28
 70
     1
102
RTVSPropertyOp29
 70
     1
102
RTVSPropertyOp30
 70
     1
102
RTVSPropertyOp31
 70
     1
102
RTVSPropertyOp32
 70
     1
102
RTVSPropertyOp33
 70
     1
102
RTVSPropertyOp34
 70
     1
102
RTVSPropertyOp35
 70
     1
102
RTVSPropertyOp36
 70
     1
102
RTVSPropertyOp37
 70
     1
102
RTVSPropertyOp38
 70
     1
102
RTVSPropertyOp39
 70
     1
102
RTVSPropertyOp40
 70
     1
102
RTVSPropertyOp41
 70
     1
102
RTVSPropertyOp42
 70
     1
102
RTVSPropertyOp43
 70
     1
102
RTVSPropertyOp44
 70
     1
102
RTVSPropertyOp45
 70
     1
102
RTVSPropertyOp46
 70
     1
102
RTVSPropertyOp47
 70
     1
102
RTVSPropertyOp48
 70
     1
102
RTVSPropertyOp49
 70
     1
102
RTVSPropertyOp50
 70
     1
102
RTVSPropertyOp51
 70
     0
102
RTVSPropertyOp52
 70
     0
102
RTVSPropertyOp53
 70
     1
102
RTVSPropertyOp54
 70
     1
102
RTVSPropertyOp55
 70
     1
102
RTVSPropertyOp56
 70
     1
102
RTVSPropertyOp57
 70
     1
102
RTVSPost2010Prop28
280
     0
102
RTVSPost2010PropOp28
 70
     1
102
RTVSPost2010Prop29
280
     1
102
RTVSPost2010PropOp29
 70
     1
102
RTVSPost2010Prop30
280
     1
102
RTVSPost2010PropOp30
 70
     1
102
RTVSPost2010Prop31
280
     0
102
RTVSPost2010PropOp31
 70
     1
102
RTVSPost2010Prop32
280
     0
102
RTVSPost2010PropOp32
 70
     1
102
RTVSPost2010Prop33
280
     0
102
RTVSPost2010PropOp33
 70
     1
102
RTVSPost2010Prop34
280
     0
102
RTVSPost2010PropOp34
 70
     1
102
RTVSPost2010Prop35
280
     0
102
RTVSPost2010PropOp35
 70
     1
102
RTVSPost2010Prop36
280
     0
102
RTVSPost2010PropOp36
 70
     1
102
RTVSPost2010Prop37
 90
       50
102
RTVSPost2010PropOp37
 70
     1
102
RTVSPost2010Prop38
140
0.0
102
RTVSPost2010PropOp38
 70
     1
102
RTVSPost2010Prop39
140
1.0
102
RTVSPost2010PropOp39
 70
     1
102
RTVSPost2010Prop40
 90
        0
102
RTVSPost2010PropOp40
 70
     1
102
RTVSPost2010Prop41ColorIndex
 90
       18
102
RTVSPost2010Prop41ColorRGB
 90
        0
102
RTVSPost2010PropOp41
 70
     1
102
RTVSPost2010Prop42
 90
       50
102
RTVSPost2010PropOp42
 70
     1
102
RTVSPost2010Prop43
 90
        3
102
RTVSPost2010PropOp43
 70
     1
102
RTVSPost2010Prop44ColorIndex
 90
        5
102
RTVSPost2010Prop44ColorRGB
 90
      255
102
RTVSPost2010PropOp44
 70
     1
102
RTVSPost2010Prop45
280
     0
102
RTVSPost2010PropOp45
 70
     1
102
RTVSPost2010Prop46
 90
       50
102
RTVSPost2010PropOp46
 70
     1
102
RTVSPost2010Prop47
 90
       50
102
RTVSPost2010PropOp47
 70
     1
102
RTVSPost2010Prop48
 90
       50
102
RTVSPost2010PropOp48
 70
     1
102
RTVSPost2010Prop49
280
     0
102
RTVSPost2010PropOp49
 70
     1
102
RTVSPost2010Prop50
 90
       50
102
RTVSPost2010PropOp50
 70
     1
102
RTVSPost2010Prop51ColorIndex
 90
      256
102
RTVSPost2010Prop51ColorRGB
 90
-16777216
102
RTVSPost2010PropOp51
 70
     0
102
RTVSPost2010Prop52
140
1.0
102
RTVSPost2010PropOp52
 70
     0
102
RTVSPost2010Prop53
 90
        2
102
RTVSPost2010PropOp53
 70
     1
102
RTVSPost2010Prop54
  1
strokes_ogs.tif
102
RTVSPost2010PropOp54
 70
     1
102
RTVSPost2010Prop55
280
     0
102
RTVSPost2010PropOp55
 70
     1
102
RTVSPost2010Prop56
140
1.0
102
RTVSPost2010PropOp56
 70
     1
102
RTVSPost2010Prop57
140
1.0
102
RTVSPost2010PropOp57
 70
     1
  0
XRECORD
  5
46B
102
{ACAD_REACTORS
330
46A
102
}
330
46A
100
AcDbXrecord
280
     1
102
RTVSPropertyOp0
 70
     1
102
RTVSPropertyOp1
 70
     1
102
RTVSPropertyOp2
 70
     1
102
RTVSPropertyOp3
 70
     1
102
RTVSPropertyOp4
 70
     1
102
RTVSPropertyOp5
 70
     1
102
RTVSPropertyOp6
 70
     1
102
RTVSPropertyOp7
 70
     1
102
RTVSPropertyOp8
 70
     1
102
RTVSPropertyOp9
 70
     1
102
RTVSPropertyOp10
 70
     1
102
RTVSPropertyOp11
 70
     1
102
RTVSPropertyOp12
 70
     1
102
RTVSPropertyOp13
 70
     1
102
RTVSPropertyOp14
 70
     1
102
RTVSPropertyOp15
 70
     1
102
RTVSPropertyOp16
 70
     1
102
RTVSPropertyOp17
 70
     1
102
RTVSPropertyOp18
 70
     1
102
RTVSPropertyOp19
 70
     1
102
RTVSPropertyOp20
 70
     1
102
RTVSPropertyOp21
 70
     1
102
RTVSPropertyOp22
 70
     1
102
RTVSPropertyOp23
 70
     1
102
RTVSPropertyOp24
 70
     1
102
RTVSPropertyOp25
 70
     1
102
RTVSPropertyOp26
 70
     1
102
RTVSPropertyOp27
 70
     1
102
RTVSPropertyOp28
 70
     1
102
RTVSPropertyOp29
 70
     1
102
RTVSPropertyOp30
 70
     1
102
RTVSPropertyOp31
 70
     1
102
RTVSPropertyOp32
 70
     1
102
RTVSPropertyOp33
 70
     1
102
RTVSPropertyOp34
 70
     1
102
RTVSPropertyOp35
 70
     1
102
RTVSPropertyOp36
 70
     1
102
RTVSPropertyOp37
 70
     1
102
RTVSPropertyOp38
 70
     1
102
RTVSPropertyOp39
 70
     1
102
RTVSPropertyOp40
 70
     1
102
RTVSPropertyOp41
 70
     1
102
RTVSPropertyOp42
 70
     1
102
RTVSPropertyOp43
 70
     1
102
RTVSPropertyOp44
 70
     1
102
RTVSPropertyOp45
 70
     1
102
RTVSPropertyOp46
 70
     1
102
RTVSPropertyOp47
 70
     1
102
RTVSPropertyOp48
 70
     1
102
RTVSPropertyOp49
 70
     1
102
RTVSPropertyOp50
 70
     1
102
RTVSPropertyOp51
 70
     0
102
RTVSPropertyOp52
 70
     0
102
RTVSPropertyOp53
 70
     1
102
RTVSPropertyOp54
 70
     1
102
RTVSPropertyOp55
 70
     1
102
RTVSPropertyOp56
 70
     1
102
RTVSPropertyOp57
 70
     1
102
RTVSPost2010Prop28
280
     0
102
RTVSPost2010PropOp28
 70
     1
102
RTVSPost2010Prop29
280
     1
102
RTVSPost2010PropOp29
 70
     1
102
RTVSPost2010Prop30
280
     1
102
RTVSPost2010PropOp30
 70
     1
102
RTVSPost2010Prop31
280
     0
102
RTVSPost2010PropOp31
 70
     1
102
RTVSPost2010Prop32
280
     0
102
RTVSPost2010PropOp32
 70
     1
102
RTVSPost2010Prop33
280
     0
102
RTVSPost2010PropOp33
 70
     1
102
RTVSPost2010Prop34
280
     0
102
RTVSPost2010PropOp34
 70
     1
102
RTVSPost2010Prop35
280
     0
102
RTVSPost2010PropOp35
 70
     1
102
RTVSPost2010Prop36
280
     0
102
RTVSPost2010PropOp36
 70
     1
102
RTVSPost2010Prop37
 90
       50
102
RTVSPost2010PropOp37
 70
     1
102
RTVSPost2010Prop38
140
0.0
102
RTVSPost2010PropOp38
 70
     1
102
RTVSPost2010Prop39
140
1.0
102
RTVSPost2010PropOp39
 70
     1
102
RTVSPost2010Prop40
 90
        0
102
RTVSPost2010PropOp40
 70
     1
102
RTVSPost2010Prop41ColorIndex
 90
       18
102
RTVSPost2010Prop41ColorRGB
 90
        0
102
RTVSPost2010PropOp41
 70
     1
102
RTVSPost2010Prop42
 90
       50
102
RTVSPost2010PropOp42
 70
     1
102
RTVSPost2010Prop43
 90
        3
102
RTVSPost2010PropOp43
 70
     1
102
RTVSPost2010Prop44ColorIndex
 90
        5
102
RTVSPost2010Prop44ColorRGB
 90
      255
102
RTVSPost2010PropOp44
 70
     1
102
RTVSPost2010Prop45
280
     0
102
RTVSPost2010PropOp45
 70
     1
102
RTVSPost2010Prop46
 90
       50
102
RTVSPost2010PropOp46
 70
     1
102
RTVSPost2010Prop47
 90
       50
102
RTVSPost2010PropOp47
 70
     1
102
RTVSPost2010Prop48
 90
       50
102
RTVSPost2010PropOp48
 70
     1
102
RTVSPost2010Prop49
280
     0
102
RTVSPost2010PropOp49
 70
     1
102
RTVSPost2010Prop50
 90
       50
102
RTVSPost2010PropOp50
 70
     1
102
RTVSPost2010Prop51ColorIndex
 90
      256
102
RTVSPost2010Prop51ColorRGB
 90
-16777216
102
RTVSPost2010PropOp51
 70
     0
102
RTVSPost2010Prop52
140
1.0
102
RTVSPost2010PropOp52
 70
     0
102
RTVSPost2010Prop53
 90
        2
102
RTVSPost2010PropOp53
 70
     1
102
RTVSPost2010Prop54
  1
strokes_ogs.tif
102
RTVSPost2010PropOp54
 70
     1
102
RTVSPost2010Prop55
280
     0
102
RTVSPost2010PropOp55
 70
     1
102
RTVSPost2010Prop56
140
1.0
102
RTVSPost2010PropOp56
 70
     1
102
RTVSPost2010Prop57
140
1.0
102
RTVSPost2010PropOp57
 70
     1
  0
XRECORD
  5
46F
102
{ACAD_REACTORS
330
46E
102
}
330
46E
100
AcDbXrecord
280
     1
102
RTVSPropertyOp0
 70
     1
102
RTVSPropertyOp1
 70
     1
102
RTVSPropertyOp2
 70
     1
102
RTVSPropertyOp3
 70
     1
102
RTVSPropertyOp4
 70
     1
102
RTVSPropertyOp5
 70
     1
102
RTVSPropertyOp6
 70
     1
102
RTVSPropertyOp7
 70
     1
102
RTVSPropertyOp8
 70
     1
102
RTVSPropertyOp9
 70
     1
102
RTVSPropertyOp10
 70
     1
102
RTVSPropertyOp11
 70
     1
102
RTVSPropertyOp12
 70
     1
102
RTVSPropertyOp13
 70
     1
102
RTVSPropertyOp14
 70
     1
102
RTVSPropertyOp15
 70
     1
102
RTVSPropertyOp16
 70
     1
102
RTVSPropertyOp17
 70
     1
102
RTVSPropertyOp18
 70
     1
102
RTVSPropertyOp19
 70
     1
102
RTVSPropertyOp20
 70
     1
102
RTVSPropertyOp21
 70
     1
102
RTVSPropertyOp22
 70
     1
102
RTVSPropertyOp23
 70
     1
102
RTVSPropertyOp24
 70
     1
102
RTVSPropertyOp25
 70
     1
102
RTVSPropertyOp26
 70
     1
102
RTVSPropertyOp27
 70
     1
102
RTVSPropertyOp28
 70
     1
102
RTVSPropertyOp29
 70
     1
102
RTVSPropertyOp30
 70
     1
102
RTVSPropertyOp31
 70
     1
102
RTVSPropertyOp32
 70
     1
102
RTVSPropertyOp33
 70
     1
102
RTVSPropertyOp34
 70
     1
102
RTVSPropertyOp35
 70
     1
102
RTVSPropertyOp36
 70
     1
102
RTVSPropertyOp37
 70
     1
102
RTVSPropertyOp38
 70
     1
102
RTVSPropertyOp39
 70
     1
102
RTVSPropertyOp40
 70
     1
102
RTVSPropertyOp41
 70
     1
102
RTVSPropertyOp42
 70
     1
102
RTVSPropertyOp43
 70
     1
102
RTVSPropertyOp44
 70
     1
102
RTVSPropertyOp45
 70
     1
102
RTVSPropertyOp46
 70
     1
102
RTVSPropertyOp47
 70
     1
102
RTVSPropertyOp48
 70
     1
102
RTVSPropertyOp49
 70
     1
102
RTVSPropertyOp50
 70
     1
102
RTVSPropertyOp51
 70
     0
102
RTVSPropertyOp52
 70
     0
102
RTVSPropertyOp53
 70
     1
102
RTVSPropertyOp54
 70
     1
102
RTVSPropertyOp55
 70
     1
102
RTVSPropertyOp56
 70
     1
102
RTVSPropertyOp57
 70
     1
102
RTVSPost2010Prop28
280
     0
102
RTVSPost2010PropOp28
 70
     1
102
RTVSPost2010Prop29
280
     1
102
RTVSPost2010PropOp29
 70
     1
102
RTVSPost2010Prop30
280
     1
102
RTVSPost2010PropOp30
 70
     1
102
RTVSPost2010Prop31
280
     0
102
RTVSPost2010PropOp31
 70
     1
102
RTVSPost2010Prop32
280
     0
102
RTVSPost2010PropOp32
 70
     1
102
RTVSPost2010Prop33
280
     0
102
RTVSPost2010PropOp33
 70
     1
102
RTVSPost2010Prop34
280
     0
102
RTVSPost2010PropOp34
 70
     1
102
RTVSPost2010Prop35
280
     0
102
RTVSPost2010PropOp35
 70
     1
102
RTVSPost2010Prop36
280
     0
102
RTVSPost2010PropOp36
 70
     1
102
RTVSPost2010Prop37
 90
       50
102
RTVSPost2010PropOp37
 70
     1
102
RTVSPost2010Prop38
140
0.0
102
RTVSPost2010PropOp38
 70
     1
102
RTVSPost2010Prop39
140
1.0
102
RTVSPost2010PropOp39
 70
     1
102
RTVSPost2010Prop40
 90
        0
102
RTVSPost2010PropOp40
 70
     1
102
RTVSPost2010Prop41ColorIndex
 90
       18
102
RTVSPost2010Prop41ColorRGB
 90
        0
102
RTVSPost2010PropOp41
 70
     1
102
RTVSPost2010Prop42
 90
       50
102
RTVSPost2010PropOp42
 70
     1
102
RTVSPost2010Prop43
 90
        3
102
RTVSPost2010PropOp43
 70
     1
102
RTVSPost2010Prop44ColorIndex
 90
        5
102
RTVSPost2010Prop44ColorRGB
 90
      255
102
RTVSPost2010PropOp44
 70
     1
102
RTVSPost2010Prop45
280
     0
102
RTVSPost2010PropOp45
 70
     1
102
RTVSPost2010Prop46
 90
       50
102
RTVSPost2010PropOp46
 70
     1
102
RTVSPost2010Prop47
 90
       50
102
RTVSPost2010PropOp47
 70
     1
102
RTVSPost2010Prop48
 90
       50
102
RTVSPost2010PropOp48
 70
     1
102
RTVSPost2010Prop49
280
     0
102
RTVSPost2010PropOp49
 70
     1
102
RTVSPost2010Prop50
 90
       50
102
RTVSPost2010PropOp50
 70
     1
102
RTVSPost2010Prop51ColorIndex
 90
      256
102
RTVSPost2010Prop51ColorRGB
 90
-16777216
102
RTVSPost2010PropOp51
 70
     0
102
RTVSPost2010Prop52
140
1.0
102
RTVSPost2010PropOp52
 70
     0
102
RTVSPost2010Prop53
 90
        2
102
RTVSPost2010PropOp53
 70
     1
102
RTVSPost2010Prop54
  1
strokes_ogs.tif
102
RTVSPost2010PropOp54
 70
     1
102
RTVSPost2010Prop55
280
     0
102
RTVSPost2010PropOp55
 70
     1
102
RTVSPost2010Prop56
140
1.0
102
RTVSPost2010PropOp56
 70
     1
102
RTVSPost2010Prop57
140
1.0
102
RTVSPost2010PropOp57
 70
     1
  0
XRECORD
  5
477
102
{ACAD_REACTORS
330
476
102
}
330
476
100
AcDbXrecord
280
     1
102
RTVSPropertyOp0
 70
     1
102
RTVSPropertyOp1
 70
     1
102
RTVSPropertyOp2
 70
     1
102
RTVSPropertyOp3
 70
     1
102
RTVSPropertyOp4
 70
     1
102
RTVSPropertyOp5
 70
     1
102
RTVSPropertyOp6
 70
     1
102
RTVSPropertyOp7
 70
     1
102
RTVSPropertyOp8
 70
     1
102
RTVSPropertyOp9
 70
     1
102
RTVSPropertyOp10
 70
     1
102
RTVSPropertyOp11
 70
     1
102
RTVSPropertyOp12
 70
     1
102
RTVSPropertyOp13
 70
     1
102
RTVSPropertyOp14
 70
     1
102
RTVSPropertyOp15
 70
     1
102
RTVSPropertyOp16
 70
     1
102
RTVSPropertyOp17
 70
     1
102
RTVSPropertyOp18
 70
     1
102
RTVSPropertyOp19
 70
     1
102
RTVSPropertyOp20
 70
     1
102
RTVSPropertyOp21
 70
     1
102
RTVSPropertyOp22
 70
     1
102
RTVSPropertyOp23
 70
     1
102
RTVSPropertyOp24
 70
     1
102
RTVSPropertyOp25
 70
     1
102
RTVSPropertyOp26
 70
     1
102
RTVSPropertyOp27
 70
     1
102
RTVSPropertyOp28
 70
     1
102
RTVSPropertyOp29
 70
     1
102
RTVSPropertyOp30
 70
     1
102
RTVSPropertyOp31
 70
     1
102
RTVSPropertyOp32
 70
     1
102
RTVSPropertyOp33
 70
     1
102
RTVSPropertyOp34
 70
     1
102
RTVSPropertyOp35
 70
     1
102
RTVSPropertyOp36
 70
     1
102
RTVSPropertyOp37
 70
     1
102
RTVSPropertyOp38
 70
     1
102
RTVSPropertyOp39
 70
     1
102
RTVSPropertyOp40
 70
     1
102
RTVSPropertyOp41
 70
     1
102
RTVSPropertyOp42
 70
     1
102
RTVSPropertyOp43
 70
     1
102
RTVSPropertyOp44
 70
     1
102
RTVSPropertyOp45
 70
     1
102
RTVSPropertyOp46
 70
     1
102
RTVSPropertyOp47
 70
     1
102
RTVSPropertyOp48
 70
     1
102
RTVSPropertyOp49
 70
     1
102
RTVSPropertyOp50
 70
     1
102
RTVSPropertyOp51
 70
     0
102
RTVSPropertyOp52
 70
     0
102
RTVSPropertyOp53
 70
     1
102
RTVSPropertyOp54
 70
     1
102
RTVSPropertyOp55
 70
     1
102
RTVSPropertyOp56
 70
     1
102
RTVSPropertyOp57
 70
     1
102
RTVSPost2010Prop28
280
     0
102
RTVSPost2010PropOp28
 70
     1
102
RTVSPost2010Prop29
280
     1
102
RTVSPost2010PropOp29
 70
     1
102
RTVSPost2010Prop30
280
     1
102
RTVSPost2010PropOp30
 70
     1
102
RTVSPost2010Prop31
280
     0
102
RTVSPost2010PropOp31
 70
     1
102
RTVSPost2010Prop32
280
     0
102
RTVSPost2010PropOp32
 70
     1
102
RTVSPost2010Prop33
280
     0
102
RTVSPost2010PropOp33
 70
     1
102
RTVSPost2010Prop34
280
     0
102
RTVSPost2010PropOp34
 70
     1
102
RTVSPost2010Prop35
280
     0
102
RTVSPost2010PropOp35
 70
     1
102
RTVSPost2010Prop36
280
     0
102
RTVSPost2010PropOp36
 70
     1
102
RTVSPost2010Prop37
 90
       50
102
RTVSPost2010PropOp37
 70
     1
102
RTVSPost2010Prop38
140
0.0
102
RTVSPost2010PropOp38
 70
     1
102
RTVSPost2010Prop39
140
1.0
102
RTVSPost2010PropOp39
 70
     1
102
RTVSPost2010Prop40
 90
        0
102
RTVSPost2010PropOp40
 70
     1
102
RTVSPost2010Prop41ColorIndex
 90
       18
102
RTVSPost2010Prop41ColorRGB
 90
        0
102
RTVSPost2010PropOp41
 70
     1
102
RTVSPost2010Prop42
 90
       50
102
RTVSPost2010PropOp42
 70
     1
102
RTVSPost2010Prop43
 90
        3
102
RTVSPost2010PropOp43
 70
     1
102
RTVSPost2010Prop44ColorIndex
 90
        5
102
RTVSPost2010Prop44ColorRGB
 90
      255
102
RTVSPost2010PropOp44
 70
     1
102
RTVSPost2010Prop45
280
     0
102
RTVSPost2010PropOp45
 70
     1
102
RTVSPost2010Prop46
 90
       50
102
RTVSPost2010PropOp46
 70
     1
102
RTVSPost2010Prop47
 90
       50
102
RTVSPost2010PropOp47
 70
     1
102
RTVSPost2010Prop48
 90
       50
102
RTVSPost2010PropOp48
 70
     1
102
RTVSPost2010Prop49
280
     0
102
RTVSPost2010PropOp49
 70
     1
102
RTVSPost2010Prop50
 90
       50
102
RTVSPost2010PropOp50
 70
     1
102
RTVSPost2010Prop51ColorIndex
 90
      256
102
RTVSPost2010Prop51ColorRGB
 90
-16777216
102
RTVSPost2010PropOp51
 70
     0
102
RTVSPost2010Prop52
140
1.0
102
RTVSPost2010PropOp52
 70
     0
102
RTVSPost2010Prop53
 90
        2
102
RTVSPost2010PropOp53
 70
     1
102
RTVSPost2010Prop54
  1
strokes_ogs.tif
102
RTVSPost2010PropOp54
 70
     1
102
RTVSPost2010Prop55
280
     0
102
RTVSPost2010PropOp55
 70
     1
102
RTVSPost2010Prop56
140
1.0
102
RTVSPost2010PropOp56
 70
     1
102
RTVSPost2010Prop57
140
1.0
102
RTVSPost2010PropOp57
 70
     1
  0
XRECORD
  5
47F
102
{ACAD_REACTORS
330
47E
102
}
330
47E
100
AcDbXrecord
280
     1
102
RTVSPropertyOp0
 70
     1
102
RTVSPropertyOp1
 70
     1
102
RTVSPropertyOp2
 70
     1
102
RTVSPropertyOp3
 70
     1
102
RTVSPropertyOp4
 70
     1
102
RTVSPropertyOp5
 70
     1
102
RTVSPropertyOp6
 70
     1
102
RTVSPropertyOp7
 70
     1
102
RTVSPropertyOp8
 70
     1
102
RTVSPropertyOp9
 70
     1
102
RTVSPropertyOp10
 70
     1
102
RTVSPropertyOp11
 70
     1
102
RTVSPropertyOp12
 70
     1
102
RTVSPropertyOp13
 70
     1
102
RTVSPropertyOp14
 70
     1
102
RTVSPropertyOp15
 70
     1
102
RTVSPropertyOp16
 70
     1
102
RTVSPropertyOp17
 70
     1
102
RTVSPropertyOp18
 70
     1
102
RTVSPropertyOp19
 70
     1
102
RTVSPropertyOp20
 70
     1
102
RTVSPropertyOp21
 70
     1
102
RTVSPropertyOp22
 70
     1
102
RTVSPropertyOp23
 70
     1
102
RTVSPropertyOp24
 70
     1
102
RTVSPropertyOp25
 70
     1
102
RTVSPropertyOp26
 70
     1
102
RTVSPropertyOp27
 70
     1
102
RTVSPropertyOp28
 70
     1
102
RTVSPropertyOp29
 70
     1
102
RTVSPropertyOp30
 70
     1
102
RTVSPropertyOp31
 70
     1
102
RTVSPropertyOp32
 70
     1
102
RTVSPropertyOp33
 70
     1
102
RTVSPropertyOp34
 70
     1
102
RTVSPropertyOp35
 70
     1
102
RTVSPropertyOp36
 70
     1
102
RTVSPropertyOp37
 70
     1
102
RTVSPropertyOp38
 70
     1
102
RTVSPropertyOp39
 70
     1
102
RTVSPropertyOp40
 70
     1
102
RTVSPropertyOp41
 70
     1
102
RTVSPropertyOp42
 70
     1
102
RTVSPropertyOp43
 70
     1
102
RTVSPropertyOp44
 70
     1
102
RTVSPropertyOp45
 70
     1
102
RTVSPropertyOp46
 70
     1
102
RTVSPropertyOp47
 70
     1
102
RTVSPropertyOp48
 70
     1
102
RTVSPropertyOp49
 70
     1
102
RTVSPropertyOp50
 70
     1
102
RTVSPropertyOp51
 70
     0
102
RTVSPropertyOp52
 70
     0
102
RTVSPropertyOp53
 70
     1
102
RTVSPropertyOp54
 70
     1
102
RTVSPropertyOp55
 70
     1
102
RTVSPropertyOp56
 70
     1
102
RTVSPropertyOp57
 70
     1
102
RTVSPost2010Prop28
280
     0
102
RTVSPost2010PropOp28
 70
     1
102
RTVSPost2010Prop29
280
     1
102
RTVSPost2010PropOp29
 70
     1
102
RTVSPost2010Prop30
280
     1
102
RTVSPost2010PropOp30
 70
     1
102
RTVSPost2010Prop31
280
     0
102
RTVSPost2010PropOp31
 70
     1
102
RTVSPost2010Prop32
280
     0
102
RTVSPost2010PropOp32
 70
     1
102
RTVSPost2010Prop33
280
     0
102
RTVSPost2010PropOp33
 70
     1
102
RTVSPost2010Prop34
280
     0
102
RTVSPost2010PropOp34
 70
     1
102
RTVSPost2010Prop35
280
     0
102
RTVSPost2010PropOp35
 70
     1
102
RTVSPost2010Prop36
280
     0
102
RTVSPost2010PropOp36
 70
     1
102
RTVSPost2010Prop37
 90
       50
102
RTVSPost2010PropOp37
 70
     1
102
RTVSPost2010Prop38
140
0.0
102
RTVSPost2010PropOp38
 70
     1
102
RTVSPost2010Prop39
140
1.0
102
RTVSPost2010PropOp39
 70
     1
102
RTVSPost2010Prop40
 90
        0
102
RTVSPost2010PropOp40
 70
     1
102
RTVSPost2010Prop41ColorIndex
 90
       18
102
RTVSPost2010Prop41ColorRGB
 90
        0
102
RTVSPost2010PropOp41
 70
     1
102
RTVSPost2010Prop42
 90
       50
102
RTVSPost2010PropOp42
 70
     1
102
RTVSPost2010Prop43
 90
        3
102
RTVSPost2010PropOp43
 70
     1
102
RTVSPost2010Prop44ColorIndex
 90
        5
102
RTVSPost2010Prop44ColorRGB
 90
      255
102
RTVSPost2010PropOp44
 70
     1
102
RTVSPost2010Prop45
280
     0
102
RTVSPost2010PropOp45
 70
     1
102
RTVSPost2010Prop46
 90
       50
102
RTVSPost2010PropOp46
 70
     1
102
RTVSPost2010Prop47
 90
       50
102
RTVSPost2010PropOp47
 70
     1
102
RTVSPost2010Prop48
 90
       50
102
RTVSPost2010PropOp48
 70
     1
102
RTVSPost2010Prop49
280
     0
102
RTVSPost2010PropOp49
 70
     1
102
RTVSPost2010Prop50
 90
       50
102
RTVSPost2010PropOp50
 70
     1
102
RTVSPost2010Prop51ColorIndex
 90
      256
102
RTVSPost2010Prop51ColorRGB
 90
-16777216
102
RTVSPost2010PropOp51
 70
     0
102
RTVSPost2010Prop52
140
1.0
102
RTVSPost2010PropOp52
 70
     0
102
RTVSPost2010Prop53
 90
        2
102
RTVSPost2010PropOp53
 70
     1
102
RTVSPost2010Prop54
  1
strokes_ogs.tif
102
RTVSPost2010PropOp54
 70
     1
102
RTVSPost2010Prop55
280
     0
102
RTVSPost2010PropOp55
 70
     1
102
RTVSPost2010Prop56
140
1.0
102
RTVSPost2010PropOp56
 70
     1
102
RTVSPost2010Prop57
140
1.0
102
RTVSPost2010PropOp57
 70
     1
  0
XRECORD
  5
473
102
{ACAD_REACTORS
330
472
102
}
330
472
100
AcDbXrecord
280
     1
102
RTVSPropertyOp0
 70
     1
102
RTVSPropertyOp1
 70
     1
102
RTVSPropertyOp2
 70
     1
102
RTVSPropertyOp3
 70
     1
102
RTVSPropertyOp4
 70
     1
102
RTVSPropertyOp5
 70
     1
102
RTVSPropertyOp6
 70
     1
102
RTVSPropertyOp7
 70
     1
102
RTVSPropertyOp8
 70
     1
102
RTVSPropertyOp9
 70
     1
102
RTVSPropertyOp10
 70
     1
102
RTVSPropertyOp11
 70
     1
102
RTVSPropertyOp12
 70
     1
102
RTVSPropertyOp13
 70
     1
102
RTVSPropertyOp14
 70
     1
102
RTVSPropertyOp15
 70
     1
102
RTVSPropertyOp16
 70
     1
102
RTVSPropertyOp17
 70
     1
102
RTVSPropertyOp18
 70
     1
102
RTVSPropertyOp19
 70
     1
102
RTVSPropertyOp20
 70
     1
102
RTVSPropertyOp21
 70
     1
102
RTVSPropertyOp22
 70
     1
102
RTVSPropertyOp23
 70
     1
102
RTVSPropertyOp24
 70
     1
102
RTVSPropertyOp25
 70
     1
102
RTVSPropertyOp26
 70
     1
102
RTVSPropertyOp27
 70
     1
102
RTVSPropertyOp28
 70
     1
102
RTVSPropertyOp29
 70
     1
102
RTVSPropertyOp30
 70
     1
102
RTVSPropertyOp31
 70
     1
102
RTVSPropertyOp32
 70
     1
102
RTVSPropertyOp33
 70
     1
102
RTVSPropertyOp34
 70
     1
102
RTVSPropertyOp35
 70
     1
102
RTVSPropertyOp36
 70
     1
102
RTVSPropertyOp37
 70
     1
102
RTVSPropertyOp38
 70
     1
102
RTVSPropertyOp39
 70
     1
102
RTVSPropertyOp40
 70
     1
102
RTVSPropertyOp41
 70
     1
102
RTVSPropertyOp42
 70
     1
102
RTVSPropertyOp43
 70
     1
102
RTVSPropertyOp44
 70
     1
102
RTVSPropertyOp45
 70
     1
102
RTVSPropertyOp46
 70
     1
102
RTVSPropertyOp47
 70
     1
102
RTVSPropertyOp48
 70
     1
102
RTVSPropertyOp49
 70
     1
102
RTVSPropertyOp50
 70
     1
102
RTVSPropertyOp51
 70
     0
102
RTVSPropertyOp52
 70
     0
102
RTVSPropertyOp53
 70
     1
102
RTVSPropertyOp54
 70
     1
102
RTVSPropertyOp55
 70
     1
102
RTVSPropertyOp56
 70
     1
102
RTVSPropertyOp57
 70
     1
102
RTVSPost2010Prop28
280
     0
102
RTVSPost2010PropOp28
 70
     1
102
RTVSPost2010Prop29
280
     1
102
RTVSPost2010PropOp29
 70
     1
102
RTVSPost2010Prop30
280
     1
102
RTVSPost2010PropOp30
 70
     1
102
RTVSPost2010Prop31
280
     0
102
RTVSPost2010PropOp31
 70
     1
102
RTVSPost2010Prop32
280
     0
102
RTVSPost2010PropOp32
 70
     1
102
RTVSPost2010Prop33
280
     0
102
RTVSPost2010PropOp33
 70
     1
102
RTVSPost2010Prop34
280
     0
102
RTVSPost2010PropOp34
 70
     1
102
RTVSPost2010Prop35
280
     0
102
RTVSPost2010PropOp35
 70
     1
102
RTVSPost2010Prop36
280
     0
102
RTVSPost2010PropOp36
 70
     1
102
RTVSPost2010Prop37
 90
       50
102
RTVSPost2010PropOp37
 70
     1
102
RTVSPost2010Prop38
140
0.0
102
RTVSPost2010PropOp38
 70
     1
102
RTVSPost2010Prop39
140
1.0
102
RTVSPost2010PropOp39
 70
     1
102
RTVSPost2010Prop40
 90
        0
102
RTVSPost2010PropOp40
 70
     1
102
RTVSPost2010Prop41ColorIndex
 90
       18
102
RTVSPost2010Prop41ColorRGB
 90
        0
102
RTVSPost2010PropOp41
 70
     1
102
RTVSPost2010Prop42
 90
       50
102
RTVSPost2010PropOp42
 70
     1
102
RTVSPost2010Prop43
 90
        3
102
RTVSPost2010PropOp43
 70
     1
102
RTVSPost2010Prop44ColorIndex
 90
        5
102
RTVSPost2010Prop44ColorRGB
 90
      255
102
RTVSPost2010PropOp44
 70
     1
102
RTVSPost2010Prop45
280
     0
102
RTVSPost2010PropOp45
 70
     1
102
RTVSPost2010Prop46
 90
       50
102
RTVSPost2010PropOp46
 70
     1
102
RTVSPost2010Prop47
 90
       50
102
RTVSPost2010PropOp47
 70
     1
102
RTVSPost2010Prop48
 90
       50
102
RTVSPost2010PropOp48
 70
     1
102
RTVSPost2010Prop49
280
     0
102
RTVSPost2010PropOp49
 70
     1
102
RTVSPost2010Prop50
 90
       50
102
RTVSPost2010PropOp50
 70
     1
102
RTVSPost2010Prop51ColorIndex
 90
      256
102
RTVSPost2010Prop51ColorRGB
 90
-16777216
102
RTVSPost2010PropOp51
 70
     0
102
RTVSPost2010Prop52
140
1.0
102
RTVSPost2010PropOp52
 70
     0
102
RTVSPost2010Prop53
 90
        2
102
RTVSPost2010PropOp53
 70
     1
102
RTVSPost2010Prop54
  1
strokes_ogs.tif
102
RTVSPost2010PropOp54
 70
     1
102
RTVSPost2010Prop55
280
     0
102
RTVSPost2010PropOp55
 70
     1
102
RTVSPost2010Prop56
140
1.0
102
RTVSPost2010PropOp56
 70
     1
102
RTVSPost2010Prop57
140
1.0
102
RTVSPost2010PropOp57
 70
     1
  0
XRECORD
  5
475
102
{ACAD_REACTORS
330
474
102
}
330
474
100
AcDbXrecord
280
     1
102
RTVSPropertyOp0
 70
     1
102
RTVSPropertyOp1
 70
     1
102
RTVSPropertyOp2
 70
     1
102
RTVSPropertyOp3
 70
     1
102
RTVSPropertyOp4
 70
     1
102
RTVSPropertyOp5
 70
     1
102
RTVSPropertyOp6
 70
     1
102
RTVSPropertyOp7
 70
     1
102
RTVSPropertyOp8
 70
     1
102
RTVSPropertyOp9
 70
     1
102
RTVSPropertyOp10
 70
     1
102
RTVSPropertyOp11
 70
     1
102
RTVSPropertyOp12
 70
     1
102
RTVSPropertyOp13
 70
     1
102
RTVSPropertyOp14
 70
     1
102
RTVSPropertyOp15
 70
     1
102
RTVSPropertyOp16
 70
     1
102
RTVSPropertyOp17
 70
     1
102
RTVSPropertyOp18
 70
     1
102
RTVSPropertyOp19
 70
     1
102
RTVSPropertyOp20
 70
     1
102
RTVSPropertyOp21
 70
     1
102
RTVSPropertyOp22
 70
     1
102
RTVSPropertyOp23
 70
     1
102
RTVSPropertyOp24
 70
     1
102
RTVSPropertyOp25
 70
     1
102
RTVSPropertyOp26
 70
     1
102
RTVSPropertyOp27
 70
     1
102
RTVSPropertyOp28
 70
     1
102
RTVSPropertyOp29
 70
     1
102
RTVSPropertyOp30
 70
     1
102
RTVSPropertyOp31
 70
     1
102
RTVSPropertyOp32
 70
     1
102
RTVSPropertyOp33
 70
     1
102
RTVSPropertyOp34
 70
     1
102
RTVSPropertyOp35
 70
     1
102
RTVSPropertyOp36
 70
     1
102
RTVSPropertyOp37
 70
     1
102
RTVSPropertyOp38
 70
     1
102
RTVSPropertyOp39
 70
     1
102
RTVSPropertyOp40
 70
     1
102
RTVSPropertyOp41
 70
     1
102
RTVSPropertyOp42
 70
     1
102
RTVSPropertyOp43
 70
     1
102
RTVSPropertyOp44
 70
     1
102
RTVSPropertyOp45
 70
     1
102
RTVSPropertyOp46
 70
     1
102
RTVSPropertyOp47
 70
     1
102
RTVSPropertyOp48
 70
     1
102
RTVSPropertyOp49
 70
     1
102
RTVSPropertyOp50
 70
     1
102
RTVSPropertyOp51
 70
     0
102
RTVSPropertyOp52
 70
     0
102
RTVSPropertyOp53
 70
     1
102
RTVSPropertyOp54
 70
     1
102
RTVSPropertyOp55
 70
     1
102
RTVSPropertyOp56
 70
     1
102
RTVSPropertyOp57
 70
     1
102
RTVSPost2010Prop28
280
     0
102
RTVSPost2010PropOp28
 70
     1
102
RTVSPost2010Prop29
280
     1
102
RTVSPost2010PropOp29
 70
     1
102
RTVSPost2010Prop30
280
     1
102
RTVSPost2010PropOp30
 70
     1
102
RTVSPost2010Prop31
280
     0
102
RTVSPost2010PropOp31
 70
     1
102
RTVSPost2010Prop32
280
     0
102
RTVSPost2010PropOp32
 70
     1
102
RTVSPost2010Prop33
280
     0
102
RTVSPost2010PropOp33
 70
     1
102
RTVSPost2010Prop34
280
     0
102
RTVSPost2010PropOp34
 70
     1
102
RTVSPost2010Prop35
280
     0
102
RTVSPost2010PropOp35
 70
     1
102
RTVSPost2010Prop36
280
     0
102
RTVSPost2010PropOp36
 70
     1
102
RTVSPost2010Prop37
 90
       50
102
RTVSPost2010PropOp37
 70
     1
102
RTVSPost2010Prop38
140
0.0
102
RTVSPost2010PropOp38
 70
     1
102
RTVSPost2010Prop39
140
1.0
102
RTVSPost2010PropOp39
 70
     1
102
RTVSPost2010Prop40
 90
        0
102
RTVSPost2010PropOp40
 70
     1
102
RTVSPost2010Prop41ColorIndex
 90
       18
102
RTVSPost2010Prop41ColorRGB
 90
        0
102
RTVSPost2010PropOp41
 70
     1
102
RTVSPost2010Prop42
 90
       50
102
RTVSPost2010PropOp42
 70
     1
102
RTVSPost2010Prop43
 90
        3
102
RTVSPost2010PropOp43
 70
     1
102
RTVSPost2010Prop44ColorIndex
 90
        5
102
RTVSPost2010Prop44ColorRGB
 90
      255
102
RTVSPost2010PropOp44
 70
     1
102
RTVSPost2010Prop45
280
     0
102
RTVSPost2010PropOp45
 70
     1
102
RTVSPost2010Prop46
 90
       50
102
RTVSPost2010PropOp46
 70
     1
102
RTVSPost2010Prop47
 90
       50
102
RTVSPost2010PropOp47
 70
     1
102
RTVSPost2010Prop48
 90
       50
102
RTVSPost2010PropOp48
 70
     1
102
RTVSPost2010Prop49
280
     0
102
RTVSPost2010PropOp49
 70
     1
102
RTVSPost2010Prop50
 90
       50
102
RTVSPost2010PropOp50
 70
     1
102
RTVSPost2010Prop51ColorIndex
 90
      256
102
RTVSPost2010Prop51ColorRGB
 90
-16777216
102
RTVSPost2010PropOp51
 70
     0
102
RTVSPost2010Prop52
140
1.0
102
RTVSPost2010PropOp52
 70
     0
102
RTVSPost2010Prop53
 90
        2
102
RTVSPost2010PropOp53
 70
     1
102
RTVSPost2010Prop54
  1
strokes_ogs.tif
102
RTVSPost2010PropOp54
 70
     1
102
RTVSPost2010Prop55
280
     0
102
RTVSPost2010PropOp55
 70
     1
102
RTVSPost2010Prop56
140
1.0
102
RTVSPost2010PropOp56
 70
     1
102
RTVSPost2010Prop57
140
1.0
102
RTVSPost2010PropOp57
 70
     1
  0
XRECORD
  5
47D
102
{ACAD_REACTORS
330
47C
102
}
330
47C
100
AcDbXrecord
280
     1
102
RTVSPropertyOp0
 70
     1
102
RTVSPropertyOp1
 70
     1
102
RTVSPropertyOp2
 70
     1
102
RTVSPropertyOp3
 70
     1
102
RTVSPropertyOp4
 70
     1
102
RTVSPropertyOp5
 70
     1
102
RTVSPropertyOp6
 70
     1
102
RTVSPropertyOp7
 70
     1
102
RTVSPropertyOp8
 70
     1
102
RTVSPropertyOp9
 70
     1
102
RTVSPropertyOp10
 70
     1
102
RTVSPropertyOp11
 70
     1
102
RTVSPropertyOp12
 70
     1
102
RTVSPropertyOp13
 70
     1
102
RTVSPropertyOp14
 70
     1
102
RTVSPropertyOp15
 70
     1
102
RTVSPropertyOp16
 70
     1
102
RTVSPropertyOp17
 70
     1
102
RTVSPropertyOp18
 70
     1
102
RTVSPropertyOp19
 70
     1
102
RTVSPropertyOp20
 70
     1
102
RTVSPropertyOp21
 70
     1
102
RTVSPropertyOp22
 70
     1
102
RTVSPropertyOp23
 70
     1
102
RTVSPropertyOp24
 70
     1
102
RTVSPropertyOp25
 70
     1
102
RTVSPropertyOp26
 70
     1
102
RTVSPropertyOp27
 70
     1
102
RTVSPropertyOp28
 70
     1
102
RTVSPropertyOp29
 70
     1
102
RTVSPropertyOp30
 70
     1
102
RTVSPropertyOp31
 70
     1
102
RTVSPropertyOp32
 70
     1
102
RTVSPropertyOp33
 70
     1
102
RTVSPropertyOp34
 70
     1
102
RTVSPropertyOp35
 70
     1
102
RTVSPropertyOp36
 70
     1
102
RTVSPropertyOp37
 70
     1
102
RTVSPropertyOp38
 70
     1
102
RTVSPropertyOp39
 70
     1
102
RTVSPropertyOp40
 70
     1
102
RTVSPropertyOp41
 70
     1
102
RTVSPropertyOp42
 70
     1
102
RTVSPropertyOp43
 70
     1
102
RTVSPropertyOp44
 70
     1
102
RTVSPropertyOp45
 70
     1
102
RTVSPropertyOp46
 70
     1
102
RTVSPropertyOp47
 70
     1
102
RTVSPropertyOp48
 70
     1
102
RTVSPropertyOp49
 70
     1
102
RTVSPropertyOp50
 70
     1
102
RTVSPropertyOp51
 70
     0
102
RTVSPropertyOp52
 70
     0
102
RTVSPropertyOp53
 70
     1
102
RTVSPropertyOp54
 70
     1
102
RTVSPropertyOp55
 70
     1
102
RTVSPropertyOp56
 70
     1
102
RTVSPropertyOp57
 70
     1
102
RTVSPost2010Prop28
280
     0
102
RTVSPost2010PropOp28
 70
     1
102
RTVSPost2010Prop29
280
     1
102
RTVSPost2010PropOp29
 70
     1
102
RTVSPost2010Prop30
280
     1
102
RTVSPost2010PropOp30
 70
     1
102
RTVSPost2010Prop31
280
     0
102
RTVSPost2010PropOp31
 70
     1
102
RTVSPost2010Prop32
280
     0
102
RTVSPost2010PropOp32
 70
     1
102
RTVSPost2010Prop33
280
     0
102
RTVSPost2010PropOp33
 70
     1
102
RTVSPost2010Prop34
280
     0
102
RTVSPost2010PropOp34
 70
     1
102
RTVSPost2010Prop35
280
     0
102
RTVSPost2010PropOp35
 70
     1
102
RTVSPost2010Prop36
280
     0
102
RTVSPost2010PropOp36
 70
     1
102
RTVSPost2010Prop37
 90
       50
102
RTVSPost2010PropOp37
 70
     1
102
RTVSPost2010Prop38
140
0.0
102
RTVSPost2010PropOp38
 70
     1
102
RTVSPost2010Prop39
140
1.0
102
RTVSPost2010PropOp39
 70
     1
102
RTVSPost2010Prop40
 90
        0
102
RTVSPost2010PropOp40
 70
     1
102
RTVSPost2010Prop41ColorIndex
 90
       18
102
RTVSPost2010Prop41ColorRGB
 90
        0
102
RTVSPost2010PropOp41
 70
     1
102
RTVSPost2010Prop42
 90
       50
102
RTVSPost2010PropOp42
 70
     1
102
RTVSPost2010Prop43
 90
        3
102
RTVSPost2010PropOp43
 70
     1
102
RTVSPost2010Prop44ColorIndex
 90
        5
102
RTVSPost2010Prop44ColorRGB
 90
      255
102
RTVSPost2010PropOp44
 70
     1
102
RTVSPost2010Prop45
280
     0
102
RTVSPost2010PropOp45
 70
     1
102
RTVSPost2010Prop46
 90
       50
102
RTVSPost2010PropOp46
 70
     1
102
RTVSPost2010Prop47
 90
       50
102
RTVSPost2010PropOp47
 70
     1
102
RTVSPost2010Prop48
 90
       50
102
RTVSPost2010PropOp48
 70
     1
102
RTVSPost2010Prop49
280
     0
102
RTVSPost2010PropOp49
 70
     1
102
RTVSPost2010Prop50
 90
       50
102
RTVSPost2010PropOp50
 70
     1
102
RTVSPost2010Prop51ColorIndex
 90
      256
102
RTVSPost2010Prop51ColorRGB
 90
-16777216
102
RTVSPost2010PropOp51
 70
     0
102
RTVSPost2010Prop52
140
1.0
102
RTVSPost2010PropOp52
 70
     0
102
RTVSPost2010Prop53
 90
        2
102
RTVSPost2010PropOp53
 70
     1
102
RTVSPost2010Prop54
  1
strokes_ogs.tif
102
RTVSPost2010PropOp54
 70
     1
102
RTVSPost2010Prop55
280
     0
102
RTVSPost2010PropOp55
 70
     1
102
RTVSPost2010Prop56
140
1.0
102
RTVSPost2010PropOp56
 70
     1
102
RTVSPost2010Prop57
140
1.0
102
RTVSPost2010PropOp57
 70
     1
  0
XRECORD
  5
461
102
{ACAD_REACTORS
330
460
102
}
330
460
100
AcDbXrecord
280
     1
102
RTVSPropertyOp0
 70
     1
102
RTVSPropertyOp1
 70
     1
102
RTVSPropertyOp2
 70
     1
102
RTVSPropertyOp3
 70
     1
102
RTVSPropertyOp4
 70
     1
102
RTVSPropertyOp5
 70
     1
102
RTVSPropertyOp6
 70
     1
102
RTVSPropertyOp7
 70
     1
102
RTVSPropertyOp8
 70
     1
102
RTVSPropertyOp9
 70
     1
102
RTVSPropertyOp10
 70
     1
102
RTVSPropertyOp11
 70
     1
102
RTVSPropertyOp12
 70
     1
102
RTVSPropertyOp13
 70
     1
102
RTVSPropertyOp14
 70
     1
102
RTVSPropertyOp15
 70
     1
102
RTVSPropertyOp16
 70
     1
102
RTVSPropertyOp17
 70
     1
102
RTVSPropertyOp18
 70
     1
102
RTVSPropertyOp19
 70
     1
102
RTVSPropertyOp20
 70
     1
102
RTVSPropertyOp21
 70
     1
102
RTVSPropertyOp22
 70
     1
102
RTVSPropertyOp23
 70
     1
102
RTVSPropertyOp24
 70
     1
102
RTVSPropertyOp25
 70
     1
102
RTVSPropertyOp26
 70
     1
102
RTVSPropertyOp27
 70
     1
102
RTVSPropertyOp28
 70
     1
102
RTVSPropertyOp29
 70
     1
102
RTVSPropertyOp30
 70
     1
102
RTVSPropertyOp31
 70
     1
102
RTVSPropertyOp32
 70
     1
102
RTVSPropertyOp33
 70
     1
102
RTVSPropertyOp34
 70
     1
102
RTVSPropertyOp35
 70
     1
102
RTVSPropertyOp36
 70
     1
102
RTVSPropertyOp37
 70
     1
102
RTVSPropertyOp38
 70
     1
102
RTVSPropertyOp39
 70
     1
102
RTVSPropertyOp40
 70
     1
102
RTVSPropertyOp41
 70
     1
102
RTVSPropertyOp42
 70
     1
102
RTVSPropertyOp43
 70
     1
102
RTVSPropertyOp44
 70
     1
102
RTVSPropertyOp45
 70
     1
102
RTVSPropertyOp46
 70
     1
102
RTVSPropertyOp47
 70
     1
102
RTVSPropertyOp48
 70
     1
102
RTVSPropertyOp49
 70
     1
102
RTVSPropertyOp50
 70
     1
102
RTVSPropertyOp51
 70
     0
102
RTVSPropertyOp52
 70
     0
102
RTVSPropertyOp53
 70
     1
102
RTVSPropertyOp54
 70
     1
102
RTVSPropertyOp55
 70
     1
102
RTVSPropertyOp56
 70
     1
102
RTVSPropertyOp57
 70
     1
102
RTVSPost2010Prop28
280
     0
102
RTVSPost2010PropOp28
 70
     1
102
RTVSPost2010Prop29
280
     1
102
RTVSPost2010PropOp29
 70
     1
102
RTVSPost2010Prop30
280
     1
102
RTVSPost2010PropOp30
 70
     1
102
RTVSPost2010Prop31
280
     0
102
RTVSPost2010PropOp31
 70
     1
102
RTVSPost2010Prop32
280
     0
102
RTVSPost2010PropOp32
 70
     1
102
RTVSPost2010Prop33
280
     0
102
RTVSPost2010PropOp33
 70
     1
102
RTVSPost2010Prop34
280
     0
102
RTVSPost2010PropOp34
 70
     1
102
RTVSPost2010Prop35
280
     0
102
RTVSPost2010PropOp35
 70
     1
102
RTVSPost2010Prop36
280
     0
102
RTVSPost2010PropOp36
 70
     1
102
RTVSPost2010Prop37
 90
       50
102
RTVSPost2010PropOp37
 70
     1
102
RTVSPost2010Prop38
140
0.0
102
RTVSPost2010PropOp38
 70
     1
102
RTVSPost2010Prop39
140
1.0
102
RTVSPost2010PropOp39
 70
     1
102
RTVSPost2010Prop40
 90
        0
102
RTVSPost2010PropOp40
 70
     1
102
RTVSPost2010Prop41ColorIndex
 90
       18
102
RTVSPost2010Prop41ColorRGB
 90
        0
102
RTVSPost2010PropOp41
 70
     1
102
RTVSPost2010Prop42
 90
       50
102
RTVSPost2010PropOp42
 70
     1
102
RTVSPost2010Prop43
 90
        3
102
RTVSPost2010PropOp43
 70
     1
102
RTVSPost2010Prop44ColorIndex
 90
        5
102
RTVSPost2010Prop44ColorRGB
 90
      255
102
RTVSPost2010PropOp44
 70
     1
102
RTVSPost2010Prop45
280
     0
102
RTVSPost2010PropOp45
 70
     1
102
RTVSPost2010Prop46
 90
       50
102
RTVSPost2010PropOp46
 70
     1
102
RTVSPost2010Prop47
 90
       50
102
RTVSPost2010PropOp47
 70
     1
102
RTVSPost2010Prop48
 90
       50
102
RTVSPost2010PropOp48
 70
     1
102
RTVSPost2010Prop49
280
     0
102
RTVSPost2010PropOp49
 70
     1
102
RTVSPost2010Prop50
 90
       50
102
RTVSPost2010PropOp50
 70
     1
102
RTVSPost2010Prop51ColorIndex
 90
      256
102
RTVSPost2010Prop51ColorRGB
 90
-16777216
102
RTVSPost2010PropOp51
 70
     0
102
RTVSPost2010Prop52
140
1.0
102
RTVSPost2010PropOp52
 70
     0
102
RTVSPost2010Prop53
 90
        2
102
RTVSPost2010PropOp53
 70
     1
102
RTVSPost2010Prop54
  1
strokes_ogs.tif
102
RTVSPost2010PropOp54
 70
     1
102
RTVSPost2010Prop55
280
     0
102
RTVSPost2010PropOp55
 70
     1
102
RTVSPost2010Prop56
140
1.0
102
RTVSPost2010PropOp56
 70
     1
102
RTVSPost2010Prop57
140
1.0
102
RTVSPost2010PropOp57
 70
     1
  0
XRECORD
  5
463
102
{ACAD_REACTORS
330
462
102
}
330
462
100
AcDbXrecord
280
     1
102
RTVSPropertyOp0
 70
     1
102
RTVSPropertyOp1
 70
     1
102
RTVSPropertyOp2
 70
     1
102
RTVSPropertyOp3
 70
     1
102
RTVSPropertyOp4
 70
     1
102
RTVSPropertyOp5
 70
     1
102
RTVSPropertyOp6
 70
     1
102
RTVSPropertyOp7
 70
     1
102
RTVSPropertyOp8
 70
     1
102
RTVSPropertyOp9
 70
     1
102
RTVSPropertyOp10
 70
     1
102
RTVSPropertyOp11
 70
     1
102
RTVSPropertyOp12
 70
     1
102
RTVSPropertyOp13
 70
     1
102
RTVSPropertyOp14
 70
     1
102
RTVSPropertyOp15
 70
     1
102
RTVSPropertyOp16
 70
     1
102
RTVSPropertyOp17
 70
     1
102
RTVSPropertyOp18
 70
     1
102
RTVSPropertyOp19
 70
     1
102
RTVSPropertyOp20
 70
     1
102
RTVSPropertyOp21
 70
     1
102
RTVSPropertyOp22
 70
     1
102
RTVSPropertyOp23
 70
     1
102
RTVSPropertyOp24
 70
     1
102
RTVSPropertyOp25
 70
     1
102
RTVSPropertyOp26
 70
     1
102
RTVSPropertyOp27
 70
     1
102
RTVSPropertyOp28
 70
     1
102
RTVSPropertyOp29
 70
     1
102
RTVSPropertyOp30
 70
     1
102
RTVSPropertyOp31
 70
     1
102
RTVSPropertyOp32
 70
     1
102
RTVSPropertyOp33
 70
     1
102
RTVSPropertyOp34
 70
     1
102
RTVSPropertyOp35
 70
     1
102
RTVSPropertyOp36
 70
     1
102
RTVSPropertyOp37
 70
     1
102
RTVSPropertyOp38
 70
     1
102
RTVSPropertyOp39
 70
     1
102
RTVSPropertyOp40
 70
     1
102
RTVSPropertyOp41
 70
     1
102
RTVSPropertyOp42
 70
     1
102
RTVSPropertyOp43
 70
     1
102
RTVSPropertyOp44
 70
     1
102
RTVSPropertyOp45
 70
     1
102
RTVSPropertyOp46
 70
     1
102
RTVSPropertyOp47
 70
     1
102
RTVSPropertyOp48
 70
     1
102
RTVSPropertyOp49
 70
     1
102
RTVSPropertyOp50
 70
     1
102
RTVSPropertyOp51
 70
     0
102
RTVSPropertyOp52
 70
     0
102
RTVSPropertyOp53
 70
     1
102
RTVSPropertyOp54
 70
     1
102
RTVSPropertyOp55
 70
     1
102
RTVSPropertyOp56
 70
     1
102
RTVSPropertyOp57
 70
     1
102
RTVSPost2010Prop28
280
     0
102
RTVSPost2010PropOp28
 70
     1
102
RTVSPost2010Prop29
280
     1
102
RTVSPost2010PropOp29
 70
     1
102
RTVSPost2010Prop30
280
     1
102
RTVSPost2010PropOp30
 70
     1
102
RTVSPost2010Prop31
280
     0
102
RTVSPost2010PropOp31
 70
     1
102
RTVSPost2010Prop32
280
     0
102
RTVSPost2010PropOp32
 70
     1
102
RTVSPost2010Prop33
280
     0
102
RTVSPost2010PropOp33
 70
     1
102
RTVSPost2010Prop34
280
     0
102
RTVSPost2010PropOp34
 70
     1
102
RTVSPost2010Prop35
280
     0
102
RTVSPost2010PropOp35
 70
     1
102
RTVSPost2010Prop36
280
     0
102
RTVSPost2010PropOp36
 70
     1
102
RTVSPost2010Prop37
 90
       50
102
RTVSPost2010PropOp37
 70
     1
102
RTVSPost2010Prop38
140
0.0
102
RTVSPost2010PropOp38
 70
     1
102
RTVSPost2010Prop39
140
1.0
102
RTVSPost2010PropOp39
 70
     1
102
RTVSPost2010Prop40
 90
        0
102
RTVSPost2010PropOp40
 70
     1
102
RTVSPost2010Prop41ColorIndex
 90
       18
102
RTVSPost2010Prop41ColorRGB
 90
        0
102
RTVSPost2010PropOp41
 70
     1
102
RTVSPost2010Prop42
 90
       50
102
RTVSPost2010PropOp42
 70
     1
102
RTVSPost2010Prop43
 90
        3
102
RTVSPost2010PropOp43
 70
     1
102
RTVSPost2010Prop44ColorIndex
 90
        5
102
RTVSPost2010Prop44ColorRGB
 90
      255
102
RTVSPost2010PropOp44
 70
     1
102
RTVSPost2010Prop45
280
     0
102
RTVSPost2010PropOp45
 70
     1
102
RTVSPost2010Prop46
 90
       50
102
RTVSPost2010PropOp46
 70
     1
102
RTVSPost2010Prop47
 90
       50
102
RTVSPost2010PropOp47
 70
     1
102
RTVSPost2010Prop48
 90
       50
102
RTVSPost2010PropOp48
 70
     1
102
RTVSPost2010Prop49
280
     0
102
RTVSPost2010PropOp49
 70
     1
102
RTVSPost2010Prop50
 90
       50
102
RTVSPost2010PropOp50
 70
     1
102
RTVSPost2010Prop51ColorIndex
 90
      256
102
RTVSPost2010Prop51ColorRGB
 90
-16777216
102
RTVSPost2010PropOp51
 70
     0
102
RTVSPost2010Prop52
140
1.0
102
RTVSPost2010PropOp52
 70
     0
102
RTVSPost2010Prop53
 90
        2
102
RTVSPost2010PropOp53
 70
     1
102
RTVSPost2010Prop54
  1
strokes_ogs.tif
102
RTVSPost2010PropOp54
 70
     1
102
RTVSPost2010Prop55
280
     0
102
RTVSPost2010PropOp55
 70
     1
102
RTVSPost2010Prop56
140
1.0
102
RTVSPost2010PropOp56
 70
     1
102
RTVSPost2010Prop57
140
1.0
102
RTVSPost2010PropOp57
 70
     1
  0
XRECORD
  5
465
102
{ACAD_REACTORS
330
464
102
}
330
464
100
AcDbXrecord
280
     1
102
RTVSPropertyOp0
 70
     1
102
RTVSPropertyOp1
 70
     1
102
RTVSPropertyOp2
 70
     1
102
RTVSPropertyOp3
 70
     1
102
RTVSPropertyOp4
 70
     1
102
RTVSPropertyOp5
 70
     1
102
RTVSPropertyOp6
 70
     1
102
RTVSPropertyOp7
 70
     1
102
RTVSPropertyOp8
 70
     1
102
RTVSPropertyOp9
 70
     1
102
RTVSPropertyOp10
 70
     1
102
RTVSPropertyOp11
 70
     1
102
RTVSPropertyOp12
 70
     1
102
RTVSPropertyOp13
 70
     1
102
RTVSPropertyOp14
 70
     1
102
RTVSPropertyOp15
 70
     1
102
RTVSPropertyOp16
 70
     1
102
RTVSPropertyOp17
 70
     1
102
RTVSPropertyOp18
 70
     1
102
RTVSPropertyOp19
 70
     1
102
RTVSPropertyOp20
 70
     1
102
RTVSPropertyOp21
 70
     1
102
RTVSPropertyOp22
 70
     1
102
RTVSPropertyOp23
 70
     1
102
RTVSPropertyOp24
 70
     1
102
RTVSPropertyOp25
 70
     1
102
RTVSPropertyOp26
 70
     1
102
RTVSPropertyOp27
 70
     1
102
RTVSPropertyOp28
 70
     1
102
RTVSPropertyOp29
 70
     1
102
RTVSPropertyOp30
 70
     1
102
RTVSPropertyOp31
 70
     1
102
RTVSPropertyOp32
 70
     1
102
RTVSPropertyOp33
 70
     1
102
RTVSPropertyOp34
 70
     1
102
RTVSPropertyOp35
 70
     1
102
RTVSPropertyOp36
 70
     1
102
RTVSPropertyOp37
 70
     1
102
RTVSPropertyOp38
 70
     1
102
RTVSPropertyOp39
 70
     1
102
RTVSPropertyOp40
 70
     1
102
RTVSPropertyOp41
 70
     1
102
RTVSPropertyOp42
 70
     1
102
RTVSPropertyOp43
 70
     1
102
RTVSPropertyOp44
 70
     1
102
RTVSPropertyOp45
 70
     1
102
RTVSPropertyOp46
 70
     1
102
RTVSPropertyOp47
 70
     1
102
RTVSPropertyOp48
 70
     1
102
RTVSPropertyOp49
 70
     1
102
RTVSPropertyOp50
 70
     1
102
RTVSPropertyOp51
 70
     0
102
RTVSPropertyOp52
 70
     0
102
RTVSPropertyOp53
 70
     1
102
RTVSPropertyOp54
 70
     1
102
RTVSPropertyOp55
 70
     1
102
RTVSPropertyOp56
 70
     1
102
RTVSPropertyOp57
 70
     1
102
RTVSPost2010Prop28
280
     0
102
RTVSPost2010PropOp28
 70
     1
102
RTVSPost2010Prop29
280
     1
102
RTVSPost2010PropOp29
 70
     1
102
RTVSPost2010Prop30
280
     1
102
RTVSPost2010PropOp30
 70
     1
102
RTVSPost2010Prop31
280
     0
102
RTVSPost2010PropOp31
 70
     1
102
RTVSPost2010Prop32
280
     0
102
RTVSPost2010PropOp32
 70
     1
102
RTVSPost2010Prop33
280
     0
102
RTVSPost2010PropOp33
 70
     1
102
RTVSPost2010Prop34
280
     0
102
RTVSPost2010PropOp34
 70
     1
102
RTVSPost2010Prop35
280
     0
102
RTVSPost2010PropOp35
 70
     1
102
RTVSPost2010Prop36
280
     0
102
RTVSPost2010PropOp36
 70
     1
102
RTVSPost2010Prop37
 90
       50
102
RTVSPost2010PropOp37
 70
     1
102
RTVSPost2010Prop38
140
0.0
102
RTVSPost2010PropOp38
 70
     1
102
RTVSPost2010Prop39
140
1.0
102
RTVSPost2010PropOp39
 70
     1
102
RTVSPost2010Prop40
 90
        0
102
RTVSPost2010PropOp40
 70
     1
102
RTVSPost2010Prop41ColorIndex
 90
       18
102
RTVSPost2010Prop41ColorRGB
 90
        0
102
RTVSPost2010PropOp41
 70
     1
102
RTVSPost2010Prop42
 90
       50
102
RTVSPost2010PropOp42
 70
     1
102
RTVSPost2010Prop43
 90
        3
102
RTVSPost2010PropOp43
 70
     1
102
RTVSPost2010Prop44ColorIndex
 90
        5
102
RTVSPost2010Prop44ColorRGB
 90
      255
102
RTVSPost2010PropOp44
 70
     1
102
RTVSPost2010Prop45
280
     0
102
RTVSPost2010PropOp45
 70
     1
102
RTVSPost2010Prop46
 90
       50
102
RTVSPost2010PropOp46
 70
     1
102
RTVSPost2010Prop47
 90
       50
102
RTVSPost2010PropOp47
 70
     1
102
RTVSPost2010Prop48
 90
       50
102
RTVSPost2010PropOp48
 70
     1
102
RTVSPost2010Prop49
280
     0
102
RTVSPost2010PropOp49
 70
     1
102
RTVSPost2010Prop50
 90
       50
102
RTVSPost2010PropOp50
 70
     1
102
RTVSPost2010Prop51ColorIndex
 90
      256
102
RTVSPost2010Prop51ColorRGB
 90
-16777216
102
RTVSPost2010PropOp51
 70
     0
102
RTVSPost2010Prop52
140
1.0
102
RTVSPost2010PropOp52
 70
     0
102
RTVSPost2010Prop53
 90
        2
102
RTVSPost2010PropOp53
 70
     1
102
RTVSPost2010Prop54
  1
strokes_ogs.tif
102
RTVSPost2010PropOp54
 70
     1
102
RTVSPost2010Prop55
280
     0
102
RTVSPost2010PropOp55
 70
     1
102
RTVSPost2010Prop56
140
1.0
102
RTVSPost2010PropOp56
 70
     1
102
RTVSPost2010Prop57
140
1.0
102
RTVSPost2010PropOp57
 70
     1
  0
XRECORD
  5
467
102
{ACAD_REACTORS
330
466
102
}
330
466
100
AcDbXrecord
280
     1
102
RTVSPropertyOp0
 70
     1
102
RTVSPropertyOp1
 70
     1
102
RTVSPropertyOp2
 70
     1
102
RTVSPropertyOp3
 70
     1
102
RTVSPropertyOp4
 70
     1
102
RTVSPropertyOp5
 70
     1
102
RTVSPropertyOp6
 70
     1
102
RTVSPropertyOp7
 70
     1
102
RTVSPropertyOp8
 70
     1
102
RTVSPropertyOp9
 70
     1
102
RTVSPropertyOp10
 70
     1
102
RTVSPropertyOp11
 70
     1
102
RTVSPropertyOp12
 70
     1
102
RTVSPropertyOp13
 70
     1
102
RTVSPropertyOp14
 70
     1
102
RTVSPropertyOp15
 70
     1
102
RTVSPropertyOp16
 70
     1
102
RTVSPropertyOp17
 70
     1
102
RTVSPropertyOp18
 70
     1
102
RTVSPropertyOp19
 70
     1
102
RTVSPropertyOp20
 70
     1
102
RTVSPropertyOp21
 70
     1
102
RTVSPropertyOp22
 70
     1
102
RTVSPropertyOp23
 70
     1
102
RTVSPropertyOp24
 70
     1
102
RTVSPropertyOp25
 70
     1
102
RTVSPropertyOp26
 70
     1
102
RTVSPropertyOp27
 70
     1
102
RTVSPropertyOp28
 70
     1
102
RTVSPropertyOp29
 70
     1
102
RTVSPropertyOp30
 70
     1
102
RTVSPropertyOp31
 70
     1
102
RTVSPropertyOp32
 70
     1
102
RTVSPropertyOp33
 70
     1
102
RTVSPropertyOp34
 70
     1
102
RTVSPropertyOp35
 70
     1
102
RTVSPropertyOp36
 70
     1
102
RTVSPropertyOp37
 70
     1
102
RTVSPropertyOp38
 70
     1
102
RTVSPropertyOp39
 70
     1
102
RTVSPropertyOp40
 70
     1
102
RTVSPropertyOp41
 70
     1
102
RTVSPropertyOp42
 70
     1
102
RTVSPropertyOp43
 70
     1
102
RTVSPropertyOp44
 70
     1
102
RTVSPropertyOp45
 70
     1
102
RTVSPropertyOp46
 70
     1
102
RTVSPropertyOp47
 70
     1
102
RTVSPropertyOp48
 70
     1
102
RTVSPropertyOp49
 70
     1
102
RTVSPropertyOp50
 70
     1
102
RTVSPropertyOp51
 70
     0
102
RTVSPropertyOp52
 70
     0
102
RTVSPropertyOp53
 70
     1
102
RTVSPropertyOp54
 70
     1
102
RTVSPropertyOp55
 70
     1
102
RTVSPropertyOp56
 70
     1
102
RTVSPropertyOp57
 70
     1
102
RTVSPost2010Prop28
280
     0
102
RTVSPost2010PropOp28
 70
     1
102
RTVSPost2010Prop29
280
     1
102
RTVSPost2010PropOp29
 70
     1
102
RTVSPost2010Prop30
280
     1
102
RTVSPost2010PropOp30
 70
     1
102
RTVSPost2010Prop31
280
     0
102
RTVSPost2010PropOp31
 70
     1
102
RTVSPost2010Prop32
280
     0
102
RTVSPost2010PropOp32
 70
     1
102
RTVSPost2010Prop33
280
     0
102
RTVSPost2010PropOp33
 70
     1
102
RTVSPost2010Prop34
280
     0
102
RTVSPost2010PropOp34
 70
     1
102
RTVSPost2010Prop35
280
     0
102
RTVSPost2010PropOp35
 70
     1
102
RTVSPost2010Prop36
280
     0
102
RTVSPost2010PropOp36
 70
     1
102
RTVSPost2010Prop37
 90
       50
102
RTVSPost2010PropOp37
 70
     1
102
RTVSPost2010Prop38
140
0.0
102
RTVSPost2010PropOp38
 70
     1
102
RTVSPost2010Prop39
140
1.0
102
RTVSPost2010PropOp39
 70
     1
102
RTVSPost2010Prop40
 90
        0
102
RTVSPost2010PropOp40
 70
     1
102
RTVSPost2010Prop41ColorIndex
 90
       18
102
RTVSPost2010Prop41ColorRGB
 90
        0
102
RTVSPost2010PropOp41
 70
     1
102
RTVSPost2010Prop42
 90
       50
102
RTVSPost2010PropOp42
 70
     1
102
RTVSPost2010Prop43
 90
        3
102
RTVSPost2010PropOp43
 70
     1
102
RTVSPost2010Prop44ColorIndex
 90
        5
102
RTVSPost2010Prop44ColorRGB
 90
      255
102
RTVSPost2010PropOp44
 70
     1
102
RTVSPost2010Prop45
280
     0
102
RTVSPost2010PropOp45
 70
     1
102
RTVSPost2010Prop46
 90
       50
102
RTVSPost2010PropOp46
 70
     1
102
RTVSPost2010Prop47
 90
       50
102
RTVSPost2010PropOp47
 70
     1
102
RTVSPost2010Prop48
 90
       50
102
RTVSPost2010PropOp48
 70
     1
102
RTVSPost2010Prop49
280
     0
102
RTVSPost2010PropOp49
 70
     1
102
RTVSPost2010Prop50
 90
       50
102
RTVSPost2010PropOp50
 70
     1
102
RTVSPost2010Prop51ColorIndex
 90
      256
102
RTVSPost2010Prop51ColorRGB
 90
-16777216
102
RTVSPost2010PropOp51
 70
     0
102
RTVSPost2010Prop52
140
1.0
102
RTVSPost2010PropOp52
 70
     0
102
RTVSPost2010Prop53
 90
        2
102
RTVSPost2010PropOp53
 70
     1
102
RTVSPost2010Prop54
  1
strokes_ogs.tif
102
RTVSPost2010PropOp54
 70
     1
102
RTVSPost2010Prop55
280
     0
102
RTVSPost2010PropOp55
 70
     1
102
RTVSPost2010Prop56
140
1.0
102
RTVSPost2010PropOp56
 70
     1
102
RTVSPost2010Prop57
140
1.0
102
RTVSPost2010PropOp57
 70
     1
  0
XRECORD
  5
47B
102
{ACAD_REACTORS
330
47A
102
}
330
47A
100
AcDbXrecord
280
     1
102
RTVSPropertyOp0
 70
     1
102
RTVSPropertyOp1
 70
     1
102
RTVSPropertyOp2
 70
     1
102
RTVSPropertyOp3
 70
     1
102
RTVSPropertyOp4
 70
     1
102
RTVSPropertyOp5
 70
     1
102
RTVSPropertyOp6
 70
     1
102
RTVSPropertyOp7
 70
     1
102
RTVSPropertyOp8
 70
     1
102
RTVSPropertyOp9
 70
     1
102
RTVSPropertyOp10
 70
     1
102
RTVSPropertyOp11
 70
     1
102
RTVSPropertyOp12
 70
     1
102
RTVSPropertyOp13
 70
     1
102
RTVSPropertyOp14
 70
     1
102
RTVSPropertyOp15
 70
     1
102
RTVSPropertyOp16
 70
     1
102
RTVSPropertyOp17
 70
     1
102
RTVSPropertyOp18
 70
     1
102
RTVSPropertyOp19
 70
     1
102
RTVSPropertyOp20
 70
     1
102
RTVSPropertyOp21
 70
     1
102
RTVSPropertyOp22
 70
     1
102
RTVSPropertyOp23
 70
     1
102
RTVSPropertyOp24
 70
     1
102
RTVSPropertyOp25
 70
     1
102
RTVSPropertyOp26
 70
     1
102
RTVSPropertyOp27
 70
     1
102
RTVSPropertyOp28
 70
     1
102
RTVSPropertyOp29
 70
     1
102
RTVSPropertyOp30
 70
     1
102
RTVSPropertyOp31
 70
     1
102
RTVSPropertyOp32
 70
     1
102
RTVSPropertyOp33
 70
     1
102
RTVSPropertyOp34
 70
     1
102
RTVSPropertyOp35
 70
     1
102
RTVSPropertyOp36
 70
     1
102
RTVSPropertyOp37
 70
     1
102
RTVSPropertyOp38
 70
     1
102
RTVSPropertyOp39
 70
     1
102
RTVSPropertyOp40
 70
     1
102
RTVSPropertyOp41
 70
     1
102
RTVSPropertyOp42
 70
     1
102
RTVSPropertyOp43
 70
     1
102
RTVSPropertyOp44
 70
     1
102
RTVSPropertyOp45
 70
     1
102
RTVSPropertyOp46
 70
     1
102
RTVSPropertyOp47
 70
     1
102
RTVSPropertyOp48
 70
     1
102
RTVSPropertyOp49
 70
     1
102
RTVSPropertyOp50
 70
     1
102
RTVSPropertyOp51
 70
     0
102
RTVSPropertyOp52
 70
     0
102
RTVSPropertyOp53
 70
     1
102
RTVSPropertyOp54
 70
     1
102
RTVSPropertyOp55
 70
     1
102
RTVSPropertyOp56
 70
     1
102
RTVSPropertyOp57
 70
     1
102
RTVSPost2010Prop28
280
     0
102
RTVSPost2010PropOp28
 70
     1
102
RTVSPost2010Prop29
280
     1
102
RTVSPost2010PropOp29
 70
     1
102
RTVSPost2010Prop30
280
     1
102
RTVSPost2010PropOp30
 70
     1
102
RTVSPost2010Prop31
280
     0
102
RTVSPost2010PropOp31
 70
     1
102
RTVSPost2010Prop32
280
     0
102
RTVSPost2010PropOp32
 70
     1
102
RTVSPost2010Prop33
280
     0
102
RTVSPost2010PropOp33
 70
     1
102
RTVSPost2010Prop34
280
     0
102
RTVSPost2010PropOp34
 70
     1
102
RTVSPost2010Prop35
280
     0
102
RTVSPost2010PropOp35
 70
     1
102
RTVSPost2010Prop36
280
     0
102
RTVSPost2010PropOp36
 70
     1
102
RTVSPost2010Prop37
 90
       50
102
RTVSPost2010PropOp37
 70
     1
102
RTVSPost2010Prop38
140
0.0
102
RTVSPost2010PropOp38
 70
     1
102
RTVSPost2010Prop39
140
1.0
102
RTVSPost2010PropOp39
 70
     1
102
RTVSPost2010Prop40
 90
        0
102
RTVSPost2010PropOp40
 70
     1
102
RTVSPost2010Prop41ColorIndex
 90
       18
102
RTVSPost2010Prop41ColorRGB
 90
        0
102
RTVSPost2010PropOp41
 70
     1
102
RTVSPost2010Prop42
 90
       50
102
RTVSPost2010PropOp42
 70
     1
102
RTVSPost2010Prop43
 90
        3
102
RTVSPost2010PropOp43
 70
     1
102
RTVSPost2010Prop44ColorIndex
 90
        5
102
RTVSPost2010Prop44ColorRGB
 90
      255
102
RTVSPost2010PropOp44
 70
     1
102
RTVSPost2010Prop45
280
     0
102
RTVSPost2010PropOp45
 70
     1
102
RTVSPost2010Prop46
 90
       50
102
RTVSPost2010PropOp46
 70
     1
102
RTVSPost2010Prop47
 90
       50
102
RTVSPost2010PropOp47
 70
     1
102
RTVSPost2010Prop48
 90
       50
102
RTVSPost2010PropOp48
 70
     1
102
RTVSPost2010Prop49
280
     0
102
RTVSPost2010PropOp49
 70
     1
102
RTVSPost2010Prop50
 90
       50
102
RTVSPost2010PropOp50
 70
     1
102
RTVSPost2010Prop51ColorIndex
 90
      256
102
RTVSPost2010Prop51ColorRGB
 90
-16777216
102
RTVSPost2010PropOp51
 70
     0
102
RTVSPost2010Prop52
140
1.0
102
RTVSPost2010PropOp52
 70
     0
102
RTVSPost2010Prop53
 90
        2
102
RTVSPost2010PropOp53
 70
     1
102
RTVSPost2010Prop54
  1
strokes_ogs.tif
102
RTVSPost2010PropOp54
 70
     1
102
RTVSPost2010Prop55
280
     0
102
RTVSPost2010PropOp55
 70
     1
102
RTVSPost2010Prop56
140
1.0
102
RTVSPost2010PropOp56
 70
     1
102
RTVSPost2010Prop57
140
1.0
102
RTVSPost2010PropOp57
 70
     1
  0
XRECORD
  5
471
102
{ACAD_REACTORS
330
470
102
}
330
470
100
AcDbXrecord
280
     1
102
RTVSPropertyOp0
 70
     1
102
RTVSPropertyOp1
 70
     1
102
RTVSPropertyOp2
 70
     1
102
RTVSPropertyOp3
 70
     1
102
RTVSPropertyOp4
 70
     1
102
RTVSPropertyOp5
 70
     1
102
RTVSPropertyOp6
 70
     1
102
RTVSPropertyOp7
 70
     1
102
RTVSPropertyOp8
 70
     1
102
RTVSPropertyOp9
 70
     1
102
RTVSPropertyOp10
 70
     1
102
RTVSPropertyOp11
 70
     1
102
RTVSPropertyOp12
 70
     1
102
RTVSPropertyOp13
 70
     1
102
RTVSPropertyOp14
 70
     1
102
RTVSPropertyOp15
 70
     1
102
RTVSPropertyOp16
 70
     1
102
RTVSPropertyOp17
 70
     1
102
RTVSPropertyOp18
 70
     1
102
RTVSPropertyOp19
 70
     1
102
RTVSPropertyOp20
 70
     1
102
RTVSPropertyOp21
 70
     1
102
RTVSPropertyOp22
 70
     1
102
RTVSPropertyOp23
 70
     1
102
RTVSPropertyOp24
 70
     1
102
RTVSPropertyOp25
 70
     1
102
RTVSPropertyOp26
 70
     1
102
RTVSPropertyOp27
 70
     1
102
RTVSPropertyOp28
 70
     1
102
RTVSPropertyOp29
 70
     1
102
RTVSPropertyOp30
 70
     1
102
RTVSPropertyOp31
 70
     1
102
RTVSPropertyOp32
 70
     1
102
RTVSPropertyOp33
 70
     1
102
RTVSPropertyOp34
 70
     1
102
RTVSPropertyOp35
 70
     1
102
RTVSPropertyOp36
 70
     1
102
RTVSPropertyOp37
 70
     1
102
RTVSPropertyOp38
 70
     1
102
RTVSPropertyOp39
 70
     1
102
RTVSPropertyOp40
 70
     1
102
RTVSPropertyOp41
 70
     1
102
RTVSPropertyOp42
 70
     1
102
RTVSPropertyOp43
 70
     1
102
RTVSPropertyOp44
 70
     1
102
RTVSPropertyOp45
 70
     1
102
RTVSPropertyOp46
 70
     1
102
RTVSPropertyOp47
 70
     1
102
RTVSPropertyOp48
 70
     1
102
RTVSPropertyOp49
 70
     1
102
RTVSPropertyOp50
 70
     1
102
RTVSPropertyOp51
 70
     0
102
RTVSPropertyOp52
 70
     0
102
RTVSPropertyOp53
 70
     1
102
RTVSPropertyOp54
 70
     1
102
RTVSPropertyOp55
 70
     1
102
RTVSPropertyOp56
 70
     1
102
RTVSPropertyOp57
 70
     1
102
RTVSPost2010Prop28
280
     0
102
RTVSPost2010PropOp28
 70
     1
102
RTVSPost2010Prop29
280
     1
102
RTVSPost2010PropOp29
 70
     1
102
RTVSPost2010Prop30
280
     1
102
RTVSPost2010PropOp30
 70
     1
102
RTVSPost2010Prop31
280
     0
102
RTVSPost2010PropOp31
 70
     1
102
RTVSPost2010Prop32
280
     0
102
RTVSPost2010PropOp32
 70
     1
102
RTVSPost2010Prop33
280
     0
102
RTVSPost2010PropOp33
 70
     1
102
RTVSPost2010Prop34
280
     0
102
RTVSPost2010PropOp34
 70
     1
102
RTVSPost2010Prop35
280
     0
102
RTVSPost2010PropOp35
 70
     1
102
RTVSPost2010Prop36
280
     0
102
RTVSPost2010PropOp36
 70
     1
102
RTVSPost2010Prop37
 90
       50
102
RTVSPost2010PropOp37
 70
     1
102
RTVSPost2010Prop38
140
0.0
102
RTVSPost2010PropOp38
 70
     1
102
RTVSPost2010Prop39
140
1.0
102
RTVSPost2010PropOp39
 70
     1
102
RTVSPost2010Prop40
 90
        0
102
RTVSPost2010PropOp40
 70
     1
102
RTVSPost2010Prop41ColorIndex
 90
       18
102
RTVSPost2010Prop41ColorRGB
 90
        0
102
RTVSPost2010PropOp41
 70
     1
102
RTVSPost2010Prop42
 90
       50
102
RTVSPost2010PropOp42
 70
     1
102
RTVSPost2010Prop43
 90
        3
102
RTVSPost2010PropOp43
 70
     1
102
RTVSPost2010Prop44ColorIndex
 90
        5
102
RTVSPost2010Prop44ColorRGB
 90
      255
102
RTVSPost2010PropOp44
 70
     1
102
RTVSPost2010Prop45
280
     0
102
RTVSPost2010PropOp45
 70
     1
102
RTVSPost2010Prop46
 90
       50
102
RTVSPost2010PropOp46
 70
     1
102
RTVSPost2010Prop47
 90
       50
102
RTVSPost2010PropOp47
 70
     1
102
RTVSPost2010Prop48
 90
       50
102
RTVSPost2010PropOp48
 70
     1
102
RTVSPost2010Prop49
280
     0
102
RTVSPost2010PropOp49
 70
     1
102
RTVSPost2010Prop50
 90
       50
102
RTVSPost2010PropOp50
 70
     1
102
RTVSPost2010Prop51ColorIndex
 90
      256
102
RTVSPost2010Prop51ColorRGB
 90
-16777216
102
RTVSPost2010PropOp51
 70
     0
102
RTVSPost2010Prop52
140
1.0
102
RTVSPost2010PropOp52
 70
     0
102
RTVSPost2010Prop53
 90
        2
102
RTVSPost2010PropOp53
 70
     1
102
RTVSPost2010Prop54
  1
strokes_ogs.tif
102
RTVSPost2010PropOp54
 70
     1
102
RTVSPost2010Prop55
280
     0
102
RTVSPost2010PropOp55
 70
     1
102
RTVSPost2010Prop56
140
1.0
102
RTVSPost2010PropOp56
 70
     1
102
RTVSPost2010Prop57
140
1.0
102
RTVSPost2010PropOp57
 70
     1
  0
XRECORD
  5
479
102
{ACAD_REACTORS
330
478
102
}
330
478
100
AcDbXrecord
280
     1
102
RTVSPropertyOp0
 70
     1
102
RTVSPropertyOp1
 70
     1
102
RTVSPropertyOp2
 70
     1
102
RTVSPropertyOp3
 70
     1
102
RTVSPropertyOp4
 70
     1
102
RTVSPropertyOp5
 70
     1
102
RTVSPropertyOp6
 70
     1
102
RTVSPropertyOp7
 70
     1
102
RTVSPropertyOp8
 70
     1
102
RTVSPropertyOp9
 70
     1
102
RTVSPropertyOp10
 70
     1
102
RTVSPropertyOp11
 70
     1
102
RTVSPropertyOp12
 70
     1
102
RTVSPropertyOp13
 70
     1
102
RTVSPropertyOp14
 70
     1
102
RTVSPropertyOp15
 70
     1
102
RTVSPropertyOp16
 70
     1
102
RTVSPropertyOp17
 70
     1
102
RTVSPropertyOp18
 70
     1
102
RTVSPropertyOp19
 70
     1
102
RTVSPropertyOp20
 70
     1
102
RTVSPropertyOp21
 70
     1
102
RTVSPropertyOp22
 70
     1
102
RTVSPropertyOp23
 70
     1
102
RTVSPropertyOp24
 70
     1
102
RTVSPropertyOp25
 70
     1
102
RTVSPropertyOp26
 70
     1
102
RTVSPropertyOp27
 70
     1
102
RTVSPropertyOp28
 70
     1
102
RTVSPropertyOp29
 70
     1
102
RTVSPropertyOp30
 70
     1
102
RTVSPropertyOp31
 70
     1
102
RTVSPropertyOp32
 70
     1
102
RTVSPropertyOp33
 70
     1
102
RTVSPropertyOp34
 70
     1
102
RTVSPropertyOp35
 70
     1
102
RTVSPropertyOp36
 70
     1
102
RTVSPropertyOp37
 70
     1
102
RTVSPropertyOp38
 70
     1
102
RTVSPropertyOp39
 70
     1
102
RTVSPropertyOp40
 70
     1
102
RTVSPropertyOp41
 70
     1
102
RTVSPropertyOp42
 70
     1
102
RTVSPropertyOp43
 70
     1
102
RTVSPropertyOp44
 70
     1
102
RTVSPropertyOp45
 70
     1
102
RTVSPropertyOp46
 70
     1
102
RTVSPropertyOp47
 70
     1
102
RTVSPropertyOp48
 70
     1
102
RTVSPropertyOp49
 70
     1
102
RTVSPropertyOp50
 70
     1
102
RTVSPropertyOp51
 70
     0
102
RTVSPropertyOp52
 70
     0
102
RTVSPropertyOp53
 70
     1
102
RTVSPropertyOp54
 70
     1
102
RTVSPropertyOp55
 70
     1
102
RTVSPropertyOp56
 70
     1
102
RTVSPropertyOp57
 70
     1
102
RTVSPost2010Prop28
280
     0
102
RTVSPost2010PropOp28
 70
     1
102
RTVSPost2010Prop29
280
     1
102
RTVSPost2010PropOp29
 70
     1
102
RTVSPost2010Prop30
280
     1
102
RTVSPost2010PropOp30
 70
     1
102
RTVSPost2010Prop31
280
     0
102
RTVSPost2010PropOp31
 70
     1
102
RTVSPost2010Prop32
280
     0
102
RTVSPost2010PropOp32
 70
     1
102
RTVSPost2010Prop33
280
     0
102
RTVSPost2010PropOp33
 70
     1
102
RTVSPost2010Prop34
280
     0
102
RTVSPost2010PropOp34
 70
     1
102
RTVSPost2010Prop35
280
     0
102
RTVSPost2010PropOp35
 70
     1
102
RTVSPost2010Prop36
280
     0
102
RTVSPost2010PropOp36
 70
     1
102
RTVSPost2010Prop37
 90
       50
102
RTVSPost2010PropOp37
 70
     1
102
RTVSPost2010Prop38
140
0.0
102
RTVSPost2010PropOp38
 70
     1
102
RTVSPost2010Prop39
140
1.0
102
RTVSPost2010PropOp39
 70
     1
102
RTVSPost2010Prop40
 90
        0
102
RTVSPost2010PropOp40
 70
     1
102
RTVSPost2010Prop41ColorIndex
 90
       18
102
RTVSPost2010Prop41ColorRGB
 90
        0
102
RTVSPost2010PropOp41
 70
     1
102
RTVSPost2010Prop42
 90
       50
102
RTVSPost2010PropOp42
 70
     1
102
RTVSPost2010Prop43
 90
        3
102
RTVSPost2010PropOp43
 70
     1
102
RTVSPost2010Prop44ColorIndex
 90
        5
102
RTVSPost2010Prop44ColorRGB
 90
      255
102
RTVSPost2010PropOp44
 70
     1
102
RTVSPost2010Prop45
280
     0
102
RTVSPost2010PropOp45
 70
     1
102
RTVSPost2010Prop46
 90
       50
102
RTVSPost2010PropOp46
 70
     1
102
RTVSPost2010Prop47
 90
       50
102
RTVSPost2010PropOp47
 70
     1
102
RTVSPost2010Prop48
 90
       50
102
RTVSPost2010PropOp48
 70
     1
102
RTVSPost2010Prop49
280
     0
102
RTVSPost2010PropOp49
 70
     1
102
RTVSPost2010Prop50
 90
       50
102
RTVSPost2010PropOp50
 70
     1
102
RTVSPost2010Prop51ColorIndex
 90
      256
102
RTVSPost2010Prop51ColorRGB
 90
-16777216
102
RTVSPost2010PropOp51
 70
     0
102
RTVSPost2010Prop52
140
1.0
102
RTVSPost2010PropOp52
 70
     0
102
RTVSPost2010Prop53
 90
        2
102
RTVSPost2010PropOp53
 70
     1
102
RTVSPost2010Prop54
  1
strokes_ogs.tif
102
RTVSPost2010PropOp54
 70
     1
102
RTVSPost2010Prop55
280
     0
102
RTVSPost2010PropOp55
 70
     1
102
RTVSPost2010Prop56
140
1.0
102
RTVSPost2010PropOp56
 70
     1
102
RTVSPost2010Prop57
140
1.0
102
RTVSPost2010PropOp57
 70
     1
  0
ENDSEC
  0
EOF
