  0
SECTION
  2
HEADER
  9
$ACADVER
  1
AC1018
  9
$ACADMAINTVER
 70
     0
  9
$DWGCODEPAGE
  3
ANSI_936
  9
$INSBASE
 10
0.0
 20
0.0
 30
0.0
  9
$EXTMIN
 10
0.0000000000001055
 20
1520.291553374633
 30
0.0
  9
$EXTMAX
 10
324.0300000000028
 20
1595.511555477046
 30
0.0
  9
$LIMMIN
 10
0.0
 20
0.0
  9
$LIMMAX
 10
12.0
 20
9.0
  9
$ORTHOMODE
 70
     0
  9
$REGENMODE
 70
     1
  9
$FILLMODE
 70
     1
  9
$QTEXTMODE
 70
     0
  9
$MIRRTEXT
 70
     1
  9
$LTSCALE
 40
1.0
  9
$ATTMODE
 70
     1
  9
$TEXTSIZE
 40
0.2
  9
$TRACEWID
 40
0.05
  9
$TEXTSTYLE
  7
Standard
  9
$CLAYER
  8
0
  9
$CELTYPE
  6
ByLayer
  9
$CECOLOR
 62
   256
  9
$CELTSCALE
 40
1.0
  9
$DISPSILH
 70
     0
  9
$DIMSCALE
 40
1.0
  9
$DIMASZ
 40
0.18
  9
$DIMEXO
 40
0.0625
  9
$DIMDLI
 40
0.38
  9
$DIMRND
 40
0.0
  9
$DIMDLE
 40
0.0
  9
$DIMEXE
 40
0.18
  9
$DIMTP
 40
0.0
  9
$DIMTM
 40
0.0
  9
$DIMTXT
 40
0.18
  9
$DIMCEN
 40
0.09
  9
$DIMTSZ
 40
0.0
  9
$DIMTOL
 70
     0
  9
$DIMLIM
 70
     0
  9
$DIMTIH
 70
     1
  9
$DIMTOH
 70
     1
  9
$DIMSE1
 70
     0
  9
$DIMSE2
 70
     0
  9
$DIMTAD
 70
     0
  9
$DIMZIN
 70
     0
  9
$DIMBLK
  1

  9
$DIMASO
 70
     1
  9
$DIMSHO
 70
     1
  9
$DIMPOST
  1

  9
$DIMAPOST
  1

  9
$DIMALT
 70
     0
  9
$DIMALTD
 70
     2
  9
$DIMALTF
 40
25.4
  9
$DIMLFAC
 40
1.0
  9
$DIMTOFL
 70
     0
  9
$DIMTVP
 40
0.0
  9
$DIMTIX
 70
     0
  9
$DIMSOXD
 70
     0
  9
$DIMSAH
 70
     0
  9
$DIMBLK1
  1

  9
$DIMBLK2
  1

  9
$DIMSTYLE
  2
Standard
  9
$DIMCLRD
 70
     0
  9
$DIMCLRE
 70
     0
  9
$DIMCLRT
 70
     0
  9
$DIMTFAC
 40
1.0
  9
$DIMGAP
 40
0.09
  9
$DIMJUST
 70
     0
  9
$DIMSD1
 70
     0
  9
$DIMSD2
 70
     0
  9
$DIMTOLJ
 70
     1
  9
$DIMTZIN
 70
     0
  9
$DIMALTZ
 70
     0
  9
$DIMALTTZ
 70
     0
  9
$DIMUPT
 70
     0
  9
$DIMDEC
 70
     4
  9
$DIMTDEC
 70
     4
  9
$DIMALTU
 70
     2
  9
$DIMALTTD
 70
     2
  9
$DIMTXSTY
  7
Standard
  9
$DIMAUNIT
 70
     0
  9
$DIMADEC
 70
     0
  9
$DIMALTRND
 40
0.0
  9
$DIMAZIN
 70
     0
  9
$DIMDSEP
 70
    46
  9
$DIMATFIT
 70
     3
  9
$DIMFRAC
 70
     0
  9
$DIMLDRBLK
  1

  9
$DIMLUNIT
 70
     2
  9
$DIMLWD
 70
    -2
  9
$DIMLWE
 70
    -2
  9
$DIMTMOVE
 70
     2
  9
$LUNITS
 70
     2
  9
$LUPREC
 70
     2
  9
$SKETCHINC
 40
0.1
  9
$FILLETRAD
 40
0.5
  9
$AUNITS
 70
     0
  9
$AUPREC
 70
     0
  9
$MENU
  1
.
  9
$ELEVATION
 40
0.0
  9
$PELEVATION
 40
0.0
  9
$THICKNESS
 40
0.0
  9
$LIMCHECK
 70
     0
  9
$CHAMFERA
 40
0.5
  9
$CHAMFERB
 40
0.5
  9
$CHAMFERC
 40
1.0
  9
$CHAMFERD
 40
0.0
  9
$SKPOLY
 70
     0
  9
$TDCREATE
 40
2456710.68559228
  9
$TDUCREATE
 40
2456710.352258947
  9
$TDUPDATE
 40
2456710.685593183
  9
$TDUUPDATE
 40
2456710.35225985
  9
$TDINDWG
 40
0.0000000116
  9
$TDUSRTIMER
 40
0.0000000116
  9
$USRTIMER
 70
     1
  9
$ANGBASE
 50
0.0
  9
$ANGDIR
 70
     0
  9
$PDMODE
 70
     0
  9
$PDSIZE
 40
0.0
  9
$PLINEWID
 40
0.0
  9
$SPLFRAME
 70
     0
  9
$SPLINETYPE
 70
     6
  9
$SPLINESEGS
 70
     8
  9
$HANDSEED
  5
559
  9
$SURFTAB1
 70
     6
  9
$SURFTAB2
 70
     6
  9
$SURFTYPE
 70
     6
  9
$SURFU
 70
     6
  9
$SURFV
 70
     6
  9
$UCSBASE
  2

  9
$UCSNAME
  2

  9
$UCSORG
 10
0.0
 20
0.0
 30
0.0
  9
$UCSXDIR
 10
1.0
 20
0.0
 30
0.0
  9
$UCSYDIR
 10
0.0
 20
1.0
 30
0.0
  9
$UCSORTHOREF
  2

  9
$UCSORTHOVIEW
 70
     0
  9
$UCSORGTOP
 10
0.0
 20
0.0
 30
0.0
  9
$UCSORGBOTTOM
 10
0.0
 20
0.0
 30
0.0
  9
$UCSORGLEFT
 10
0.0
 20
0.0
 30
0.0
  9
$UCSORGRIGHT
 10
0.0
 20
0.0
 30
0.0
  9
$UCSORGFRONT
 10
0.0
 20
0.0
 30
0.0
  9
$UCSORGBACK
 10
0.0
 20
0.0
 30
0.0
  9
$PUCSBASE
  2

  9
$PUCSNAME
  2

  9
$PUCSORG
 10
0.0
 20
0.0
 30
0.0
  9
$PUCSXDIR
 10
1.0
 20
0.0
 30
0.0
  9
$PUCSYDIR
 10
0.0
 20
1.0
 30
0.0
  9
$PUCSORTHOREF
  2

  9
$PUCSORTHOVIEW
 70
     0
  9
$PUCSORGTOP
 10
0.0
 20
0.0
 30
0.0
  9
$PUCSORGBOTTOM
 10
0.0
 20
0.0
 30
0.0
  9
$PUCSORGLEFT
 10
0.0
 20
0.0
 30
0.0
  9
$PUCSORGRIGHT
 10
0.0
 20
0.0
 30
0.0
  9
$PUCSORGFRONT
 10
0.0
 20
0.0
 30
0.0
  9
$PUCSORGBACK
 10
0.0
 20
0.0
 30
0.0
  9
$USERI1
 70
     0
  9
$USERI2
 70
     0
  9
$USERI3
 70
     0
  9
$USERI4
 70
     0
  9
$USERI5
 70
     0
  9
$USERR1
 40
0.0
  9
$USERR2
 40
0.0
  9
$USERR3
 40
0.0
  9
$USERR4
 40
0.0
  9
$USERR5
 40
0.0
  9
$WORLDVIEW
 70
     1
  9
$SHADEDGE
 70
     3
  9
$SHADEDIF
 70
    70
  9
$TILEMODE
 70
     1
  9
$MAXACTVP
 70
    64
  9
$PINSBASE
 10
0.0
 20
0.0
 30
0.0
  9
$PLIMCHECK
 70
     0
  9
$PEXTMIN
 10
1.000000000000000E+20
 20
1.000000000000000E+20
 30
1.000000000000000E+20
  9
$PEXTMAX
 10
-1.000000000000000E+20
 20
-1.000000000000000E+20
 30
-1.000000000000000E+20
  9
$PLIMMIN
 10
0.0
 20
0.0
  9
$PLIMMAX
 10
12.0
 20
9.0
  9
$UNITMODE
 70
     0
  9
$VISRETAIN
 70
     1
  9
$PLINEGEN
 70
     0
  9
$PSLTSCALE
 70
     1
  9
$TREEDEPTH
 70
  3020
  9
$CMLSTYLE
  2
Standard
  9
$CMLJUST
 70
     0
  9
$CMLSCALE
 40
1.0
  9
$PROXYGRAPHICS
 70
     1
  9
$MEASUREMENT
 70
     0
  9
$CELWEIGHT
370
    -1
  9
$ENDCAPS
280
     0
  9
$JOINSTYLE
280
     0
  9
$LWDISPLAY
290
     0
  9
$INSUNITS
 70
     4
  9
$HYPERLINKBASE
  1

  9
$STYLESHEET
  1

  9
$XEDIT
290
     1
  9
$CEPSNTYPE
380
     0
  9
$PSTYLEMODE
290
     1
  9
$FINGERPRINTGUID
  2
{D8503565-DA3B-4569-9124-95A5560E64F6}
  9
$VERSIONGUID
  2
{FAEB1C32-E019-11D5-929B-00C0DF256EC4}
  9
$EXTNAMES
290
     1
  9
$PSVPSCALE
 40
0.0
  9
$OLESTARTUP
290
     0
  9
$SORTENTS
280
   127
  9
$INDEXCTL
280
     0
  9
$HIDETEXT
280
     1
  9
$XCLIPFRAME
290
     0
  9
$HALOGAP
280
     0
  9
$OBSCOLOR
 70
   257
  9
$OBSLTYPE
280
     0
  9
$INTERSECTIONDISPLAY
280
     0
  9
$INTERSECTIONCOLOR
 70
   257
  9
$DIMASSOC
280
     2
  9
$PROJECTNAME
  1

  0
ENDSEC
  0
SECTION
  2
CLASSES
  0
CLASS
  1
ACDBDICTIONARYWDFLT
  2
AcDbDictionaryWithDefault
  3
ObjectDBX Classes
 90
        0
 91
        4
280
     0
281
     0
  0
CLASS
  1
VISUALSTYLE
  2
AcDbVisualStyle
  3
ObjectDBX Classes
 90
     4095
 91
        4
280
     0
281
     0
  0
CLASS
  1
MATERIAL
  2
AcDbMaterial
  3
ObjectDBX Classes
 90
     1153
 91
        4
280
     0
281
     0
  0
CLASS
  1
SCALE
  2
AcDbScale
  3
ObjectDBX Classes
 90
     1153
 91
        4
280
     0
281
     0
  0
CLASS
  1
SUN
  2
AcDbSun
  3
SCENEOE
 90
     1153
 91
        4
280
     0
281
     0
  0
CLASS
  1
DICTIONARYVAR
  2
AcDbDictionaryVar
  3
ObjectDBX Classes
 90
        0
 91
        4
280
     0
281
     0
  0
ENDSEC
  0
SECTION
  2
TABLES
  0
TABLE
  2
VPORT
  5
8
330
0
100
AcDbSymbolTable
 70
     1
  0
VPORT
  5
29
330
8
100
AcDbSymbolTableRecord
100
AcDbViewportTableRecord
  2
*Active
 70
     0
 10
0.0
 20
0.0
 11
1.0
 21
1.0
 12
162.0150000000015
 22
1557.901553357856
 13
0.0
 23
0.0
 14
0.5
 24
0.5
 15
0.5
 25
0.5
 16
0.0
 26
0.0
 36
1.0
 17
0.0
 27
0.0
 37
0.0
 40
76.72439996577612
 41
4.307763894503328
 42
50.0
 43
0.0
 44
0.0
 50
0.0
 51
0.0
 71
     0
 72
   100
 73
     1
 74
     3
 75
     0
 76
     0
 77
     0
 78
     0
281
     0
 65
     1
110
0.0
120
0.0
130
0.0
111
1.0
121
0.0
131
0.0
112
0.0
122
1.0
132
0.0
 79
     0
146
0.0
  0
ENDTAB
  0
TABLE
  2
LTYPE
  5
5
330
0
100
AcDbSymbolTable
 70
     1
  0
LTYPE
  5
14
330
5
100
AcDbSymbolTableRecord
100
AcDbLinetypeTableRecord
  2
ByBlock
 70
     0
  3

 72
    65
 73
     0
 40
0.0
  0
LTYPE
  5
15
330
5
100
AcDbSymbolTableRecord
100
AcDbLinetypeTableRecord
  2
ByLayer
 70
     0
  3

 72
    65
 73
     0
 40
0.0
  0
LTYPE
  5
16
330
5
100
AcDbSymbolTableRecord
100
AcDbLinetypeTableRecord
  2
Continuous
 70
     0
  3
Solid line
 72
    65
 73
     0
 40
0.0
  0
ENDTAB
  0
TABLE
  2
LAYER
  5
2
330
0
100
AcDbSymbolTable
 70
     2
  0
LAYER
  5
10
330
2
100
AcDbSymbolTableRecord
100
AcDbLayerTableRecord
  2
0
 70
     0
 62
     7
  6
Continuous
370
    -3
390
F
  0
LAYER
  5
62
330
2
100
AcDbSymbolTableRecord
100
AcDbLayerTableRecord
  2
Make2D$可见线$普通线
 70
     0
 62
    18
420
        0
  6
Continuous
370
    -3
390
F
  0
ENDTAB
  0
TABLE
  2
STYLE
  5
3
330
0
100
AcDbSymbolTable
 70
     1
  0
STYLE
  5
11
330
3
100
AcDbSymbolTableRecord
100
AcDbTextStyleTableRecord
  2
Standard
 70
     0
 40
0.0
 41
1.0
 50
0.0
 71
     0
 42
0.2
  3
txt
  4

  0
ENDTAB
  0
TABLE
  2
VIEW
  5
6
330
0
100
AcDbSymbolTable
 70
     0
  0
ENDTAB
  0
TABLE
  2
UCS
  5
7
330
0
100
AcDbSymbolTable
 70
     0
  0
ENDTAB
  0
TABLE
  2
APPID
  5
9
330
0
100
AcDbSymbolTable
 70
     1
  0
APPID
  5
12
330
9
100
AcDbSymbolTableRecord
100
AcDbRegAppTableRecord
  2
ACAD
 70
     0
  0
ENDTAB
  0
TABLE
  2
DIMSTYLE
  5
A
330
0
100
AcDbSymbolTable
 70
     1
100
AcDbDimStyleTable
  0
DIMSTYLE
105
27
330
A
100
AcDbSymbolTableRecord
100
AcDbDimStyleTableRecord
  2
Standard
 70
     0
178
     0
340
11
  0
ENDTAB
  0
TABLE
  2
BLOCK_RECORD
  5
1
330
0
100
AcDbSymbolTable
 70
     1
  0
BLOCK_RECORD
  5
1F
330
1
100
AcDbSymbolTableRecord
100
AcDbBlockTableRecord
  2
*Model_Space
340
22
  0
BLOCK_RECORD
  5
1B
330
1
100
AcDbSymbolTableRecord
100
AcDbBlockTableRecord
  2
*Paper_Space
340
1E
  0
BLOCK_RECORD
  5
23
330
1
100
AcDbSymbolTableRecord
100
AcDbBlockTableRecord
  2
*Paper_Space0
340
26
  0
ENDTAB
  0
ENDSEC
  0
SECTION
  2
BLOCKS
  0
BLOCK
  5
20
330
1F
100
AcDbEntity
  8
0
100
AcDbBlockBegin
  2
*Model_Space
 70
     0
 10
0.0
 20
0.0
 30
0.0
  3
*Model_Space
  1
*Model_Space
  0
ENDBLK
  5
21
330
1F
100
AcDbEntity
  8
0
100
AcDbBlockEnd
  0
BLOCK
  5
1C
330
1B
100
AcDbEntity
 67
     1
  8
0
100
AcDbBlockBegin
  2
*Paper_Space
 70
     0
 10
0.0
 20
0.0
 30
0.0
  3
*Paper_Space
  1
*Paper_Space
  0
ENDBLK
  5
1D
330
1B
100
AcDbEntity
 67
     1
  8
0
100
AcDbBlockEnd
  0
BLOCK
  5
24
330
23
100
AcDbEntity
  8
0
100
AcDbBlockBegin
  2
*Paper_Space0
 70
     0
 10
0.0
 20
0.0
 30
0.0
  3
*Paper_Space0
  1
*Paper_Space0
  0
ENDBLK
  5
25
330
23
100
AcDbEntity
  8
0
100
AcDbBlockEnd
  0
ENDSEC
  0
SECTION
  2
ENTITIES
  0
ARC
  5
63
330
1F
100
AcDbEntity
  8
Make2D$可见线$普通线
100
AcDbCircle
 10
48.00023655032498
 20
1587.511533690713
 30
0.0
 40
1.999970075546798
100
AcDbArc
 50
221.0461216651934
 51
268.9210587125968
  0
POLYLINE
  5
64
330
1F
100
AcDbEntity
  8
Make2D$可见线$普通线
100
AcDb2dPolyline
 66
     1
 10
0.0
 20
0.0
 30
0.0
  0
VERTEX
  5
65
330
64
100
AcDbEntity
  8
Make2D$可见线$普通线
100
AcDbVertex
100
AcDb2dVertex
 10
149.9159789171912
 20
1533.687472339499
 30
0.0
 42
0.3879514618630684
  0
VERTEX
  5
66
330
64
100
AcDbEntity
  8
Make2D$可见线$普通线
100
AcDbVertex
100
AcDb2dVertex
 10
147.9283835077844
 20
1535.511534177609
 30
0.0
  0
VERTEX
  5
67
330
64
100
AcDbEntity
  8
Make2D$可见线$普通线
100
AcDbVertex
100
AcDb2dVertex
 10
55.45000020163913
 20
1535.51463284491
 30
0.0
  0
VERTEX
  5
68
330
64
100
AcDbEntity
  8
Make2D$可见线$普通线
100
AcDbVertex
100
AcDb2dVertex
 10
55.45000020163912
 20
1585.508473837249
 30
0.0
  0
VERTEX
  5
69
330
64
100
AcDbEntity
  8
Make2D$可见线$普通线
100
AcDbVertex
100
AcDb2dVertex
 10
267.5800002016392
 20
1585.511825010097
 30
0.0
 42
-0.4150334645644846
  0
VERTEX
  5
6A
330
64
100
AcDbEntity
  8
Make2D$可见线$普通线
100
AcDbVertex
100
AcDb2dVertex
 10
268.5800002016389
 20
1584.509932460096
 30
0.0
  0
VERTEX
  5
6B
330
64
100
AcDbEntity
  8
Make2D$可见线$普通线
100
AcDbVertex
100
AcDb2dVertex
 10
268.5800002016391
 20
1536.513174222062
 30
0.0
 42
-0.4151814799642607
  0
VERTEX
  5
6C
330
64
100
AcDbEntity
  8
Make2D$可见线$普通线
100
AcDbVertex
100
AcDb2dVertex
 10
267.5800002016392
 20
1535.511281672062
 30
0.0
  0
VERTEX
  5
6D
330
64
100
AcDbEntity
  8
Make2D$可见线$普通线
100
AcDbVertex
100
AcDb2dVertex
 10
176.1023193170571
 20
1535.511536863689
 30
0.0
 42
0.3962622716753266
  0
VERTEX
  5
6E
330
64
100
AcDbEntity
  8
Make2D$可见线$普通线
100
AcDbVertex
100
AcDb2dVertex
 10
174.1098291752901
 20
1533.630754161073
 30
0.0
  0
VERTEX
  5
6F
330
64
100
AcDbEntity
  8
Make2D$可见线$普通线
100
AcDbVertex
100
AcDb2dVertex
 10
174.1062730633523
 20
1533.513395736174
 30
0.0
  0
VERTEX
  5
70
330
64
100
AcDbEntity
  8
Make2D$可见线$普通线
100
AcDbVertex
100
AcDb2dVertex
 10
174.1062691863358
 20
1531.369288974567
 30
0.0
  0
VERTEX
  5
71
330
64
100
AcDbEntity
  8
Make2D$可见线$普通线
100
AcDbVertex
100
AcDb2dVertex
 10
149.923730813667
 20
1531.369288974567
 30
0.0
  0
VERTEX
  5
72
330
64
100
AcDbEntity
  8
Make2D$可见线$普通线
100
AcDbVertex
100
AcDb2dVertex
 10
149.923730813667
 20
1533.511553337481
 30
0.0
  0
SEQEND
  5
73
330
64
100
AcDbEntity
  8
Make2D$可见线$普通线
  0
POLYLINE
  5
74
330
1F
100
AcDbEntity
  8
Make2D$可见线$普通线
100
AcDb2dPolyline
 66
     1
 10
0.0
 20
0.0
 30
0.0
  0
VERTEX
  5
75
330
74
100
AcDbEntity
  8
Make2D$可见线$普通线
100
AcDbVertex
100
AcDb2dVertex
 10
172.3086831986854
 20
1524.196370539583
 30
0.0
  0
VERTEX
  5
76
330
74
100
AcDbEntity
  8
Make2D$可见线$普通线
100
AcDbVertex
100
AcDb2dVertex
 10
172.4153373450954
 20
1524.182962084611
 30
0.0
  0
VERTEX
  5
77
330
74
100
AcDbEntity
  8
Make2D$可见线$普通线
100
AcDbVertex
100
AcDb2dVertex
 10
172.4569969339375
 20
1524.176501901436
 30
0.0
  0
VERTEX
  5
78
330
74
100
AcDbEntity
  8
Make2D$可见线$普通线
100
AcDbVertex
100
AcDb2dVertex
 10
172.492279603533
 20
1524.17004410723
 30
0.0
  0
VERTEX
  5
79
330
74
100
AcDbEntity
  8
Make2D$可见线$普通线
100
AcDbVertex
100
AcDb2dVertex
 10
172.5075259204754
 20
1524.166815667924
 30
0.0
  0
VERTEX
  5
7A
330
74
100
AcDbEntity
  8
Make2D$可见线$普通线
100
AcDbVertex
100
AcDb2dVertex
 10
172.5211735998405
 20
1524.163587300179
 30
0.0
  0
VERTEX
  5
7B
330
74
100
AcDbEntity
  8
Make2D$可见线$普通线
100
AcDbVertex
100
AcDb2dVertex
 10
172.5332211723733
 20
1524.160358828771
 30
0.0
  0
VERTEX
  5
7C
330
74
100
AcDbEntity
  8
Make2D$可见线$普通线
100
AcDbVertex
100
AcDb2dVertex
 10
172.5386444594353
 20
1524.158744499434
 30
0.0
  0
VERTEX
  5
7D
330
74
100
AcDbEntity
  8
Make2D$可见线$普通线
100
AcDbVertex
100
AcDb2dVertex
 10
172.5436671688184
 20
1524.157130078471
 30
0.0
  0
VERTEX
  5
7E
330
74
100
AcDbEntity
  8
Make2D$可见线$普通线
100
AcDbVertex
100
AcDb2dVertex
 10
172.548289116866
 20
1524.155515543978
 30
0.0
  0
VERTEX
  5
7F
330
74
100
AcDbEntity
  8
Make2D$可见线$普通线
100
AcDbVertex
100
AcDb2dVertex
 10
172.5525101199209
 20
1524.153900874053
 30
0.0
  0
VERTEX
  5
80
330
74
100
AcDbEntity
  8
Make2D$可见线$普通线
100
AcDbVertex
100
AcDb2dVertex
 10
172.5544702096834
 20
1524.153093481459
 30
0.0
  0
VERTEX
  5
81
330
74
100
AcDbEntity
  8
Make2D$可见线$普通线
100
AcDbVertex
100
AcDb2dVertex
 10
172.5563299943263
 20
1524.152286046792
 30
0.0
  0
VERTEX
  5
82
330
74
100
AcDbEntity
  8
Make2D$可见线$普通线
100
AcDbVertex
100
AcDb2dVertex
 10
172.5580894508928
 20
1524.151478567316
 30
0.0
  0
VERTEX
  5
83
330
74
100
AcDbEntity
  8
Make2D$可见线$普通线
100
AcDbVertex
100
AcDb2dVertex
 10
172.5597485564255
 20
1524.150671040291
 30
0.0
  0
VERTEX
  5
84
330
74
100
AcDbEntity
  8
Make2D$可见线$普通线
100
AcDbVertex
100
AcDb2dVertex
 10
172.5613072879673
 20
1524.149863462982
 30
0.0
  0
VERTEX
  5
85
330
74
100
AcDbEntity
  8
Make2D$可见线$普通线
100
AcDbVertex
100
AcDb2dVertex
 10
172.5627656225613
 20
1524.149055832648
 30
0.0
  0
VERTEX
  5
86
330
74
100
AcDbEntity
  8
Make2D$可见线$普通线
100
AcDbVertex
100
AcDb2dVertex
 10
172.5641235372502
 20
1524.148248146553
 30
0.0
  0
VERTEX
  5
87
330
74
100
AcDbEntity
  8
Make2D$可见线$普通线
100
AcDbVertex
100
AcDb2dVertex
 10
172.5647648299561
 20
1524.147844281739
 30
0.0
  0
VERTEX
  5
88
330
74
100
AcDbEntity
  8
Make2D$可见线$普通线
100
AcDbVertex
100
AcDb2dVertex
 10
172.5653810090769
 20
1524.147440401958
 30
0.0
  0
VERTEX
  5
89
330
74
100
AcDbEntity
  8
Make2D$可见线$普通线
100
AcDbVertex
100
AcDb2dVertex
 10
172.5659720717429
 20
1524.147036506868
 30
0.0
  0
VERTEX
  5
8A
330
74
100
AcDbEntity
  8
Make2D$可见线$普通线
100
AcDbVertex
100
AcDb2dVertex
 10
172.5665380150844
 20
1524.146632596126
 30
0.0
  0
VERTEX
  5
8B
330
74
100
AcDbEntity
  8
Make2D$可见线$普通线
100
AcDbVertex
100
AcDb2dVertex
 10
172.5670788362318
 20
1524.146228669391
 30
0.0
  0
VERTEX
  5
8C
330
74
100
AcDbEntity
  8
Make2D$可见线$普通线
100
AcDbVertex
100
AcDb2dVertex
 10
172.5675945323155
 20
1524.145824726319
 30
0.0
  0
VERTEX
  5
8D
330
74
100
AcDbEntity
  8
Make2D$可见线$普通线
100
AcDbVertex
100
AcDb2dVertex
 10
172.5680851004658
 20
1524.145420766569
 30
0.0
  0
VERTEX
  5
8E
330
74
100
AcDbEntity
  8
Make2D$可见线$普通线
100
AcDbVertex
100
AcDb2dVertex
 10
172.5685505378131
 20
1524.145016789799
 30
0.0
  0
VERTEX
  5
8F
330
74
100
AcDbEntity
  8
Make2D$可见线$普通线
100
AcDbVertex
100
AcDb2dVertex
 10
172.5689908414877
 20
1524.144612795666
 30
0.0
  0
VERTEX
  5
90
330
74
100
AcDbEntity
  8
Make2D$可见线$普通线
100
AcDbVertex
100
AcDb2dVertex
 10
172.5694060086201
 20
1524.144208783827
 30
0.0
  0
VERTEX
  5
91
330
74
100
AcDbEntity
  8
Make2D$可见线$普通线
100
AcDbVertex
100
AcDb2dVertex
 10
172.5697960363405
 20
1524.143804753942
 30
0.0
  0
VERTEX
  5
92
330
74
100
AcDbEntity
  8
Make2D$可见线$普通线
100
AcDbVertex
100
AcDb2dVertex
 10
172.5701609217793
 20
1524.143400705667
 30
0.0
  0
VERTEX
  5
93
330
74
100
AcDbEntity
  8
Make2D$可见线$普通线
100
AcDbVertex
100
AcDb2dVertex
 10
172.5703339352464
 20
1524.143198674527
 30
0.0
  0
VERTEX
  5
94
330
74
100
AcDbEntity
  8
Make2D$可见线$普通线
100
AcDbVertex
100
AcDb2dVertex
 10
172.570500662067
 20
1524.14299663866
 30
0.0
  0
VERTEX
  5
95
330
74
100
AcDbEntity
  8
Make2D$可见线$普通线
100
AcDbVertex
100
AcDb2dVertex
 10
172.5706611018824
 20
1524.142794598026
 30
0.0
  0
VERTEX
  5
96
330
74
100
AcDbEntity
  8
Make2D$可见线$普通线
100
AcDbVertex
100
AcDb2dVertex
 10
172.5708152543338
 20
1524.14259255258
 30
0.0
  0
VERTEX
  5
97
330
74
100
AcDbEntity
  8
Make2D$可见线$普通线
100
AcDbVertex
100
AcDb2dVertex
 10
172.5709631190626
 20
1524.142390502279
 30
0.0
  0
VERTEX
  5
98
330
74
100
AcDbEntity
  8
Make2D$可见线$普通线
100
AcDbVertex
100
AcDb2dVertex
 10
172.5711046957101
 20
1524.142188447083
 30
0.0
  0
VERTEX
  5
99
330
74
100
AcDbEntity
  8
Make2D$可见线$普通线
100
AcDbVertex
100
AcDb2dVertex
 10
172.5712399839176
 20
1524.141986386946
 30
0.0
  0
VERTEX
  5
9A
330
74
100
AcDbEntity
  8
Make2D$可见线$普通线
100
AcDbVertex
100
AcDb2dVertex
 10
172.5713689833263
 20
1524.141784321827
 30
0.0
  0
VERTEX
  5
9B
330
74
100
AcDbEntity
  8
Make2D$可见线$普通线
100
AcDbVertex
100
AcDb2dVertex
 10
172.5714916935776
 20
1524.141582251683
 30
0.0
  0
VERTEX
  5
9C
330
74
100
AcDbEntity
  8
Make2D$可见线$普通线
100
AcDbVertex
100
AcDb2dVertex
 10
172.5716081143128
 20
1524.141380176471
 30
0.0
  0
VERTEX
  5
9D
330
74
100
AcDbEntity
  8
Make2D$可见线$普通线
100
AcDbVertex
100
AcDb2dVertex
 10
172.571718245173
 20
1524.141178096148
 30
0.0
  0
VERTEX
  5
9E
330
74
100
AcDbEntity
  8
Make2D$可见线$普通线
100
AcDbVertex
100
AcDb2dVertex
 10
172.5718220857998
 20
1524.140976010672
 30
0.0
  0
VERTEX
  5
9F
330
74
100
AcDbEntity
  8
Make2D$可见线$普通线
100
AcDbVertex
100
AcDb2dVertex
 10
172.5719196358342
 20
1524.140773919999
 30
0.0
  0
VERTEX
  5
A0
330
74
100
AcDbEntity
  8
Make2D$可见线$普通线
100
AcDbVertex
100
AcDb2dVertex
 10
172.5720108949178
 20
1524.140571824088
 30
0.0
  0
VERTEX
  5
A1
330
74
100
AcDbEntity
  8
Make2D$可见线$普通线
100
AcDbVertex
100
AcDb2dVertex
 10
172.5720958626916
 20
1524.140369722895
 30
0.0
  0
VERTEX
  5
A2
330
74
100
AcDbEntity
  8
Make2D$可见线$普通线
100
AcDbVertex
100
AcDb2dVertex
 10
172.572174538797
 20
1524.140167616376
 30
0.0
  0
VERTEX
  5
A3
330
74
100
AcDbEntity
  8
Make2D$可见线$普通线
100
AcDbVertex
100
AcDb2dVertex
 10
172.5722469228754
 20
1524.139965504491
 30
0.0
  0
VERTEX
  5
A4
330
74
100
AcDbEntity
  8
Make2D$可见线$普通线
100
AcDbVertex
100
AcDb2dVertex
 10
172.572313014568
 20
1524.139763387195
 30
0.0
  0
VERTEX
  5
A5
330
74
100
AcDbEntity
  8
Make2D$可见线$普通线
100
AcDbVertex
100
AcDb2dVertex
 10
172.5723728135161
 20
1524.139561264447
 30
0.0
  0
VERTEX
  5
A6
330
74
100
AcDbEntity
  8
Make2D$可见线$普通线
100
AcDbVertex
100
AcDb2dVertex
 10
172.5724263193611
 20
1524.139359136202
 30
0.0
  0
VERTEX
  5
A7
330
74
100
AcDbEntity
  8
Make2D$可见线$普通线
100
AcDbVertex
100
AcDb2dVertex
 10
172.5724735317441
 20
1524.139157002419
 30
0.0
  0
VERTEX
  5
A8
330
74
100
AcDbEntity
  8
Make2D$可见线$普通线
100
AcDbVertex
100
AcDb2dVertex
 10
172.5725144503065
 20
1524.138954863055
 30
0.0
  0
VERTEX
  5
A9
330
74
100
AcDbEntity
  8
Make2D$可见线$普通线
100
AcDbVertex
100
AcDb2dVertex
 10
172.5725490746896
 20
1524.138752718067
 30
0.0
  0
VERTEX
  5
AA
330
74
100
AcDbEntity
  8
Make2D$可见线$普通线
100
AcDbVertex
100
AcDb2dVertex
 10
172.5725774045347
 20
1524.138550567412
 30
0.0
  0
VERTEX
  5
AB
330
74
100
AcDbEntity
  8
Make2D$可见线$普通线
100
AcDbVertex
100
AcDb2dVertex
 10
172.5725994394831
 20
1524.138348411047
 30
0.0
  0
VERTEX
  5
AC
330
74
100
AcDbEntity
  8
Make2D$可见线$普通线
100
AcDbVertex
100
AcDb2dVertex
 10
172.572615179176
 20
1524.138146248929
 30
0.0
  0
VERTEX
  5
AD
330
74
100
AcDbEntity
  8
Make2D$可见线$普通线
100
AcDbVertex
100
AcDb2dVertex
 10
172.5726246232549
 20
1524.137944081017
 30
0.0
  0
VERTEX
  5
AE
330
74
100
AcDbEntity
  8
Make2D$可见线$普通线
100
AcDbVertex
100
AcDb2dVertex
 10
172.5726277713608
 20
1524.137741907266
 30
0.0
  0
VERTEX
  5
AF
330
74
100
AcDbEntity
  8
Make2D$可见线$普通线
100
AcDbVertex
100
AcDb2dVertex
 10
172.5726248155686
 20
1524.137546005786
 30
0.0
  0
VERTEX
  5
B0
330
74
100
AcDbEntity
  8
Make2D$可见线$普通线
100
AcDbVertex
100
AcDb2dVertex
 10
172.572615948245
 20
1524.137350105391
 30
0.0
  0
VERTEX
  5
B1
330
74
100
AcDbEntity
  8
Make2D$可见线$普通线
100
AcDbVertex
100
AcDb2dVertex
 10
172.5726011694691
 20
1524.137154206106
 30
0.0
  0
VERTEX
  5
B2
330
74
100
AcDbEntity
  8
Make2D$可见线$普通线
100
AcDbVertex
100
AcDb2dVertex
 10
172.5725804793205
 20
1524.136958307955
 30
0.0
  0
VERTEX
  5
B3
330
74
100
AcDbEntity
  8
Make2D$可见线$普通线
100
AcDbVertex
100
AcDb2dVertex
 10
172.5725538778783
 20
1524.136762410965
 30
0.0
  0
VERTEX
  5
B4
330
74
100
AcDbEntity
  8
Make2D$可见线$普通线
100
AcDbVertex
100
AcDb2dVertex
 10
172.5725213652219
 20
1524.136566515159
 30
0.0
  0
VERTEX
  5
B5
330
74
100
AcDbEntity
  8
Make2D$可见线$普通线
100
AcDbVertex
100
AcDb2dVertex
 10
172.5724829414306
 20
1524.136370620563
 30
0.0
  0
VERTEX
  5
B6
330
74
100
AcDbEntity
  8
Make2D$可见线$普通线
100
AcDbVertex
100
AcDb2dVertex
 10
172.5724386065837
 20
1524.136174727203
 30
0.0
  0
VERTEX
  5
B7
330
74
100
AcDbEntity
  8
Make2D$可见线$普通线
100
AcDbVertex
100
AcDb2dVertex
 10
172.5723883607605
 20
1524.135978835102
 30
0.0
  0
VERTEX
  5
B8
330
74
100
AcDbEntity
  8
Make2D$可见线$普通线
100
AcDbVertex
100
AcDb2dVertex
 10
172.5723322040404
 20
1524.135782944286
 30
0.0
  0
VERTEX
  5
B9
330
74
100
AcDbEntity
  8
Make2D$可见线$普通线
100
AcDbVertex
100
AcDb2dVertex
 10
172.5722701365027
 20
1524.135587054781
 30
0.0
  0
VERTEX
  5
BA
330
74
100
AcDbEntity
  8
Make2D$可见线$普通线
100
AcDbVertex
100
AcDb2dVertex
 10
172.5722021582267
 20
1524.135391166611
 30
0.0
  0
VERTEX
  5
BB
330
74
100
AcDbEntity
  8
Make2D$可见线$普通线
100
AcDbVertex
100
AcDb2dVertex
 10
172.5721282692917
 20
1524.1351952798
 30
0.0
  0
VERTEX
  5
BC
330
74
100
AcDbEntity
  8
Make2D$可见线$普通线
100
AcDbVertex
100
AcDb2dVertex
 10
172.5720484697771
 20
1524.134999394376
 30
0.0
  0
VERTEX
  5
BD
330
74
100
AcDbEntity
  8
Make2D$可见线$普通线
100
AcDbVertex
100
AcDb2dVertex
 10
172.5719627597621
 20
1524.134803510362
 30
0.0
  0
VERTEX
  5
BE
330
74
100
AcDbEntity
  8
Make2D$可见线$普通线
100
AcDbVertex
100
AcDb2dVertex
 10
172.571871139326
 20
1524.134607627782
 30
0.0
  0
VERTEX
  5
BF
330
74
100
AcDbEntity
  8
Make2D$可见线$普通线
100
AcDbVertex
100
AcDb2dVertex
 10
172.5717736085483
 20
1524.134411746664
 30
0.0
  0
VERTEX
  5
C0
330
74
100
AcDbEntity
  8
Make2D$可见线$普通线
100
AcDbVertex
100
AcDb2dVertex
 10
172.5716701675082
 20
1524.13421586703
 30
0.0
  0
VERTEX
  5
C1
330
74
100
AcDbEntity
  8
Make2D$可见线$普通线
100
AcDbVertex
100
AcDb2dVertex
 10
172.5715608162849
 20
1524.134019988908
 30
0.0
  0
VERTEX
  5
C2
330
74
100
AcDbEntity
  8
Make2D$可见线$普通线
100
AcDbVertex
100
AcDb2dVertex
 10
172.5714455549579
 20
1524.133824112321
 30
0.0
  0
VERTEX
  5
C3
330
74
100
AcDbEntity
  8
Make2D$可见线$普通线
100
AcDbVertex
100
AcDb2dVertex
 10
172.5713243836065
 20
1524.133628237294
 30
0.0
  0
VERTEX
  5
C4
330
74
100
AcDbEntity
  8
Make2D$可见线$普通线
100
AcDbVertex
100
AcDb2dVertex
 10
172.5711973023099
 20
1524.133432363854
 30
0.0
  0
VERTEX
  5
C5
330
74
100
AcDbEntity
  8
Make2D$可见线$普通线
100
AcDbVertex
100
AcDb2dVertex
 10
172.5710643111476
 20
1524.133236492024
 30
0.0
  0
VERTEX
  5
C6
330
74
100
AcDbEntity
  8
Make2D$可见线$普通线
100
AcDbVertex
100
AcDb2dVertex
 10
172.5709254101987
 20
1524.133040621829
 30
0.0
  0
VERTEX
  5
C7
330
74
100
AcDbEntity
  8
Make2D$可见线$普通线
100
AcDbVertex
100
AcDb2dVertex
 10
172.5707805995427
 20
1524.132844753296
 30
0.0
  0
VERTEX
  5
C8
330
74
100
AcDbEntity
  8
Make2D$可见线$普通线
100
AcDbVertex
100
AcDb2dVertex
 10
172.5706298792588
 20
1524.132648886448
 30
0.0
  0
VERTEX
  5
C9
330
74
100
AcDbEntity
  8
Make2D$可见线$普通线
100
AcDbVertex
100
AcDb2dVertex
 10
172.5704732494264
 20
1524.132453021311
 30
0.0
  0
VERTEX
  5
CA
330
74
100
AcDbEntity
  8
Make2D$可见线$普通线
100
AcDbVertex
100
AcDb2dVertex
 10
172.5703107101248
 20
1524.13225715791
 30
0.0
  0
VERTEX
  5
CB
330
74
100
AcDbEntity
  8
Make2D$可见线$普通线
100
AcDbVertex
100
AcDb2dVertex
 10
172.5699679034311
 20
1524.131865436417
 30
0.0
  0
VERTEX
  5
CC
330
74
100
AcDbEntity
  8
Make2D$可见线$普通线
100
AcDbVertex
100
AcDb2dVertex
 10
172.5696014598124
 20
1524.131473722167
 30
0.0
  0
VERTEX
  5
CD
330
74
100
AcDbEntity
  8
Make2D$可见线$普通线
100
AcDbVertex
100
AcDb2dVertex
 10
172.5692113799033
 20
1524.131082015363
 30
0.0
  0
VERTEX
  5
CE
330
74
100
AcDbEntity
  8
Make2D$可见线$普通线
100
AcDbVertex
100
AcDb2dVertex
 10
172.568797664338
 20
1524.130690316203
 30
0.0
  0
VERTEX
  5
CF
330
74
100
AcDbEntity
  8
Make2D$可见线$普通线
100
AcDbVertex
100
AcDb2dVertex
 10
172.5683603137514
 20
1524.130298624889
 30
0.0
  0
VERTEX
  5
D0
330
74
100
AcDbEntity
  8
Make2D$可见线$普通线
100
AcDbVertex
100
AcDb2dVertex
 10
172.567899328778
 20
1524.12990694162
 30
0.0
  0
VERTEX
  5
D1
330
74
100
AcDbEntity
  8
Make2D$可见线$普通线
100
AcDbVertex
100
AcDb2dVertex
 10
172.5674147100522
 20
1524.129515266598
 30
0.0
  0
VERTEX
  5
D2
330
74
100
AcDbEntity
  8
Make2D$可见线$普通线
100
AcDbVertex
100
AcDb2dVertex
 10
172.5669064582085
 20
1524.129123600022
 30
0.0
  0
VERTEX
  5
D3
330
74
100
AcDbEntity
  8
Make2D$可见线$普通线
100
AcDbVertex
100
AcDb2dVertex
 10
172.5663745738817
 20
1524.128731942094
 30
0.0
  0
VERTEX
  5
D4
330
74
100
AcDbEntity
  8
Make2D$可见线$普通线
100
AcDbVertex
100
AcDb2dVertex
 10
172.5658190577061
 20
1524.128340293012
 30
0.0
  0
VERTEX
  5
D5
330
74
100
AcDbEntity
  8
Make2D$可见线$普通线
100
AcDbVertex
100
AcDb2dVertex
 10
172.5652399103163
 20
1524.127948652978
 30
0.0
  0
VERTEX
  5
D6
330
74
100
AcDbEntity
  8
Make2D$可见线$普通线
100
AcDbVertex
100
AcDb2dVertex
 10
172.5646371323469
 20
1524.127557022192
 30
0.0
  0
VERTEX
  5
D7
330
74
100
AcDbEntity
  8
Make2D$可见线$普通线
100
AcDbVertex
100
AcDb2dVertex
 10
172.5633606872074
 20
1524.126773789167
 30
0.0
  0
VERTEX
  5
D8
330
74
100
AcDbEntity
  8
Make2D$可见线$普通线
100
AcDbVertex
100
AcDb2dVertex
 10
172.561989727364
 20
1524.125990595538
 30
0.0
  0
VERTEX
  5
D9
330
74
100
AcDbEntity
  8
Make2D$可见线$普通线
100
AcDbVertex
100
AcDb2dVertex
 10
172.5605242578929
 20
1524.125207442908
 30
0.0
 42
-0.0581472172595228
  0
VERTEX
  5
DA
330
74
100
AcDbEntity
  8
Make2D$可见线$普通线
100
AcDbVertex
100
AcDb2dVertex
 10
172.1215504124368
 20
1524.060974270876
 30
0.0
  0
VERTEX
  5
DB
330
74
100
AcDbEntity
  8
Make2D$可见线$普通线
100
AcDbVertex
100
AcDb2dVertex
 10
171.0769928053427
 20
1523.99676101882
 30
0.0
  0
VERTEX
  5
DC
330
74
100
AcDbEntity
  8
Make2D$可见线$普通线
100
AcDbVertex
100
AcDb2dVertex
 10
169.4803701903731
 20
1523.932232072008
 30
0.0
  0
VERTEX
  5
DD
330
74
100
AcDbEntity
  8
Make2D$可见线$普通线
100
AcDbVertex
100
AcDb2dVertex
 10
165.0916534692198
 20
1523.80410684255
 30
0.0
  0
VERTEX
  5
DE
330
74
100
AcDbEntity
  8
Make2D$可见线$普通线
100
AcDbVertex
100
AcDb2dVertex
 10
162.0150000000014
 20
1523.726744452301
 30
0.0
  0
VERTEX
  5
DF
330
74
100
AcDbEntity
  8
Make2D$可见线$普通线
100
AcDbVertex
100
AcDb2dVertex
 10
162.0150000000014
 20
1523.07636449088
 30
0.0
  0
VERTEX
  5
E0
330
74
100
AcDbEntity
  8
Make2D$可见线$普通线
100
AcDbVertex
100
AcDb2dVertex
 10
156.576783620705
 20
1522.934788644436
 30
0.0
  0
VERTEX
  5
E1
330
74
100
AcDbEntity
  8
Make2D$可见线$普通线
100
AcDbVertex
100
AcDb2dVertex
 10
154.5408858817421
 20
1522.870567997927
 30
0.0
  0
VERTEX
  5
E2
330
74
100
AcDbEntity
  8
Make2D$可见线$普通线
100
AcDbVertex
100
AcDb2dVertex
 10
152.9529382381494
 20
1522.806342367255
 30
0.0
  0
VERTEX
  5
E3
330
74
100
AcDbEntity
  8
Make2D$可见线$普通线
100
AcDbVertex
100
AcDb2dVertex
 10
151.9084250135029
 20
1522.742130339966
 30
0.0
 42
0.058131477255547
  0
VERTEX
  5
E4
330
74
100
AcDbEntity
  8
Make2D$可见线$普通线
100
AcDbVertex
100
AcDb2dVertex
 10
151.4694980010975
 20
1522.677910783694
 30
0.0
  0
VERTEX
  5
E5
330
74
100
AcDbEntity
  8
Make2D$可见线$普通线
100
AcDbVertex
100
AcDb2dVertex
 10
151.4680298369282
 20
1522.677126767118
 30
0.0
  0
VERTEX
  5
E6
330
74
100
AcDbEntity
  8
Make2D$可见线$普通线
100
AcDbVertex
100
AcDb2dVertex
 10
151.4666563560977
 20
1522.676342711114
 30
0.0
  0
VERTEX
  5
E7
330
74
100
AcDbEntity
  8
Make2D$可见线$普通线
100
AcDbVertex
100
AcDb2dVertex
 10
151.4653775637018
 20
1522.675558617481
 30
0.0
  0
VERTEX
  5
E8
330
74
100
AcDbEntity
  8
Make2D$可见线$普通线
100
AcDbVertex
100
AcDb2dVertex
 10
151.4647736772591
 20
1522.675166557116
 30
0.0
  0
VERTEX
  5
E9
330
74
100
AcDbEntity
  8
Make2D$可见线$普通线
100
AcDbVertex
100
AcDb2dVertex
 10
151.464193464836
 20
1522.674774488017
 30
0.0
  0
VERTEX
  5
EA
330
74
100
AcDbEntity
  8
Make2D$可见线$普通线
100
AcDbVertex
100
AcDb2dVertex
 10
151.4636369270694
 20
1522.674382410411
 30
0.0
  0
VERTEX
  5
EB
330
74
100
AcDbEntity
  8
Make2D$可见线$普通线
100
AcDbVertex
100
AcDb2dVertex
 10
151.4631040645962
 20
1522.67399032452
 30
0.0
  0
VERTEX
  5
EC
330
74
100
AcDbEntity
  8
Make2D$可见线$普通线
100
AcDbVertex
100
AcDb2dVertex
 10
151.4625948780535
 20
1522.673598230571
 30
0.0
  0
VERTEX
  5
ED
330
74
100
AcDbEntity
  8
Make2D$可见线$普通线
100
AcDbVertex
100
AcDb2dVertex
 10
151.4621093680781
 20
1522.673206128788
 30
0.0
  0
VERTEX
  5
EE
330
74
100
AcDbEntity
  8
Make2D$可见线$普通线
100
AcDbVertex
100
AcDb2dVertex
 10
151.461647535307
 20
1522.672814019396
 30
0.0
  0
VERTEX
  5
EF
330
74
100
AcDbEntity
  8
Make2D$可见线$普通线
100
AcDbVertex
100
AcDb2dVertex
 10
151.4612093803772
 20
1522.67242190262
 30
0.0
  0
VERTEX
  5
F0
330
74
100
AcDbEntity
  8
Make2D$可见线$普通线
100
AcDbVertex
100
AcDb2dVertex
 10
151.4607949039257
 20
1522.672029778683
 30
0.0
  0
VERTEX
  5
F1
330
74
100
AcDbEntity
  8
Make2D$可见线$普通线
100
AcDbVertex
100
AcDb2dVertex
 10
151.4604041065895
 20
1522.671637647811
 30
0.0
  0
VERTEX
  5
F2
330
74
100
AcDbEntity
  8
Make2D$可见线$普通线
100
AcDbVertex
100
AcDb2dVertex
 10
151.4600369890055
 20
1522.67124551023
 30
0.0
  0
VERTEX
  5
F3
330
74
100
AcDbEntity
  8
Make2D$可见线$普通线
100
AcDbVertex
100
AcDb2dVertex
 10
151.4596935518105
 20
1522.670853366163
 30
0.0
  0
VERTEX
  5
F4
330
74
100
AcDbEntity
  8
Make2D$可见线$普通线
100
AcDbVertex
100
AcDb2dVertex
 10
151.459530713558
 20
1522.670657291767
 30
0.0
  0
VERTEX
  5
F5
330
74
100
AcDbEntity
  8
Make2D$可见线$普通线
100
AcDbVertex
100
AcDb2dVertex
 10
151.4593737956417
 20
1522.670461215835
 30
0.0
  0
VERTEX
  5
F6
330
74
100
AcDbEntity
  8
Make2D$可见线$普通线
100
AcDbVertex
100
AcDb2dVertex
 10
151.4592227981412
 20
1522.670265138393
 30
0.0
  0
VERTEX
  5
F7
330
74
100
AcDbEntity
  8
Make2D$可见线$普通线
100
AcDbVertex
100
AcDb2dVertex
 10
151.459077721136
 20
1522.670069059471
 30
0.0
  0
VERTEX
  5
F8
330
74
100
AcDbEntity
  8
Make2D$可见线$普通线
100
AcDbVertex
100
AcDb2dVertex
 10
151.4589385647058
 20
1522.669872979096
 30
0.0
  0
VERTEX
  5
F9
330
74
100
AcDbEntity
  8
Make2D$可见线$普通线
100
AcDbVertex
100
AcDb2dVertex
 10
151.4588053289303
 20
1522.669676897296
 30
0.0
  0
VERTEX
  5
FA
330
74
100
AcDbEntity
  8
Make2D$可见线$普通线
100
AcDbVertex
100
AcDb2dVertex
 10
151.458678013889
 20
1522.6694808141
 30
0.0
  0
VERTEX
  5
FB
330
74
100
AcDbEntity
  8
Make2D$可见线$普通线
100
AcDbVertex
100
AcDb2dVertex
 10
151.4585566196616
 20
1522.669284729535
 30
0.0
  0
VERTEX
  5
FC
330
74
100
AcDbEntity
  8
Make2D$可见线$普通线
100
AcDbVertex
100
AcDb2dVertex
 10
151.4584411463277
 20
1522.669088643629
 30
0.0
  0
VERTEX
  5
FD
330
74
100
AcDbEntity
  8
Make2D$可见线$普通线
100
AcDbVertex
100
AcDb2dVertex
 10
151.4583315939669
 20
1522.668892556412
 30
0.0
  0
VERTEX
  5
FE
330
74
100
AcDbEntity
  8
Make2D$可见线$普通线
100
AcDbVertex
100
AcDb2dVertex
 10
151.4582279626588
 20
1522.66869646791
 30
0.0
  0
VERTEX
  5
FF
330
74
100
AcDbEntity
  8
Make2D$可见线$普通线
100
AcDbVertex
100
AcDb2dVertex
 10
151.4581302524831
 20
1522.668500378152
 30
0.0
  0
VERTEX
  5
100
330
74
100
AcDbEntity
  8
Make2D$可见线$普通线
100
AcDbVertex
100
AcDb2dVertex
 10
151.4580384635193
 20
1522.668304287165
 30
0.0
  0
VERTEX
  5
101
330
74
100
AcDbEntity
  8
Make2D$可见线$普通线
100
AcDbVertex
100
AcDb2dVertex
 10
151.4579525958472
 20
1522.66810819498
 30
0.0
  0
VERTEX
  5
102
330
74
100
AcDbEntity
  8
Make2D$可见线$普通线
100
AcDbVertex
100
AcDb2dVertex
 10
151.4578726495462
 20
1522.667912101622
 30
0.0
  0
VERTEX
  5
103
330
74
100
AcDbEntity
  8
Make2D$可见线$普通线
100
AcDbVertex
100
AcDb2dVertex
 10
151.4577986246962
 20
1522.66771600712
 30
0.0
  0
VERTEX
  5
104
330
74
100
AcDbEntity
  8
Make2D$可见线$普通线
100
AcDbVertex
100
AcDb2dVertex
 10
151.4577305213765
 20
1522.667519911503
 30
0.0
  0
VERTEX
  5
105
330
74
100
AcDbEntity
  8
Make2D$可见线$普通线
100
AcDbVertex
100
AcDb2dVertex
 10
151.457668339667
 20
1522.667323814798
 30
0.0
  0
VERTEX
  5
106
330
74
100
AcDbEntity
  8
Make2D$可见线$普通线
100
AcDbVertex
100
AcDb2dVertex
 10
151.4576120796471
 20
1522.667127717034
 30
0.0
  0
VERTEX
  5
107
330
74
100
AcDbEntity
  8
Make2D$可见线$普通线
100
AcDbVertex
100
AcDb2dVertex
 10
151.4575617413965
 20
1522.666931618238
 30
0.0
  0
VERTEX
  5
108
330
74
100
AcDbEntity
  8
Make2D$可见线$普通线
100
AcDbVertex
100
AcDb2dVertex
 10
151.4575173249949
 20
1522.666735518439
 30
0.0
  0
VERTEX
  5
109
330
74
100
AcDbEntity
  8
Make2D$可见线$普通线
100
AcDbVertex
100
AcDb2dVertex
 10
151.4574788305218
 20
1522.666539417664
 30
0.0
  0
VERTEX
  5
10A
330
74
100
AcDbEntity
  8
Make2D$可见线$普通线
100
AcDbVertex
100
AcDb2dVertex
 10
151.457446258057
 20
1522.666343315943
 30
0.0
  0
VERTEX
  5
10B
330
74
100
AcDbEntity
  8
Make2D$可见线$普通线
100
AcDbVertex
100
AcDb2dVertex
 10
151.4574196076799
 20
1522.666147213303
 30
0.0
  0
VERTEX
  5
10C
330
74
100
AcDbEntity
  8
Make2D$可见线$普通线
100
AcDbVertex
100
AcDb2dVertex
 10
151.4573988794702
 20
1522.665951109771
 30
0.0
  0
VERTEX
  5
10D
330
74
100
AcDbEntity
  8
Make2D$可见线$普通线
100
AcDbVertex
100
AcDb2dVertex
 10
151.4573840735076
 20
1522.665755005377
 30
0.0
  0
VERTEX
  5
10E
330
74
100
AcDbEntity
  8
Make2D$可见线$普通线
100
AcDbVertex
100
AcDb2dVertex
 10
151.4573751898716
 20
1522.665558900149
 30
0.0
  0
VERTEX
  5
10F
330
74
100
AcDbEntity
  8
Make2D$可见线$普通线
100
AcDbVertex
100
AcDb2dVertex
 10
151.457372228642
 20
1522.665362794113
 30
0.0
  0
VERTEX
  5
110
330
74
100
AcDbEntity
  8
Make2D$可见线$普通线
100
AcDbVertex
100
AcDb2dVertex
 10
151.4573753772401
 20
1522.66516057974
 30
0.0
  0
VERTEX
  5
111
330
74
100
AcDbEntity
  8
Make2D$可见线$普通线
100
AcDbVertex
100
AcDb2dVertex
 10
151.4573848227951
 20
1522.664958371691
 30
0.0
  0
VERTEX
  5
112
330
74
100
AcDbEntity
  8
Make2D$可见线$普通线
100
AcDbVertex
100
AcDb2dVertex
 10
151.4574005649483
 20
1522.66475616992
 30
0.0
  0
VERTEX
  5
113
330
74
100
AcDbEntity
  8
Make2D$可见线$普通线
100
AcDbVertex
100
AcDb2dVertex
 10
151.4574226033409
 20
1522.66455397438
 30
0.0
  0
VERTEX
  5
114
330
74
100
AcDbEntity
  8
Make2D$可见线$普通线
100
AcDbVertex
100
AcDb2dVertex
 10
151.457450937614
 20
1522.664351785028
 30
0.0
  0
VERTEX
  5
115
330
74
100
AcDbEntity
  8
Make2D$可见线$普通线
100
AcDbVertex
100
AcDb2dVertex
 10
151.4574855674088
 20
1522.664149601818
 30
0.0
  0
VERTEX
  5
116
330
74
100
AcDbEntity
  8
Make2D$可见线$普通线
100
AcDbVertex
100
AcDb2dVertex
 10
151.4575264923665
 20
1522.663947424703
 30
0.0
  0
VERTEX
  5
117
330
74
100
AcDbEntity
  8
Make2D$可见线$普通线
100
AcDbVertex
100
AcDb2dVertex
 10
151.4575737121284
 20
1522.663745253639
 30
0.0
  0
VERTEX
  5
118
330
74
100
AcDbEntity
  8
Make2D$可见线$普通线
100
AcDbVertex
100
AcDb2dVertex
 10
151.4576272263355
 20
1522.663543088581
 30
0.0
  0
VERTEX
  5
119
330
74
100
AcDbEntity
  8
Make2D$可见线$普通线
100
AcDbVertex
100
AcDb2dVertex
 10
151.4576870346292
 20
1522.663340929481
 30
0.0
  0
VERTEX
  5
11A
330
74
100
AcDbEntity
  8
Make2D$可见线$普通线
100
AcDbVertex
100
AcDb2dVertex
 10
151.4577531366506
 20
1522.663138776296
 30
0.0
  0
VERTEX
  5
11B
330
74
100
AcDbEntity
  8
Make2D$可见线$普通线
100
AcDbVertex
100
AcDb2dVertex
 10
151.4578255320408
 20
1522.66293662898
 30
0.0
  0
VERTEX
  5
11C
330
74
100
AcDbEntity
  8
Make2D$可见线$普通线
100
AcDbVertex
100
AcDb2dVertex
 10
151.4579042204411
 20
1522.662734487487
 30
0.0
  0
VERTEX
  5
11D
330
74
100
AcDbEntity
  8
Make2D$可见线$普通线
100
AcDbVertex
100
AcDb2dVertex
 10
151.4579892014927
 20
1522.662532351771
 30
0.0
  0
VERTEX
  5
11E
330
74
100
AcDbEntity
  8
Make2D$可见线$普通线
100
AcDbVertex
100
AcDb2dVertex
 10
151.4580804748367
 20
1522.662330221788
 30
0.0
  0
VERTEX
  5
11F
330
74
100
AcDbEntity
  8
Make2D$可见线$普通线
100
AcDbVertex
100
AcDb2dVertex
 10
151.4581780401144
 20
1522.662128097491
 30
0.0
  0
VERTEX
  5
120
330
74
100
AcDbEntity
  8
Make2D$可见线$普通线
100
AcDbVertex
100
AcDb2dVertex
 10
151.4582818969669
 20
1522.661925978836
 30
0.0
  0
VERTEX
  5
121
330
74
100
AcDbEntity
  8
Make2D$可见线$普通线
100
AcDbVertex
100
AcDb2dVertex
 10
151.4583920450355
 20
1522.661723865776
 30
0.0
  0
VERTEX
  5
122
330
74
100
AcDbEntity
  8
Make2D$可见线$普通线
100
AcDbVertex
100
AcDb2dVertex
 10
151.4585084839612
 20
1522.661521758267
 30
0.0
  0
VERTEX
  5
123
330
74
100
AcDbEntity
  8
Make2D$可见线$普通线
100
AcDbVertex
100
AcDb2dVertex
 10
151.4586312133854
 20
1522.661319656262
 30
0.0
  0
VERTEX
  5
124
330
74
100
AcDbEntity
  8
Make2D$可见线$普通线
100
AcDbVertex
100
AcDb2dVertex
 10
151.4587602329491
 20
1522.661117559717
 30
0.0
  0
VERTEX
  5
125
330
74
100
AcDbEntity
  8
Make2D$可见线$普通线
100
AcDbVertex
100
AcDb2dVertex
 10
151.4588955422938
 20
1522.660915468585
 30
0.0
  0
VERTEX
  5
126
330
74
100
AcDbEntity
  8
Make2D$可见线$普通线
100
AcDbVertex
100
AcDb2dVertex
 10
151.4590371410603
 20
1522.660713382822
 30
0.0
  0
VERTEX
  5
127
330
74
100
AcDbEntity
  8
Make2D$可见线$普通线
100
AcDbVertex
100
AcDb2dVertex
 10
151.4591850288901
 20
1522.660511302382
 30
0.0
  0
VERTEX
  5
128
330
74
100
AcDbEntity
  8
Make2D$可见线$普通线
100
AcDbVertex
100
AcDb2dVertex
 10
151.4593392054242
 20
1522.660309227219
 30
0.0
  0
VERTEX
  5
129
330
74
100
AcDbEntity
  8
Make2D$可见线$普通线
100
AcDbVertex
100
AcDb2dVertex
 10
151.459499670304
 20
1522.660107157288
 30
0.0
  0
VERTEX
  5
12A
330
74
100
AcDbEntity
  8
Make2D$可见线$普通线
100
AcDbVertex
100
AcDb2dVertex
 10
151.4596664231704
 20
1522.659905092543
 30
0.0
  0
VERTEX
  5
12B
330
74
100
AcDbEntity
  8
Make2D$可见线$普通线
100
AcDbVertex
100
AcDb2dVertex
 10
151.4598394636648
 20
1522.659703032939
 30
0.0
  0
VERTEX
  5
12C
330
74
100
AcDbEntity
  8
Make2D$可见线$普通线
100
AcDbVertex
100
AcDb2dVertex
 10
151.4602044061022
 20
1522.659298928973
 30
0.0
  0
VERTEX
  5
12D
330
74
100
AcDbEntity
  8
Make2D$可见线$普通线
100
AcDbVertex
100
AcDb2dVertex
 10
151.4605944947457
 20
1522.658894845024
 30
0.0
  0
VERTEX
  5
12E
330
74
100
AcDbEntity
  8
Make2D$可见线$普通线
100
AcDbVertex
100
AcDb2dVertex
 10
151.4610097267249
 20
1522.65849078073
 30
0.0
  0
VERTEX
  5
12F
330
74
100
AcDbEntity
  8
Make2D$可见线$普通线
100
AcDbVertex
100
AcDb2dVertex
 10
151.4614500991692
 20
1522.658086735726
 30
0.0
  0
VERTEX
  5
130
330
74
100
AcDbEntity
  8
Make2D$可见线$普通线
100
AcDbVertex
100
AcDb2dVertex
 10
151.4619156092081
 20
1522.657682709648
 30
0.0
  0
VERTEX
  5
131
330
74
100
AcDbEntity
  8
Make2D$可见线$普通线
100
AcDbVertex
100
AcDb2dVertex
 10
151.4624062539714
 20
1522.657278702133
 30
0.0
  0
VERTEX
  5
132
330
74
100
AcDbEntity
  8
Make2D$可见线$普通线
100
AcDbVertex
100
AcDb2dVertex
 10
151.4629220305884
 20
1522.656874712817
 30
0.0
  0
VERTEX
  5
133
330
74
100
AcDbEntity
  8
Make2D$可见线$普通线
100
AcDbVertex
100
AcDb2dVertex
 10
151.4634629361886
 20
1522.656470741335
 30
0.0
  0
VERTEX
  5
134
330
74
100
AcDbEntity
  8
Make2D$可见线$普通线
100
AcDbVertex
100
AcDb2dVertex
 10
151.4640289679018
 20
1522.656066787325
 30
0.0
  0
VERTEX
  5
135
330
74
100
AcDbEntity
  8
Make2D$可见线$普通线
100
AcDbVertex
100
AcDb2dVertex
 10
151.4646201228573
 20
1522.655662850422
 30
0.0
  0
VERTEX
  5
136
330
74
100
AcDbEntity
  8
Make2D$可见线$普通线
100
AcDbVertex
100
AcDb2dVertex
 10
151.4652363981847
 20
1522.655258930262
 30
0.0
  0
VERTEX
  5
137
330
74
100
AcDbEntity
  8
Make2D$可见线$普通线
100
AcDbVertex
100
AcDb2dVertex
 10
151.4658777910135
 20
1522.654855026482
 30
0.0
  0
VERTEX
  5
138
330
74
100
AcDbEntity
  8
Make2D$可见线$普通线
100
AcDbVertex
100
AcDb2dVertex
 10
151.4672359176935
 20
1522.654047266604
 30
0.0
  0
VERTEX
  5
139
330
74
100
AcDbEntity
  8
Make2D$可见线$普通线
100
AcDbVertex
100
AcDb2dVertex
 10
151.4686944799337
 20
1522.653239567878
 30
0.0
  0
VERTEX
  5
13A
330
74
100
AcDbEntity
  8
Make2D$可见线$普通线
100
AcDbVertex
100
AcDb2dVertex
 10
151.4702534547702
 20
1522.652431927393
 30
0.0
  0
VERTEX
  5
13B
330
74
100
AcDbEntity
  8
Make2D$可见线$普通线
100
AcDbVertex
100
AcDb2dVertex
 10
151.4719128192395
 20
1522.651624342238
 30
0.0
  0
VERTEX
  5
13C
330
74
100
AcDbEntity
  8
Make2D$可见线$普通线
100
AcDbVertex
100
AcDb2dVertex
 10
151.4736725503776
 20
1522.650816809502
 30
0.0
  0
VERTEX
  5
13D
330
74
100
AcDbEntity
  8
Make2D$可见线$普通线
100
AcDbVertex
100
AcDb2dVertex
 10
151.475532625221
 20
1522.650009326275
 30
0.0
  0
VERTEX
  5
13E
330
74
100
AcDbEntity
  8
Make2D$可见线$普通线
100
AcDbVertex
100
AcDb2dVertex
 10
151.4774930208059
 20
1522.649201889646
 30
0.0
  0
VERTEX
  5
13F
330
74
100
AcDbEntity
  8
Make2D$可见线$普通线
100
AcDbVertex
100
AcDb2dVertex
 10
151.4817146823452
 20
1522.647587144537
 30
0.0
  0
VERTEX
  5
140
330
74
100
AcDbEntity
  8
Make2D$可见线$普通线
100
AcDbVertex
100
AcDb2dVertex
 10
151.4863373512856
 20
1522.645972550889
 30
0.0
  0
VERTEX
  5
141
330
74
100
AcDbEntity
  8
Make2D$可见线$普通线
100
AcDbVertex
100
AcDb2dVertex
 10
151.4913608439173
 20
1522.644358085417
 30
0.0
  0
VERTEX
  5
142
330
74
100
AcDbEntity
  8
Make2D$可见线$普通线
100
AcDbVertex
100
AcDb2dVertex
 10
151.4967849765305
 20
1522.642743724834
 30
0.0
  0
VERTEX
  5
143
330
74
100
AcDbEntity
  8
Make2D$可见线$普通线
100
AcDbVertex
100
AcDb2dVertex
 10
151.5088344268619
 20
1522.639515225186
 30
0.0
  0
VERTEX
  5
144
330
74
100
AcDbEntity
  8
Make2D$可见线$普通线
100
AcDbVertex
100
AcDb2dVertex
 10
151.522484232601
 20
1522.636286865657
 30
0.0
  0
VERTEX
  5
145
330
74
100
AcDbEntity
  8
Make2D$可见线$普通线
100
AcDbVertex
100
AcDb2dVertex
 10
151.5377329240691
 20
1522.633058459954
 30
0.0
  0
VERTEX
  5
146
330
74
100
AcDbEntity
  8
Make2D$可见线$普通线
100
AcDbVertex
100
AcDb2dVertex
 10
151.5730210854773
 20
1522.626600764865
 30
0.0
  0
VERTEX
  5
147
330
74
100
AcDbEntity
  8
Make2D$可见线$普通线
100
AcDbVertex
100
AcDb2dVertex
 10
151.6146871536564
 20
1522.620140649589
 30
0.0
  0
VERTEX
  5
148
330
74
100
AcDbEntity
  8
Make2D$可见线$普通线
100
AcDbVertex
100
AcDb2dVertex
 10
151.6627193711767
 20
1522.613676623798
 30
0.0
  0
VERTEX
  5
149
330
74
100
AcDbEntity
  8
Make2D$可见线$普通线
100
AcDbVertex
100
AcDb2dVertex
 10
151.765465143169
 20
1522.602000068786
 30
0.0
  0
SEQEND
  5
14A
330
74
100
AcDbEntity
  8
Make2D$可见线$普通线
  0
POLYLINE
  5
14B
330
1F
100
AcDbEntity
  8
Make2D$可见线$普通线
100
AcDb2dPolyline
 66
     1
 10
0.0
 20
0.0
 30
0.0
  0
VERTEX
  5
14C
330
14B
100
AcDbEntity
  8
Make2D$可见线$普通线
100
AcDbVertex
100
AcDb2dVertex
 10
162.0150000000014
 20
1524.720362785725
 30
0.0
  0
VERTEX
  5
14D
330
14B
100
AcDbEntity
  8
Make2D$可见线$普通线
100
AcDbVertex
100
AcDb2dVertex
 10
167.4318755554263
 20
1524.861342358867
 30
0.0
  0
VERTEX
  5
14E
330
14B
100
AcDbEntity
  8
Make2D$可见线$普通线
100
AcDbVertex
100
AcDb2dVertex
 10
169.4803701903731
 20
1524.925874634268
 30
0.0
  0
VERTEX
  5
14F
330
14B
100
AcDbEntity
  8
Make2D$可见线$普通线
100
AcDbVertex
100
AcDb2dVertex
 10
171.0642710629397
 20
1524.989788636048
 30
0.0
  0
VERTEX
  5
150
330
14B
100
AcDbEntity
  8
Make2D$可见线$普通线
100
AcDbVertex
100
AcDb2dVertex
 10
172.1143666818384
 20
1525.053997757463
 30
0.0
  0
VERTEX
  5
151
330
14B
100
AcDbEntity
  8
Make2D$可见线$普通线
100
AcDbVertex
100
AcDb2dVertex
 10
172.2582259437219
 20
1525.067354796401
 30
0.0
  0
VERTEX
  5
152
330
14B
100
AcDbEntity
  8
Make2D$可见线$普通线
100
AcDbVertex
100
AcDb2dVertex
 10
172.2841267527175
 20
1525.070060622258
 30
0.0
 42
0.0604598312334026
  0
VERTEX
  5
153
330
14B
100
AcDbEntity
  8
Make2D$可见线$普通线
100
AcDbVertex
100
AcDb2dVertex
 10
172.5593107287796
 20
1525.118225497964
 30
0.0
  0
VERTEX
  5
154
330
14B
100
AcDbEntity
  8
Make2D$可见线$普通线
100
AcDbVertex
100
AcDb2dVertex
 10
172.5726277713608
 20
1525.131364482491
 30
0.0
  0
VERTEX
  5
155
330
14B
100
AcDbEntity
  8
Make2D$可见线$普通线
100
AcDbVertex
100
AcDb2dVertex
 10
172.5726277713608
 20
1525.781742248196
 30
0.0
  0
SEQEND
  5
156
330
14B
100
AcDbEntity
  8
Make2D$可见线$普通线
  0
POLYLINE
  5
157
330
1F
100
AcDbEntity
  8
Make2D$可见线$普通线
100
AcDb2dPolyline
 66
     1
 10
0.0
 20
0.0
 30
0.0
  0
VERTEX
  5
158
330
157
100
AcDbEntity
  8
Make2D$可见线$普通线
100
AcDbVertex
100
AcDb2dVertex
 10
151.7398076276808
 20
1527.536706491536
 30
0.0
  0
VERTEX
  5
159
330
157
100
AcDbEntity
  8
Make2D$可见线$普通线
100
AcDbVertex
100
AcDb2dVertex
 10
151.5735070681973
 20
1527.558514908142
 30
0.0
 42
-0.1868720581593173
  0
VERTEX
  5
15A
330
157
100
AcDbEntity
  8
Make2D$可见线$普通线
100
AcDbVertex
100
AcDb2dVertex
 10
151.457372228642
 20
1527.597343751437
 30
0.0
 42
-0.2382759034171642
  0
VERTEX
  5
15B
330
157
100
AcDbEntity
  8
Make2D$可见线$普通线
100
AcDbVertex
100
AcDb2dVertex
 10
151.5070360903743
 20
1527.622751128151
 30
0.0
 42
-0.0334232395671754
  0
VERTEX
  5
15C
330
157
100
AcDbEntity
  8
Make2D$可见线$普通线
100
AcDbVertex
100
AcDb2dVertex
 10
152.0703612916137
 20
1527.686960569489
 30
0.0
  0
VERTEX
  5
15D
330
157
100
AcDbEntity
  8
Make2D$可见线$普通线
100
AcDbVertex
100
AcDb2dVertex
 10
153.2298967862388
 20
1527.751195953644
 30
0.0
  0
VERTEX
  5
15E
330
157
100
AcDbEntity
  8
Make2D$可见线$普通线
100
AcDbVertex
100
AcDb2dVertex
 10
154.9158467228222
 20
1527.815394744955
 30
0.0
  0
VERTEX
  5
15F
330
157
100
AcDbEntity
  8
Make2D$可见线$普通线
100
AcDbVertex
100
AcDb2dVertex
 10
159.4385330689168
 20
1527.943847026143
 30
0.0
  0
VERTEX
  5
160
330
157
100
AcDbEntity
  8
Make2D$可见线$普通线
100
AcDbVertex
100
AcDb2dVertex
 10
162.0026272936447
 20
1528.008067985019
 30
0.0
  0
VERTEX
  5
161
330
157
100
AcDbEntity
  8
Make2D$可见线$普通线
100
AcDbVertex
100
AcDb2dVertex
 10
162.0150000000014
 20
1528.008221266438
 30
0.0
 42
-0.9900794816896255
  0
VERTEX
  5
162
330
157
100
AcDbEntity
  8
Make2D$可见线$普通线
100
AcDbVertex
100
AcDb2dVertex
 10
162.0273727063583
 20
1527.01503869714
 30
0.0
  0
VERTEX
  5
163
330
157
100
AcDbEntity
  8
Make2D$可见线$普通线
100
AcDbVertex
100
AcDb2dVertex
 10
162.0150000000014
 20
1527.014733968308
 30
0.0
  0
VERTEX
  5
164
330
157
100
AcDbEntity
  8
Make2D$可见线$普通线
100
AcDbVertex
100
AcDb2dVertex
 10
162.0150000000014
 20
1526.364352374311
 30
0.0
  0
VERTEX
  5
165
330
157
100
AcDbEntity
  8
Make2D$可见线$普通线
100
AcDbVertex
100
AcDb2dVertex
 10
156.1393502554105
 20
1526.209938308854
 30
0.0
  0
VERTEX
  5
166
330
157
100
AcDbEntity
  8
Make2D$可见线$普通线
100
AcDbVertex
100
AcDb2dVertex
 10
154.1842028043325
 20
1526.14572549377
 30
0.0
  0
VERTEX
  5
167
330
157
100
AcDbEntity
  8
Make2D$可见线$普通线
100
AcDbVertex
100
AcDb2dVertex
 10
152.698089320763
 20
1526.081497753269
 30
0.0
  0
VERTEX
  5
168
330
157
100
AcDbEntity
  8
Make2D$可见线$普通线
100
AcDbVertex
100
AcDb2dVertex
 10
152.2340814573068
 20
1526.054634043791
 30
0.0
  0
VERTEX
  5
169
330
157
100
AcDbEntity
  8
Make2D$可见线$普通线
100
AcDbVertex
100
AcDb2dVertex
 10
151.7707993872423
 20
1526.017288631853
 30
0.0
  0
SEQEND
  5
16A
330
157
100
AcDbEntity
  8
Make2D$可见线$普通线
  0
POLYLINE
  5
16B
330
1F
100
AcDbEntity
  8
Make2D$可见线$普通线
100
AcDb2dPolyline
 66
     1
 10
0.0
 20
0.0
 30
0.0
  0
VERTEX
  5
16C
330
16B
100
AcDbEntity
  8
Make2D$可见线$普通线
100
AcDbVertex
100
AcDb2dVertex
 10
162.0150000000014
 20
1526.364352374311
 30
0.0
  0
VERTEX
  5
16D
330
16B
100
AcDbEntity
  8
Make2D$可见线$普通线
100
AcDbVertex
100
AcDb2dVertex
 10
168.2940021802704
 20
1526.531015127599
 30
0.0
  0
VERTEX
  5
16E
330
16B
100
AcDbEntity
  8
Make2D$可见线$普通线
100
AcDbVertex
100
AcDb2dVertex
 10
170.1685092997592
 20
1526.595250423504
 30
0.0
  0
VERTEX
  5
16F
330
16B
100
AcDbEntity
  8
Make2D$可见线$普通线
100
AcDbVertex
100
AcDb2dVertex
 10
171.5536659699775
 20
1526.65946212861
 30
0.0
  0
VERTEX
  5
170
330
16B
100
AcDbEntity
  8
Make2D$可见线$普通线
100
AcDbVertex
100
AcDb2dVertex
 10
171.9609562446519
 20
1526.685450322009
 30
0.0
  0
VERTEX
  5
171
330
16B
100
AcDbEntity
  8
Make2D$可见线$普通线
100
AcDbVertex
100
AcDb2dVertex
 10
172.3672806288261
 20
1526.723676607022
 30
0.0
  0
VERTEX
  5
172
330
16B
100
AcDbEntity
  8
Make2D$可见线$普通线
100
AcDbVertex
100
AcDb2dVertex
 10
172.4153128426099
 20
1526.730141569959
 30
0.0
  0
VERTEX
  5
173
330
16B
100
AcDbEntity
  8
Make2D$可见线$普通线
100
AcDbVertex
100
AcDb2dVertex
 10
172.4569789090352
 20
1526.736602523135
 30
0.0
  0
VERTEX
  5
174
330
16B
100
AcDbEntity
  8
Make2D$可见线$普通线
100
AcDbVertex
100
AcDb2dVertex
 10
172.4922670702146
 20
1526.743060910388
 30
0.0
  0
VERTEX
  5
175
330
16B
100
AcDbEntity
  8
Make2D$可见线$普通线
100
AcDbVertex
100
AcDb2dVertex
 10
172.5075157619973
 20
1526.746289592992
 30
0.0
  0
VERTEX
  5
176
330
16B
100
AcDbEntity
  8
Make2D$可见线$普通线
100
AcDbVertex
100
AcDb2dVertex
 10
172.5211655682606
 20
1526.749518175554
 30
0.0
  0
VERTEX
  5
177
330
16B
100
AcDbEntity
  8
Make2D$可见线$普通线
100
AcDbVertex
100
AcDb2dVertex
 10
172.5332150192687
 20
1526.752746838554
 30
0.0
  0
VERTEX
  5
178
330
16B
100
AcDbEntity
  8
Make2D$可见线$普通线
100
AcDbVertex
100
AcDb2dVertex
 10
172.5386391522596
 20
1526.754361256619
 30
0.0
  0
VERTEX
  5
179
330
16B
100
AcDbEntity
  8
Make2D$可见线$普通线
100
AcDbVertex
100
AcDb2dVertex
 10
172.5436626452857
 20
1526.755975762472
 30
0.0
  0
VERTEX
  5
17A
330
16B
100
AcDbEntity
  8
Make2D$可见线$普通线
100
AcDbVertex
100
AcDb2dVertex
 10
172.54828531463
 20
1526.757590378675
 30
0.0
  0
VERTEX
  5
17B
330
16B
100
AcDbEntity
  8
Make2D$可见线$普通线
100
AcDbVertex
100
AcDb2dVertex
 10
172.5525069765756
 20
1526.759205127787
 30
0.0
  0
VERTEX
  5
17C
330
16B
100
AcDbEntity
  8
Make2D$可见线$普通线
100
AcDbVertex
100
AcDb2dVertex
 10
172.5544673723623
 20
1526.760012559235
 30
0.0
  0
VERTEX
  5
17D
330
16B
100
AcDbEntity
  8
Make2D$可见线$普通线
100
AcDbVertex
100
AcDb2dVertex
 10
172.5563274474054
 20
1526.760820032369
 30
0.0
  0
VERTEX
  5
17E
330
16B
100
AcDbEntity
  8
Make2D$可见线$普通线
100
AcDbVertex
100
AcDb2dVertex
 10
172.5580871787403
 20
1526.761627550011
 30
0.0
  0
VERTEX
  5
17F
330
16B
100
AcDbEntity
  8
Make2D$可见线$普通线
100
AcDbVertex
100
AcDb2dVertex
 10
172.5597465434025
 20
1526.76243511498
 30
0.0
  0
VERTEX
  5
180
330
16B
100
AcDbEntity
  8
Make2D$可见线$普通线
100
AcDbVertex
100
AcDb2dVertex
 10
172.5613055184272
 20
1526.763242730096
 30
0.0
  0
VERTEX
  5
181
330
16B
100
AcDbEntity
  8
Make2D$可见线$普通线
100
AcDbVertex
100
AcDb2dVertex
 10
172.5627640808498
 20
1526.76405039818
 30
0.0
  0
VERTEX
  5
182
330
16B
100
AcDbEntity
  8
Make2D$可见线$普通线
100
AcDbVertex
100
AcDb2dVertex
 10
172.5641222077057
 20
1526.764858122051
 30
0.0
  0
VERTEX
  5
183
330
16B
100
AcDbEntity
  8
Make2D$可见线$普通线
100
AcDbVertex
100
AcDb2dVertex
 10
172.5647636006197
 20
1526.765262005787
 30
0.0
  0
VERTEX
  5
184
330
16B
100
AcDbEntity
  8
Make2D$可见线$普通线
100
AcDbVertex
100
AcDb2dVertex
 10
172.5653798760304
 20
1526.765665904529
 30
0.0
  0
VERTEX
  5
185
330
16B
100
AcDbEntity
  8
Make2D$可见线$普通线
100
AcDbVertex
100
AcDb2dVertex
 10
172.565971031067
 20
1526.766069818627
 30
0.0
  0
VERTEX
  5
186
330
16B
100
AcDbEntity
  8
Make2D$可见线$普通线
100
AcDbVertex
100
AcDb2dVertex
 10
172.566537062859
 20
1526.766473748435
 30
0.0
  0
VERTEX
  5
187
330
16B
100
AcDbEntity
  8
Make2D$可见线$普通线
100
AcDbVertex
100
AcDb2dVertex
 10
172.567077968536
 20
1526.766877694304
 30
0.0
  0
VERTEX
  5
188
330
16B
100
AcDbEntity
  8
Make2D$可见线$普通线
100
AcDbVertex
100
AcDb2dVertex
 10
172.5675937452272
 20
1526.767281656587
 30
0.0
  0
VERTEX
  5
189
330
16B
100
AcDbEntity
  8
Make2D$可见线$普通线
100
AcDbVertex
100
AcDb2dVertex
 10
172.5680843900621
 20
1526.767685635637
 30
0.0
  0
VERTEX
  5
18A
330
16B
100
AcDbEntity
  8
Make2D$可见线$普通线
100
AcDbVertex
100
AcDb2dVertex
 10
172.5685499001701
 20
1526.768089631807
 30
0.0
  0
VERTEX
  5
18B
330
16B
100
AcDbEntity
  8
Make2D$可见线$普通线
100
AcDbVertex
100
AcDb2dVertex
 10
172.5689902726807
 20
1526.768493645449
 30
0.0
  0
VERTEX
  5
18C
330
16B
100
AcDbEntity
  8
Make2D$可见线$普通线
100
AcDbVertex
100
AcDb2dVertex
 10
172.5694055047233
 20
1526.768897676915
 30
0.0
  0
VERTEX
  5
18D
330
16B
100
AcDbEntity
  8
Make2D$可见线$普通线
100
AcDbVertex
100
AcDb2dVertex
 10
172.5697955934273
 20
1526.769301726557
 30
0.0
  0
VERTEX
  5
18E
330
16B
100
AcDbEntity
  8
Make2D$可见线$普通线
100
AcDbVertex
100
AcDb2dVertex
 10
172.570160535922
 20
1526.769705794729
 30
0.0
  0
VERTEX
  5
18F
330
16B
100
AcDbEntity
  8
Make2D$可见线$普通线
100
AcDbVertex
100
AcDb2dVertex
 10
172.5703335764439
 20
1526.769907835874
 30
0.0
  0
VERTEX
  5
190
330
16B
100
AcDbEntity
  8
Make2D$可见线$普通线
100
AcDbVertex
100
AcDb2dVertex
 10
172.5705003293371
 20
1526.770109881783
 30
0.0
  0
VERTEX
  5
191
330
16B
100
AcDbEntity
  8
Make2D$可见线$普通线
100
AcDbVertex
100
AcDb2dVertex
 10
172.5706607942426
 20
1526.770311932501
 30
0.0
  0
VERTEX
  5
192
330
16B
100
AcDbEntity
  8
Make2D$可见线$普通线
100
AcDbVertex
100
AcDb2dVertex
 10
172.5708149708017
 20
1526.770513988071
 30
0.0
  0
VERTEX
  5
193
330
16B
100
AcDbEntity
  8
Make2D$可见线$普通线
100
AcDbVertex
100
AcDb2dVertex
 10
172.5709628586556
 20
1526.770716048538
 30
0.0
  0
VERTEX
  5
194
330
16B
100
AcDbEntity
  8
Make2D$可见线$普通线
100
AcDbVertex
100
AcDb2dVertex
 10
172.5711044574454
 20
1526.770918113946
 30
0.0
  0
VERTEX
  5
195
330
16B
100
AcDbEntity
  8
Make2D$可见线$普通线
100
AcDbVertex
100
AcDb2dVertex
 10
172.5712397668124
 20
1526.771120184339
 30
0.0
  0
VERTEX
  5
196
330
16B
100
AcDbEntity
  8
Make2D$可见线$普通线
100
AcDbVertex
100
AcDb2dVertex
 10
172.5713687863977
 20
1526.77132225976
 30
0.0
  0
VERTEX
  5
197
330
16B
100
AcDbEntity
  8
Make2D$可见线$普通线
100
AcDbVertex
100
AcDb2dVertex
 10
172.5714915158425
 20
1526.771524340254
 30
0.0
  0
VERTEX
  5
198
330
16B
100
AcDbEntity
  8
Make2D$可见线$普通线
100
AcDbVertex
100
AcDb2dVertex
 10
172.5716079547879
 20
1526.771726425866
 30
0.0
  0
VERTEX
  5
199
330
16B
100
AcDbEntity
  8
Make2D$可见线$普通线
100
AcDbVertex
100
AcDb2dVertex
 10
172.5717181028752
 20
1526.771928516639
 30
0.0
  0
VERTEX
  5
19A
330
16B
100
AcDbEntity
  8
Make2D$可见线$普通线
100
AcDbVertex
100
AcDb2dVertex
 10
172.5718219597454
 20
1526.772130612616
 30
0.0
  0
VERTEX
  5
19B
330
16B
100
AcDbEntity
  8
Make2D$可见线$普通线
100
AcDbVertex
100
AcDb2dVertex
 10
172.5719195250399
 20
1526.772332713843
 30
0.0
  0
VERTEX
  5
19C
330
16B
100
AcDbEntity
  8
Make2D$可见线$普通线
100
AcDbVertex
100
AcDb2dVertex
 10
172.5720107983998
 20
1526.772534820363
 30
0.0
  0
VERTEX
  5
19D
330
16B
100
AcDbEntity
  8
Make2D$可见线$普通线
100
AcDbVertex
100
AcDb2dVertex
 10
172.5720957794662
 20
1526.772736932221
 30
0.0
  0
VERTEX
  5
19E
330
16B
100
AcDbEntity
  8
Make2D$可见线$普通线
100
AcDbVertex
100
AcDb2dVertex
 10
172.5721744678802
 20
1526.77293904946
 30
0.0
  0
VERTEX
  5
19F
330
16B
100
AcDbEntity
  8
Make2D$可见线$普通线
100
AcDbVertex
100
AcDb2dVertex
 10
172.5722468632832
 20
1526.773141172124
 30
0.0
  0
VERTEX
  5
1A0
330
16B
100
AcDbEntity
  8
Make2D$可见线$普通线
100
AcDbVertex
100
AcDb2dVertex
 10
172.5723129653163
 20
1526.773343300258
 30
0.0
  0
VERTEX
  5
1A1
330
16B
100
AcDbEntity
  8
Make2D$可见线$普通线
100
AcDbVertex
100
AcDb2dVertex
 10
172.5723727736207
 20
1526.773545433905
 30
0.0
  0
VERTEX
  5
1A2
330
16B
100
AcDbEntity
  8
Make2D$可见线$普通线
100
AcDbVertex
100
AcDb2dVertex
 10
172.5724262878375
 20
1526.77374757311
 30
0.0
  0
VERTEX
  5
1A3
330
16B
100
AcDbEntity
  8
Make2D$可见线$普通线
100
AcDbVertex
100
AcDb2dVertex
 10
172.5724735076079
 20
1526.773949717917
 30
0.0
  0
VERTEX
  5
1A4
330
16B
100
AcDbEntity
  8
Make2D$可见线$普通线
100
AcDbVertex
100
AcDb2dVertex
 10
172.5725144325731
 20
1526.774151868369
 30
0.0
  0
VERTEX
  5
1A5
330
16B
100
AcDbEntity
  8
Make2D$可见线$普通线
100
AcDbVertex
100
AcDb2dVertex
 10
172.5725490623743
 20
1526.774354024512
 30
0.0
  0
VERTEX
  5
1A6
330
16B
100
AcDbEntity
  8
Make2D$可见线$普通线
100
AcDbVertex
100
AcDb2dVertex
 10
172.5725773966525
 20
1526.774556186388
 30
0.0
  0
VERTEX
  5
1A7
330
16B
100
AcDbEntity
  8
Make2D$可见线$普通线
100
AcDbVertex
100
AcDb2dVertex
 10
172.5725994350492
 20
1526.774758354042
 30
0.0
  0
VERTEX
  5
1A8
330
16B
100
AcDbEntity
  8
Make2D$可见线$普通线
100
AcDbVertex
100
AcDb2dVertex
 10
172.5726151772053
 20
1526.774960527518
 30
0.0
  0
VERTEX
  5
1A9
330
16B
100
AcDbEntity
  8
Make2D$可见线$普通线
100
AcDbVertex
100
AcDb2dVertex
 10
172.5726246227621
 20
1526.775162706861
 30
0.0
  0
VERTEX
  5
1AA
330
16B
100
AcDbEntity
  8
Make2D$可见线$普通线
100
AcDbVertex
100
AcDb2dVertex
 10
172.5726277713608
 20
1526.775364892113
 30
0.0
  0
VERTEX
  5
1AB
330
16B
100
AcDbEntity
  8
Make2D$可见线$普通线
100
AcDbVertex
100
AcDb2dVertex
 10
172.5726277713608
 20
1528.352399498856
 30
0.0
  0
VERTEX
  5
1AC
330
16B
100
AcDbEntity
  8
Make2D$可见线$普通线
100
AcDbVertex
100
AcDb2dVertex
 10
151.457372228642
 20
1528.352399498856
 30
0.0
  0
VERTEX
  5
1AD
330
16B
100
AcDbEntity
  8
Make2D$可见线$普通线
100
AcDbVertex
100
AcDb2dVertex
 10
151.4573722286419
 20
1527.597343751437
 30
0.0
  0
SEQEND
  5
1AE
330
16B
100
AcDbEntity
  8
Make2D$可见线$普通线
  0
POLYLINE
  5
1AF
330
1F
100
AcDbEntity
  8
Make2D$可见线$普通线
100
AcDb2dPolyline
 66
     1
 10
0.0
 20
0.0
 30
0.0
  0
VERTEX
  5
1B0
330
1AF
100
AcDbEntity
  8
Make2D$可见线$普通线
100
AcDbVertex
100
AcDb2dVertex
 10
151.9539254734494
 20
1520.781631587162
 30
0.0
  0
VERTEX
  5
1B1
330
1AF
100
AcDbEntity
  8
Make2D$可见线$普通线
100
AcDbVertex
100
AcDb2dVertex
 10
152.4487613961562
 20
1520.291553374633
 30
0.0
  0
VERTEX
  5
1B2
330
1AF
100
AcDbEntity
  8
Make2D$可见线$普通线
100
AcDbVertex
100
AcDb2dVertex
 10
171.5812386038467
 20
1520.291553374633
 30
0.0
  0
VERTEX
  5
1B3
330
1AF
100
AcDbEntity
  8
Make2D$可见线$普通线
100
AcDbVertex
100
AcDb2dVertex
 10
172.2301001533952
 20
1520.935659778944
 30
0.0
  0
VERTEX
  5
1B4
330
1AF
100
AcDbEntity
  8
Make2D$可见线$普通线
100
AcDbVertex
100
AcDb2dVertex
 10
172.2300252951642
 20
1520.935582355773
 30
0.0
 42
-0.0604087459002649
  0
VERTEX
  5
1B5
330
1AF
100
AcDbEntity
  8
Make2D$可见线$普通线
100
AcDbVertex
100
AcDb2dVertex
 10
171.8909525137215
 20
1520.899304119971
 30
0.0
 42
-0.0065193176324182
  0
VERTEX
  5
1B6
330
1AF
100
AcDbEntity
  8
Make2D$可见线$普通线
100
AcDbVertex
100
AcDb2dVertex
 10
162.0150000000014
 20
1520.754291214901
 30
0.0
  0
VERTEX
  5
1B7
330
1AF
100
AcDbEntity
  8
Make2D$可见线$普通线
100
AcDbVertex
100
AcDb2dVertex
 10
156.0575827001881
 20
1520.722554627674
 30
0.0
  0
VERTEX
  5
1B8
330
1AF
100
AcDbEntity
  8
Make2D$可见线$普通线
100
AcDbVertex
100
AcDb2dVertex
 10
153.1332661304737
 20
1520.726316593483
 30
0.0
  0
VERTEX
  5
1B9
330
1AF
100
AcDbEntity
  8
Make2D$可见线$普通线
100
AcDbVertex
100
AcDb2dVertex
 10
152.4953720969137
 20
1520.737646155769
 30
0.0
  0
VERTEX
  5
1BA
330
1AF
100
AcDbEntity
  8
Make2D$可见线$普通线
100
AcDbVertex
100
AcDb2dVertex
 10
152.3183685001868
 20
1520.744308529132
 30
0.0
  0
VERTEX
  5
1BB
330
1AF
100
AcDbEntity
  8
Make2D$可见线$普通线
100
AcDbVertex
100
AcDb2dVertex
 10
152.1746593037966
 20
1520.752851434374
 30
0.0
  0
VERTEX
  5
1BC
330
1AF
100
AcDbEntity
  8
Make2D$可见线$普通线
100
AcDbVertex
100
AcDb2dVertex
 10
152.1246902373018
 20
1520.757039648084
 30
0.0
  0
VERTEX
  5
1BD
330
1AF
100
AcDbEntity
  8
Make2D$可见线$普通线
100
AcDbVertex
100
AcDb2dVertex
 10
152.0804976204817
 20
1520.761706199108
 30
0.0
  0
VERTEX
  5
1BE
330
1AF
100
AcDbEntity
  8
Make2D$可见线$普通线
100
AcDbVertex
100
AcDb2dVertex
 10
152.0605087131377
 20
1520.764265246847
 30
0.0
  0
VERTEX
  5
1BF
330
1AF
100
AcDbEntity
  8
Make2D$可见线$普通线
100
AcDbVertex
100
AcDb2dVertex
 10
152.0418933971379
 20
1520.766999553794
 30
0.0
  0
VERTEX
  5
1C0
330
1AF
100
AcDbEntity
  8
Make2D$可见线$普通线
100
AcDbVertex
100
AcDb2dVertex
 10
152.0246281654577
 20
1520.769927678245
 30
0.0
  0
VERTEX
  5
1C1
330
1AF
100
AcDbEntity
  8
Make2D$可见线$普通线
100
AcDbVertex
100
AcDb2dVertex
 10
152.0086895110721
 20
1520.773068178492
 30
0.0
 42
-0.1531945855375105
  0
VERTEX
  5
1C2
330
1AF
100
AcDbEntity
  8
Make2D$可见线$普通线
100
AcDbVertex
100
AcDb2dVertex
 10
151.9258989976061
 20
1520.809658063005
 30
0.0
  0
VERTEX
  5
1C3
330
1AF
100
AcDbEntity
  8
Make2D$可见线$普通线
100
AcDbVertex
100
AcDb2dVertex
 10
151.9137798211905
 20
1520.826224612379
 30
0.0
  0
VERTEX
  5
1C4
330
1AF
100
AcDbEntity
  8
Make2D$可见线$普通线
100
AcDbVertex
100
AcDb2dVertex
 10
151.8439667976024
 20
1520.898224933337
 30
0.0
  0
VERTEX
  5
1C5
330
1AF
100
AcDbEntity
  8
Make2D$可见线$普通线
100
AcDbVertex
100
AcDb2dVertex
 10
151.7999688899307
 20
1520.935588170681
 30
0.0
 42
-0.466262535647153
  0
VERTEX
  5
1C6
330
1AF
100
AcDbEntity
  8
Make2D$可见线$普通线
100
AcDbVertex
100
AcDb2dVertex
 10
151.7855835191831
 20
1520.997204284043
 30
0.0
 42
-0.1274706420892146
  0
VERTEX
  5
1C7
330
1AF
100
AcDbEntity
  8
Make2D$可见线$普通线
100
AcDbVertex
100
AcDb2dVertex
 10
151.8883165906175
 20
1521.04336213187
 30
0.0
 42
-0.0317069624134887
  0
VERTEX
  5
1C8
330
1AF
100
AcDbEntity
  8
Make2D$可见线$普通线
100
AcDbVertex
100
AcDb2dVertex
 10
152.9375858916122
 20
1521.15542493492
 30
0.0
 42
-0.0077323634453829
  0
VERTEX
  5
1C9
330
1AF
100
AcDbEntity
  8
Make2D$可见线$普通线
100
AcDbVertex
100
AcDb2dVertex
 10
156.1480739036701
 20
1521.278184831969
 30
0.0
  0
VERTEX
  5
1CA
330
1AF
100
AcDbEntity
  8
Make2D$可见线$普通线
100
AcDbVertex
100
AcDb2dVertex
 10
156.3173029341885
 20
1521.283194637103
 30
0.0
  0
VERTEX
  5
1CB
330
1AF
100
AcDbEntity
  8
Make2D$可见线$普通线
100
AcDbVertex
100
AcDb2dVertex
 10
156.5837186171811
 20
1521.290962534652
 30
0.0
  0
VERTEX
  5
1CC
330
1AF
100
AcDbEntity
  8
Make2D$可见线$普通线
100
AcDbVertex
100
AcDb2dVertex
 10
162.0150000000014
 20
1521.432344170945
 30
0.0
  0
VERTEX
  5
1CD
330
1AF
100
AcDbEntity
  8
Make2D$可见线$普通线
100
AcDbVertex
100
AcDb2dVertex
 10
162.0150000000014
 20
1522.082741915654
 30
0.0
  0
VERTEX
  5
1CE
330
1AF
100
AcDbEntity
  8
Make2D$可见线$普通线
100
AcDbVertex
100
AcDb2dVertex
 10
166.5398873014135
 20
1522.198636246698
 30
0.0
  0
VERTEX
  5
1CF
330
1AF
100
AcDbEntity
  8
Make2D$可见线$普通线
100
AcDbVertex
100
AcDb2dVertex
 10
169.4803701903731
 20
1522.288253898952
 30
0.0
  0
VERTEX
  5
1D0
330
1AF
100
AcDbEntity
  8
Make2D$可见线$普通线
100
AcDbVertex
100
AcDb2dVertex
 10
170.5021926392033
 20
1522.327078825512
 30
0.0
  0
VERTEX
  5
1D1
330
1AF
100
AcDbEntity
  8
Make2D$可见线$普通线
100
AcDbVertex
100
AcDb2dVertex
 10
171.9458323231737
 20
1522.401756493688
 30
0.0
  0
VERTEX
  5
1D2
330
1AF
100
AcDbEntity
  8
Make2D$可见线$普通线
100
AcDbVertex
100
AcDb2dVertex
 10
172.1176528445122
 20
1522.415946692166
 30
0.0
  0
VERTEX
  5
1D3
330
1AF
100
AcDbEntity
  8
Make2D$可见线$普通线
100
AcDbVertex
100
AcDb2dVertex
 10
172.2891240492526
 20
1522.433870955909
 30
0.0
  0
VERTEX
  5
1D4
330
1AF
100
AcDbEntity
  8
Make2D$可见线$普通线
100
AcDbVertex
100
AcDb2dVertex
 10
172.460124393959
 20
1522.455515242007
 30
0.0
 42
0.1889041730903375
  0
VERTEX
  5
1D5
330
1AF
100
AcDbEntity
  8
Make2D$可见线$普通线
100
AcDbVertex
100
AcDb2dVertex
 10
172.5726277713608
 20
1522.493762646325
 30
0.0
 42
0.2356105405206674
  0
VERTEX
  5
1D6
330
1AF
100
AcDbEntity
  8
Make2D$可见线$普通线
100
AcDbVertex
100
AcDb2dVertex
 10
172.5205376459225
 20
1522.519747806783
 30
0.0
  0
VERTEX
  5
1D7
330
1AF
100
AcDbEntity
  8
Make2D$可见线$普通线
100
AcDbVertex
100
AcDb2dVertex
 10
172.3133512582226
 20
1522.551849252369
 30
0.0
  0
SEQEND
  5
1D8
330
1AF
100
AcDbEntity
  8
Make2D$可见线$普通线
  0
POLYLINE
  5
1D9
330
1F
100
AcDbEntity
  8
Make2D$可见线$普通线
100
AcDb2dPolyline
 66
     1
 10
0.0
 20
0.0
 30
0.0
  0
VERTEX
  5
1DA
330
1D9
100
AcDbEntity
  8
Make2D$可见线$普通线
100
AcDbVertex
100
AcDb2dVertex
 10
162.0150000000014
 20
1523.726744452301
 30
0.0
  0
VERTEX
  5
1DB
330
1D9
100
AcDbEntity
  8
Make2D$可见线$普通线
100
AcDbVertex
100
AcDb2dVertex
 10
157.5121777856468
 20
1523.6114552319
 30
0.0
  0
VERTEX
  5
1DC
330
1D9
100
AcDbEntity
  8
Make2D$可见线$普通线
100
AcDbVertex
100
AcDb2dVertex
 10
154.5496298096297
 20
1523.521262642131
 30
0.0
  0
VERTEX
  5
1DD
330
1D9
100
AcDbEntity
  8
Make2D$可见线$普通线
100
AcDbVertex
100
AcDb2dVertex
 10
153.5422409226751
 20
1523.483015237813
 30
0.0
  0
VERTEX
  5
1DE
330
1D9
100
AcDbEntity
  8
Make2D$可见线$普通线
100
AcDbVertex
100
AcDb2dVertex
 10
152.0922868760246
 20
1523.408304314924
 30
0.0
  0
VERTEX
  5
1DF
330
1D9
100
AcDbEntity
  8
Make2D$可见线$普通线
100
AcDbVertex
100
AcDb2dVertex
 10
151.918952242339
 20
1523.394091187669
 30
0.0
  0
VERTEX
  5
1E0
330
1D9
100
AcDbEntity
  8
Make2D$可见线$普通线
100
AcDbVertex
100
AcDb2dVertex
 10
151.745960819421
 20
1523.376178180716
 30
0.0
  0
VERTEX
  5
1E1
330
1D9
100
AcDbEntity
  8
Make2D$可见线$普通线
100
AcDbVertex
100
AcDb2dVertex
 10
151.5734308981996
 20
1523.354578821318
 30
0.0
 42
0.1868772266405586
  0
VERTEX
  5
1E2
330
1D9
100
AcDbEntity
  8
Make2D$可见线$普通线
100
AcDbVertex
100
AcDb2dVertex
 10
151.457372228642
 20
1523.315753894758
 30
0.0
  0
VERTEX
  5
1E3
330
1D9
100
AcDbEntity
  8
Make2D$可见线$普通线
100
AcDbVertex
100
AcDb2dVertex
 10
151.457372228642
 20
1522.665362794113
 30
0.0
  0
SEQEND
  5
1E4
330
1D9
100
AcDbEntity
  8
Make2D$可见线$普通线
  0
POLYLINE
  5
1E5
330
1F
100
AcDbEntity
  8
Make2D$可见线$普通线
100
AcDb2dPolyline
 66
     1
 10
0.0
 20
0.0
 30
0.0
  0
VERTEX
  5
1E6
330
1E5
100
AcDbEntity
  8
Make2D$可见线$普通线
100
AcDbVertex
100
AcDb2dVertex
 10
151.6936245823281
 20
1527.558168917449
 30
0.0
 42
-0.1720320161944642
  0
VERTEX
  5
1E7
330
1E5
100
AcDbEntity
  8
Make2D$可见线$普通线
100
AcDbVertex
100
AcDb2dVertex
 10
151.8567584356713
 20
1527.462270909939
 30
0.0
 42
-0.532251193475605
  0
VERTEX
  5
1E8
330
1E5
100
AcDbEntity
  8
Make2D$可见线$普通线
100
AcDbVertex
100
AcDb2dVertex
 10
151.9024928441521
 20
1527.49336091417
 30
0.0
 42
-0.0331818298659277
  0
VERTEX
  5
1E9
330
1E5
100
AcDbEntity
  8
Make2D$可见线$普通线
100
AcDbVertex
100
AcDb2dVertex
 10
152.4474116730659
 20
1527.555490491185
 30
0.0
  0
VERTEX
  5
1EA
330
1E5
100
AcDbEntity
  8
Make2D$可见线$普通线
100
AcDbVertex
100
AcDb2dVertex
 10
153.5655051674476
 20
1527.617619669164
 30
0.0
  0
VERTEX
  5
1EB
330
1E5
100
AcDbEntity
  8
Make2D$可见线$普通线
100
AcDbVertex
100
AcDb2dVertex
 10
155.1894070212184
 20
1527.679726375698
 30
0.0
  0
VERTEX
  5
1EC
330
1E5
100
AcDbEntity
  8
Make2D$可见线$普通线
100
AcDbVertex
100
AcDb2dVertex
 10
159.5405798035785
 20
1527.803915856839
 30
0.0
  0
VERTEX
  5
1ED
330
1E5
100
AcDbEntity
  8
Make2D$可见线$普通线
100
AcDbVertex
100
AcDb2dVertex
 10
162.0061680596394
 20
1527.86597763579
 30
0.0
  0
VERTEX
  5
1EE
330
1E5
100
AcDbEntity
  8
Make2D$可见线$普通线
100
AcDbVertex
100
AcDb2dVertex
 10
162.0211863531804
 20
1527.014886332705
 30
0.0
  0
VERTEX
  5
1EF
330
1E5
100
AcDbEntity
  8
Make2D$可见线$普通线
100
AcDbVertex
100
AcDb2dVertex
 10
157.048783702331
 20
1526.886568507966
 30
0.0
  0
VERTEX
  5
1F0
330
1E5
100
AcDbEntity
  8
Make2D$可见线$普通线
100
AcDbVertex
100
AcDb2dVertex
 10
154.5496298096297
 20
1526.809258085429
 30
0.0
  0
VERTEX
  5
1F1
330
1E5
100
AcDbEntity
  8
Make2D$可见线$普通线
100
AcDbVertex
100
AcDb2dVertex
 10
153.2436443268005
 20
1526.758169551625
 30
0.0
  0
VERTEX
  5
1F2
330
1E5
100
AcDbEntity
  8
Make2D$可见线$普通线
100
AcDbVertex
100
AcDb2dVertex
 10
152.0786976528145
 20
1526.69395909165
 30
0.0
 42
0.0326446189888709
  0
VERTEX
  5
1F3
330
1E5
100
AcDbEntity
  8
Make2D$可见线$普通线
100
AcDbVertex
100
AcDb2dVertex
 10
151.5094622321483
 20
1526.629746667068
 30
0.0
  0
VERTEX
  5
1F4
330
1E5
100
AcDbEntity
  8
Make2D$可见线$普通线
100
AcDbVertex
100
AcDb2dVertex
 10
151.457372228642
 20
1526.603762592643
 30
0.0
  0
VERTEX
  5
1F5
330
1E5
100
AcDbEntity
  8
Make2D$可见线$普通线
100
AcDbVertex
100
AcDb2dVertex
 10
151.457372228642
 20
1525.953374630049
 30
0.0
  0
SEQEND
  5
1F6
330
1E5
100
AcDbEntity
  8
Make2D$可见线$普通线
  0
POLYLINE
  5
1F7
330
1F
100
AcDbEntity
  8
Make2D$可见线$普通线
100
AcDb2dPolyline
 66
     1
 10
0.0
 20
0.0
 30
0.0
  0
VERTEX
  5
1F8
330
1F7
100
AcDbEntity
  8
Make2D$可见线$普通线
100
AcDbVertex
100
AcDb2dVertex
 10
162.0150000000014
 20
1523.07636449088
 30
0.0
  0
VERTEX
  5
1F9
330
1F7
100
AcDbEntity
  8
Make2D$可见线$普通线
100
AcDbVertex
100
AcDb2dVertex
 10
166.5175179487389
 20
1523.191643142264
 30
0.0
  0
VERTEX
  5
1FA
330
1F7
100
AcDbEntity
  8
Make2D$可见线$普通线
100
AcDbVertex
100
AcDb2dVertex
 10
169.4803701903731
 20
1523.281852380439
 30
0.0
  0
VERTEX
  5
1FB
330
1F7
100
AcDbEntity
  8
Make2D$可见线$普通线
100
AcDbVertex
100
AcDb2dVertex
 10
170.4874519536352
 20
1523.320078718107
 30
0.0
  0
VERTEX
  5
1FC
330
1F7
100
AcDbEntity
  8
Make2D$可见线$普通线
100
AcDbVertex
100
AcDb2dVertex
 10
171.93781450075
 20
1523.394818468671
 30
0.0
  0
VERTEX
  5
1FD
330
1F7
100
AcDbEntity
  8
Make2D$可见线$普通线
100
AcDbVertex
100
AcDb2dVertex
 10
172.1110891054075
 20
1523.40902958296
 30
0.0
  0
VERTEX
  5
1FE
330
1F7
100
AcDbEntity
  8
Make2D$可见线$普通线
100
AcDbVertex
100
AcDb2dVertex
 10
172.2840212115466
 20
1523.42693296406
 30
0.0
  0
VERTEX
  5
1FF
330
1F7
100
AcDbEntity
  8
Make2D$可见线$普通线
100
AcDbVertex
100
AcDb2dVertex
 10
172.45649297333
 20
1523.448515140182
 30
0.0
 42
0.1868687495914111
  0
VERTEX
  5
200
330
1F7
100
AcDbEntity
  8
Make2D$可见线$普通线
100
AcDbVertex
100
AcDb2dVertex
 10
172.5726277713608
 20
1523.487344162554
 30
0.0
  0
VERTEX
  5
201
330
1F7
100
AcDbEntity
  8
Make2D$可见线$普通线
100
AcDbVertex
100
AcDb2dVertex
 10
172.5726277713608
 20
1524.137741907266
 30
0.0
  0
SEQEND
  5
202
330
1F7
100
AcDbEntity
  8
Make2D$可见线$普通线
  0
POLYLINE
  5
203
330
1F
100
AcDbEntity
  8
Make2D$可见线$普通线
100
AcDb2dPolyline
 66
     1
 10
0.0
 20
0.0
 30
0.0
  0
VERTEX
  5
204
330
203
100
AcDbEntity
  8
Make2D$可见线$普通线
100
AcDbVertex
100
AcDb2dVertex
 10
276.0674229809257
 20
1585.511917876588
 30
0.0
 42
0.1939009500378563
  0
VERTEX
  5
205
330
203
100
AcDbEntity
  8
Make2D$可见线$普通线
100
AcDbVertex
100
AcDb2dVertex
 10
277.4439544435755
 20
1586.097339778706
 30
0.0
  0
VERTEX
  5
206
330
203
100
AcDbEntity
  8
Make2D$可见线$普通线
100
AcDbVertex
100
AcDb2dVertex
 10
277.5381033306155
 20
1586.198220663801
 30
0.0
  0
SEQEND
  5
207
330
203
100
AcDbEntity
  8
Make2D$可见线$普通线
  0
POLYLINE
  5
208
330
1F
100
AcDbEntity
  8
Make2D$可见线$普通线
100
AcDb2dPolyline
 66
     1
 10
0.0
 20
0.0
 30
0.0
  0
VERTEX
  5
209
330
208
100
AcDbEntity
  8
Make2D$可见线$普通线
100
AcDbVertex
100
AcDb2dVertex
 10
277.7037319036443
 20
1586.417133834308
 30
0.0
 42
0.1456092794339093
  0
VERTEX
  5
20A
330
208
100
AcDbEntity
  8
Make2D$可见线$普通线
100
AcDbVertex
100
AcDb2dVertex
 10
278.0297381319242
 20
1587.510236494087
 30
0.0
  0
VERTEX
  5
20B
330
208
100
AcDbEntity
  8
Make2D$可见线$普通线
100
AcDbVertex
100
AcDb2dVertex
 10
278.029685268065
 20
1594.511553341079
 30
0.0
 42
-0.4148432797851483
  0
VERTEX
  5
20C
330
208
100
AcDbEntity
  8
Make2D$可见线$普通线
100
AcDbVertex
100
AcDb2dVertex
 10
279.0316716260133
 20
1595.511553341079
 30
0.0
  0
VERTEX
  5
20D
330
208
100
AcDbEntity
  8
Make2D$可见线$普通线
100
AcDbVertex
100
AcDb2dVertex
 10
316.020183012646
 20
1595.511553341079
 30
0.0
 42
-0.4142634218912244
  0
VERTEX
  5
20E
330
208
100
AcDbEntity
  8
Make2D$可见线$普通线
100
AcDbVertex
100
AcDb2dVertex
 10
317.0201938794057
 20
1594.511553341079
 30
0.0
  0
VERTEX
  5
20F
330
208
100
AcDbEntity
  8
Make2D$可见线$普通线
100
AcDbVertex
100
AcDb2dVertex
 10
317.0201432486071
 20
1587.510397236063
 30
0.0
 42
0.163043456288426
  0
VERTEX
  5
210
330
208
100
AcDbEntity
  8
Make2D$可见线$普通线
100
AcDbVertex
100
AcDb2dVertex
 10
317.4250072583282
 20
1586.30509183449
 30
0.0
  0
SEQEND
  5
211
330
208
100
AcDbEntity
  8
Make2D$可见线$普通线
  0
POLYLINE
  5
212
330
1F
100
AcDbEntity
  8
Make2D$可见线$普通线
100
AcDb2dPolyline
 66
     1
 10
0.0
 20
0.0
 30
0.0
  0
VERTEX
  5
213
330
212
100
AcDbEntity
  8
Make2D$可见线$普通线
100
AcDbVertex
100
AcDb2dVertex
 10
162.0150000000014
 20
1522.082741915654
 30
0.0
  0
VERTEX
  5
214
330
212
100
AcDbEntity
  8
Make2D$可见线$普通线
100
AcDbVertex
100
AcDb2dVertex
 10
156.5980090867245
 20
1521.941761027208
 30
0.0
  0
VERTEX
  5
215
330
212
100
AcDbEntity
  8
Make2D$可见线$普通线
100
AcDbVertex
100
AcDb2dVertex
 10
154.5496298096297
 20
1521.877232080397
 30
0.0
  0
VERTEX
  5
216
330
212
100
AcDbEntity
  8
Make2D$可见线$普通线
100
AcDbVertex
100
AcDb2dVertex
 10
152.9656597104236
 20
1521.813314747622
 30
0.0
  0
VERTEX
  5
217
330
212
100
AcDbEntity
  8
Make2D$可见线$普通线
100
AcDbVertex
100
AcDb2dVertex
 10
151.9156085535366
 20
1521.749106850938
 30
0.0
 42
0.0563761133420384
  0
VERTEX
  5
218
330
212
100
AcDbEntity
  8
Make2D$可见线$普通线
100
AcDbVertex
100
AcDb2dVertex
 10
151.4707126182172
 20
1521.68489274416
 30
0.0
  0
VERTEX
  5
219
330
212
100
AcDbEntity
  8
Make2D$可见线$普通线
100
AcDbVertex
100
AcDb2dVertex
 10
151.457372228642
 20
1521.67174446069
 30
0.0
  0
VERTEX
  5
21A
330
212
100
AcDbEntity
  8
Make2D$可见线$普通线
100
AcDbVertex
100
AcDb2dVertex
 10
151.4596714116407
 20
1521.27588564897
 30
0.0
  0
VERTEX
  5
21B
330
212
100
AcDbEntity
  8
Make2D$可见线$普通线
100
AcDbVertex
100
AcDb2dVertex
 10
151.7713146549318
 20
1520.964242405679
 30
0.0
  0
SEQEND
  5
21C
330
212
100
AcDbEntity
  8
Make2D$可见线$普通线
  0
POLYLINE
  5
21D
330
1F
100
AcDbEntity
  8
Make2D$可见线$普通线
100
AcDb2dPolyline
 66
     1
 10
0.0
 20
0.0
 30
0.0
  0
VERTEX
  5
21E
330
21D
100
AcDbEntity
  8
Make2D$可见线$普通线
100
AcDbVertex
100
AcDb2dVertex
 10
149.9163539222445
 20
1531.369288974567
 30
0.0
 42
0.414211412466125
  0
VERTEX
  5
21F
330
21D
100
AcDbEntity
  8
Make2D$可见线$普通线
100
AcDbVertex
100
AcDb2dVertex
 10
150.9203474182905
 20
1530.369288974567
 30
0.0
  0
VERTEX
  5
220
330
21D
100
AcDbEntity
  8
Make2D$可见线$普通线
100
AcDbVertex
100
AcDb2dVertex
 10
173.1096525817452
 20
1530.369288974567
 30
0.0
 42
0.4142114124658551
  0
VERTEX
  5
221
330
21D
100
AcDbEntity
  8
Make2D$可见线$普通线
100
AcDbVertex
100
AcDb2dVertex
 10
174.1136460777585
 20
1531.369288974567
 30
0.0
  0
SEQEND
  5
222
330
21D
100
AcDbEntity
  8
Make2D$可见线$普通线
  0
POLYLINE
  5
223
330
1F
100
AcDbEntity
  8
Make2D$可见线$普通线
100
AcDb2dPolyline
 66
     1
 10
0.0
 20
0.0
 30
0.0
  0
VERTEX
  5
224
330
223
100
AcDbEntity
  8
Make2D$可见线$普通线
100
AcDbVertex
100
AcDb2dVertex
 10
151.7590527001351
 20
1523.378450675522
 30
0.0
 42
0.6089486537745776
  0
VERTEX
  5
225
330
223
100
AcDbEntity
  8
Make2D$可见线$普通线
100
AcDbVertex
100
AcDb2dVertex
 10
151.7403550340252
 20
1524.252236738623
 30
0.0
  0
VERTEX
  5
226
330
223
100
AcDbEntity
  8
Make2D$可见线$普通线
100
AcDbVertex
100
AcDb2dVertex
 10
151.7385490517114
 20
1524.253054636924
 30
0.0
  0
VERTEX
  5
227
330
223
100
AcDbEntity
  8
Make2D$可见线$普通线
100
AcDbVertex
100
AcDb2dVertex
 10
151.7368475647466
 20
1524.253872518347
 30
0.0
  0
VERTEX
  5
228
330
223
100
AcDbEntity
  8
Make2D$可见线$普通线
100
AcDbVertex
100
AcDb2dVertex
 10
151.7352505652774
 20
1524.254690383195
 30
0.0
  0
VERTEX
  5
229
330
223
100
AcDbEntity
  8
Make2D$可见线$普通线
100
AcDbVertex
100
AcDb2dVertex
 10
151.7337580454503
 20
1524.255508231775
 30
0.0
  0
VERTEX
  5
22A
330
223
100
AcDbEntity
  8
Make2D$可见线$普通线
100
AcDbVertex
100
AcDb2dVertex
 10
151.7323699974116
 20
1524.256326064392
 30
0.0
  0
VERTEX
  5
22B
330
223
100
AcDbEntity
  8
Make2D$可见线$普通线
100
AcDbVertex
100
AcDb2dVertex
 10
151.7317151478587
 20
1524.256734974809
 30
0.0
  0
VERTEX
  5
22C
330
223
100
AcDbEntity
  8
Make2D$可见线$普通线
100
AcDbVertex
100
AcDb2dVertex
 10
151.7310864133079
 20
1524.25714388135
 30
0.0
  0
VERTEX
  5
22D
330
223
100
AcDbEntity
  8
Make2D$可见线$普通线
100
AcDbVertex
100
AcDb2dVertex
 10
151.7304837927774
 20
1524.257552784053
 30
0.0
  0
VERTEX
  5
22E
330
223
100
AcDbEntity
  8
Make2D$可见线$普通线
100
AcDbVertex
100
AcDb2dVertex
 10
151.7299072852856
 20
1524.257961682956
 30
0.0
  0
VERTEX
  5
22F
330
223
100
AcDbEntity
  8
Make2D$可见线$普通线
100
AcDbVertex
100
AcDb2dVertex
 10
151.7293568898508
 20
1524.258370578096
 30
0.0
  0
VERTEX
  5
230
330
223
100
AcDbEntity
  8
Make2D$可见线$普通线
100
AcDbVertex
100
AcDb2dVertex
 10
151.7288326054912
 20
1524.258779469514
 30
0.0
  0
VERTEX
  5
231
330
223
100
AcDbEntity
  8
Make2D$可见线$普通线
100
AcDbVertex
100
AcDb2dVertex
 10
151.7283344312253
 20
1524.259188357245
 30
0.0
  0
VERTEX
  5
232
330
223
100
AcDbEntity
  8
Make2D$可见线$普通线
100
AcDbVertex
100
AcDb2dVertex
 10
151.7278623660712
 20
1524.259597241329
 30
0.0
  0
VERTEX
  5
233
330
223
100
AcDbEntity
  8
Make2D$可见线$普通线
100
AcDbVertex
100
AcDb2dVertex
 10
151.7274164090474
 20
1524.260006121804
 30
0.0
  0
VERTEX
  5
234
330
223
100
AcDbEntity
  8
Make2D$可见线$普通线
100
AcDbVertex
100
AcDb2dVertex
 10
151.7269965591721
 20
1524.260414998708
 30
0.0
  0
VERTEX
  5
235
330
223
100
AcDbEntity
  8
Make2D$可见线$普通线
100
AcDbVertex
100
AcDb2dVertex
 10
151.7266028154636
 20
1524.260823872079
 30
0.0
  0
VERTEX
  5
236
330
223
100
AcDbEntity
  8
Make2D$可见线$普通线
100
AcDbVertex
100
AcDb2dVertex
 10
151.7264157331151
 20
1524.261028307451
 30
0.0
  0
VERTEX
  5
237
330
223
100
AcDbEntity
  8
Make2D$可见线$普通线
100
AcDbVertex
100
AcDb2dVertex
 10
151.7262351769402
 20
1524.261232741954
 30
0.0
  0
VERTEX
  5
238
330
223
100
AcDbEntity
  8
Make2D$可见线$普通线
100
AcDbVertex
100
AcDb2dVertex
 10
151.7260611468162
 20
1524.261437175594
 30
0.0
  0
VERTEX
  5
239
330
223
100
AcDbEntity
  8
Make2D$可见线$普通线
100
AcDbVertex
100
AcDb2dVertex
 10
151.7258936426203
 20
1524.261641608374
 30
0.0
  0
VERTEX
  5
23A
330
223
100
AcDbEntity
  8
Make2D$可见线$普通线
100
AcDbVertex
100
AcDb2dVertex
 10
151.7257326642299
 20
1524.261846040299
 30
0.0
  0
VERTEX
  5
23B
330
223
100
AcDbEntity
  8
Make2D$可见线$普通线
100
AcDbVertex
100
AcDb2dVertex
 10
151.7255782115222
 20
1524.262050471375
 30
0.0
  0
VERTEX
  5
23C
330
223
100
AcDbEntity
  8
Make2D$可见线$普通线
100
AcDbVertex
100
AcDb2dVertex
 10
151.7254302843745
 20
1524.262254901605
 30
0.0
  0
VERTEX
  5
23D
330
223
100
AcDbEntity
  8
Make2D$可见线$普通线
100
AcDbVertex
100
AcDb2dVertex
 10
151.7252888826641
 20
1524.262459330995
 30
0.0
  0
VERTEX
  5
23E
330
223
100
AcDbEntity
  8
Make2D$可见线$普通线
100
AcDbVertex
100
AcDb2dVertex
 10
151.7251540062683
 20
1524.262663759549
 30
0.0
  0
VERTEX
  5
23F
330
223
100
AcDbEntity
  8
Make2D$可见线$普通线
100
AcDbVertex
100
AcDb2dVertex
 10
151.7250256550643
 20
1524.262868187273
 30
0.0
  0
VERTEX
  5
240
330
223
100
AcDbEntity
  8
Make2D$可见线$普通线
100
AcDbVertex
100
AcDb2dVertex
 10
151.7249038289295
 20
1524.263072614171
 30
0.0
  0
VERTEX
  5
241
330
223
100
AcDbEntity
  8
Make2D$可见线$普通线
100
AcDbVertex
100
AcDb2dVertex
 10
151.7247885277413
 20
1524.263277040247
 30
0.0
  0
VERTEX
  5
242
330
223
100
AcDbEntity
  8
Make2D$可见线$普通线
100
AcDbVertex
100
AcDb2dVertex
 10
151.7246797513768
 20
1524.263481465507
 30
0.0
  0
VERTEX
  5
243
330
223
100
AcDbEntity
  8
Make2D$可见线$普通线
100
AcDbVertex
100
AcDb2dVertex
 10
151.7245774997132
 20
1524.263685889955
 30
0.0
  0
VERTEX
  5
244
330
223
100
AcDbEntity
  8
Make2D$可见线$普通线
100
AcDbVertex
100
AcDb2dVertex
 10
151.7244817726281
 20
1524.263890313597
 30
0.0
  0
VERTEX
  5
245
330
223
100
AcDbEntity
  8
Make2D$可见线$普通线
100
AcDbVertex
100
AcDb2dVertex
 10
151.7243925699985
 20
1524.264094736436
 30
0.0
  0
VERTEX
  5
246
330
223
100
AcDbEntity
  8
Make2D$可见线$普通线
100
AcDbVertex
100
AcDb2dVertex
 10
151.7243098917018
 20
1524.264299158478
 30
0.0
  0
VERTEX
  5
247
330
223
100
AcDbEntity
  8
Make2D$可见线$普通线
100
AcDbVertex
100
AcDb2dVertex
 10
151.7242337376153
 20
1524.264503579727
 30
0.0
  0
VERTEX
  5
248
330
223
100
AcDbEntity
  8
Make2D$可见线$普通线
100
AcDbVertex
100
AcDb2dVertex
 10
151.7241641076163
 20
1524.264708000189
 30
0.0
  0
VERTEX
  5
249
330
223
100
AcDbEntity
  8
Make2D$可见线$普通线
100
AcDbVertex
100
AcDb2dVertex
 10
151.7241010015821
 20
1524.264912419867
 30
0.0
  0
VERTEX
  5
24A
330
223
100
AcDbEntity
  8
Make2D$可见线$普通线
100
AcDbVertex
100
AcDb2dVertex
 10
151.7240444193899
 20
1524.265116838767
 30
0.0
  0
VERTEX
  5
24B
330
223
100
AcDbEntity
  8
Make2D$可见线$普通线
100
AcDbVertex
100
AcDb2dVertex
 10
151.7239943609171
 20
1524.265321256893
 30
0.0
  0
VERTEX
  5
24C
330
223
100
AcDbEntity
  8
Make2D$可见线$普通线
100
AcDbVertex
100
AcDb2dVertex
 10
151.7239508260409
 20
1524.265525674251
 30
0.0
  0
VERTEX
  5
24D
330
223
100
AcDbEntity
  8
Make2D$可见线$普通线
100
AcDbVertex
100
AcDb2dVertex
 10
151.7239138146386
 20
1524.265730090844
 30
0.0
  0
VERTEX
  5
24E
330
223
100
AcDbEntity
  8
Make2D$可见线$普通线
100
AcDbVertex
100
AcDb2dVertex
 10
151.7238833265875
 20
1524.265934506679
 30
0.0
  0
VERTEX
  5
24F
330
223
100
AcDbEntity
  8
Make2D$可见线$普通线
100
AcDbVertex
100
AcDb2dVertex
 10
151.7238593617649
 20
1524.266138921759
 30
0.0
  0
VERTEX
  5
250
330
223
100
AcDbEntity
  8
Make2D$可见线$普通线
100
AcDbVertex
100
AcDb2dVertex
 10
151.7238419200481
 20
1524.266343336089
 30
0.0
  0
VERTEX
  5
251
330
223
100
AcDbEntity
  8
Make2D$可见线$普通线
100
AcDbVertex
100
AcDb2dVertex
 10
151.7238310013144
 20
1524.266547749675
 30
0.0
  0
VERTEX
  5
252
330
223
100
AcDbEntity
  8
Make2D$可见线$普通线
100
AcDbVertex
100
AcDb2dVertex
 10
151.723826605441
 20
1524.26675216252
 30
0.0
  0
VERTEX
  5
253
330
223
100
AcDbEntity
  8
Make2D$可见线$普通线
100
AcDbVertex
100
AcDb2dVertex
 10
151.7238287323054
 20
1524.26695657463
 30
0.0
  0
VERTEX
  5
254
330
223
100
AcDbEntity
  8
Make2D$可见线$普通线
100
AcDbVertex
100
AcDb2dVertex
 10
151.7238373817846
 20
1524.267160986009
 30
0.0
  0
VERTEX
  5
255
330
223
100
AcDbEntity
  8
Make2D$可见线$普通线
100
AcDbVertex
100
AcDb2dVertex
 10
151.7238525537561
 20
1524.267365396662
 30
0.0
  0
VERTEX
  5
256
330
223
100
AcDbEntity
  8
Make2D$可见线$普通线
100
AcDbVertex
100
AcDb2dVertex
 10
151.7238742480971
 20
1524.267569806595
 30
0.0
  0
VERTEX
  5
257
330
223
100
AcDbEntity
  8
Make2D$可见线$普通线
100
AcDbVertex
100
AcDb2dVertex
 10
151.7239024646849
 20
1524.267774215811
 30
0.0
  0
VERTEX
  5
258
330
223
100
AcDbEntity
  8
Make2D$可见线$普通线
100
AcDbVertex
100
AcDb2dVertex
 10
151.7239372033968
 20
1524.267978624315
 30
0.0
  0
VERTEX
  5
259
330
223
100
AcDbEntity
  8
Make2D$可见线$普通线
100
AcDbVertex
100
AcDb2dVertex
 10
151.7239784641101
 20
1524.268183032113
 30
0.0
  0
VERTEX
  5
25A
330
223
100
AcDbEntity
  8
Make2D$可见线$普通线
100
AcDbVertex
100
AcDb2dVertex
 10
151.724026246702
 20
1524.268387439208
 30
0.0
  0
VERTEX
  5
25B
330
223
100
AcDbEntity
  8
Make2D$可见线$普通线
100
AcDbVertex
100
AcDb2dVertex
 10
151.7240805510499
 20
1524.268591845607
 30
0.0
  0
VERTEX
  5
25C
330
223
100
AcDbEntity
  8
Make2D$可见线$普通线
100
AcDbVertex
100
AcDb2dVertex
 10
151.7241413770311
 20
1524.268796251313
 30
0.0
  0
VERTEX
  5
25D
330
223
100
AcDbEntity
  8
Make2D$可见线$普通线
100
AcDbVertex
100
AcDb2dVertex
 10
151.7242087245228
 20
1524.269000656331
 30
0.0
  0
VERTEX
  5
25E
330
223
100
AcDbEntity
  8
Make2D$可见线$普通线
100
AcDbVertex
100
AcDb2dVertex
 10
151.7242825934023
 20
1524.269205060666
 30
0.0
  0
VERTEX
  5
25F
330
223
100
AcDbEntity
  8
Make2D$可见线$普通线
100
AcDbVertex
100
AcDb2dVertex
 10
151.724362983547
 20
1524.269409464323
 30
0.0
  0
VERTEX
  5
260
330
223
100
AcDbEntity
  8
Make2D$可见线$普通线
100
AcDbVertex
100
AcDb2dVertex
 10
151.724449894834
 20
1524.269613867307
 30
0.0
  0
VERTEX
  5
261
330
223
100
AcDbEntity
  8
Make2D$可见线$普通线
100
AcDbVertex
100
AcDb2dVertex
 10
151.7245433271408
 20
1524.269818269623
 30
0.0
  0
VERTEX
  5
262
330
223
100
AcDbEntity
  8
Make2D$可见线$普通线
100
AcDbVertex
100
AcDb2dVertex
 10
151.7246432803445
 20
1524.270022671274
 30
0.0
  0
VERTEX
  5
263
330
223
100
AcDbEntity
  8
Make2D$可见线$普通线
100
AcDbVertex
100
AcDb2dVertex
 10
151.7247497543225
 20
1524.270227072266
 30
0.0
  0
VERTEX
  5
264
330
223
100
AcDbEntity
  8
Make2D$可见线$普通线
100
AcDbVertex
100
AcDb2dVertex
 10
151.724862748952
 20
1524.270431472604
 30
0.0
  0
VERTEX
  5
265
330
223
100
AcDbEntity
  8
Make2D$可见线$普通线
100
AcDbVertex
100
AcDb2dVertex
 10
151.7249822641105
 20
1524.270635872293
 30
0.0
  0
VERTEX
  5
266
330
223
100
AcDbEntity
  8
Make2D$可见线$普通线
100
AcDbVertex
100
AcDb2dVertex
 10
151.725108299675
 20
1524.270840271337
 30
0.0
  0
VERTEX
  5
267
330
223
100
AcDbEntity
  8
Make2D$可见线$普通线
100
AcDbVertex
100
AcDb2dVertex
 10
151.7252408555229
 20
1524.271044669741
 30
0.0
  0
VERTEX
  5
268
330
223
100
AcDbEntity
  8
Make2D$可见线$普通线
100
AcDbVertex
100
AcDb2dVertex
 10
151.7253799315316
 20
1524.271249067509
 30
0.0
  0
VERTEX
  5
269
330
223
100
AcDbEntity
  8
Make2D$可见线$普通线
100
AcDbVertex
100
AcDb2dVertex
 10
151.7255255275783
 20
1524.271453464647
 30
0.0
  0
VERTEX
  5
26A
330
223
100
AcDbEntity
  8
Make2D$可见线$普通线
100
AcDbVertex
100
AcDb2dVertex
 10
151.7256776435402
 20
1524.27165786116
 30
0.0
  0
VERTEX
  5
26B
330
223
100
AcDbEntity
  8
Make2D$可见线$普通线
100
AcDbVertex
100
AcDb2dVertex
 10
151.7258362792948
 20
1524.271862257051
 30
0.0
  0
VERTEX
  5
26C
330
223
100
AcDbEntity
  8
Make2D$可见线$普通线
100
AcDbVertex
100
AcDb2dVertex
 10
151.7260014347192
 20
1524.272066652327
 30
0.0
  0
VERTEX
  5
26D
330
223
100
AcDbEntity
  8
Make2D$可见线$普通线
100
AcDbVertex
100
AcDb2dVertex
 10
151.7261731096908
 20
1524.272271046991
 30
0.0
  0
VERTEX
  5
26E
330
223
100
AcDbEntity
  8
Make2D$可见线$普通线
100
AcDbVertex
100
AcDb2dVertex
 10
151.7263513040868
 20
1524.272475441048
 30
0.0
  0
VERTEX
  5
26F
330
223
100
AcDbEntity
  8
Make2D$可见线$普通线
100
AcDbVertex
100
AcDb2dVertex
 10
151.7265360177845
 20
1524.272679834504
 30
0.0
  0
VERTEX
  5
270
330
223
100
AcDbEntity
  8
Make2D$可见线$普通线
100
AcDbVertex
100
AcDb2dVertex
 10
151.7269250025944
 20
1524.273088619629
 30
0.0
  0
VERTEX
  5
271
330
223
100
AcDbEntity
  8
Make2D$可见线$普通线
100
AcDbVertex
100
AcDb2dVertex
 10
151.7273400631386
 20
1524.273497402403
 30
0.0
  0
VERTEX
  5
272
330
223
100
AcDbEntity
  8
Make2D$可见线$普通线
100
AcDbVertex
100
AcDb2dVertex
 10
151.7277811984355
 20
1524.273906182866
 30
0.0
  0
VERTEX
  5
273
330
223
100
AcDbEntity
  8
Make2D$可见线$普通线
100
AcDbVertex
100
AcDb2dVertex
 10
151.7282484075035
 20
1524.274314961054
 30
0.0
  0
VERTEX
  5
274
330
223
100
AcDbEntity
  8
Make2D$可见线$普通线
100
AcDbVertex
100
AcDb2dVertex
 10
151.7287416893608
 20
1524.274723737007
 30
0.0
  0
VERTEX
  5
275
330
223
100
AcDbEntity
  8
Make2D$可见线$普通线
100
AcDbVertex
100
AcDb2dVertex
 10
151.7292610430256
 20
1524.275132510763
 30
0.0
  0
VERTEX
  5
276
330
223
100
AcDbEntity
  8
Make2D$可见线$普通线
100
AcDbVertex
100
AcDb2dVertex
 10
151.7298064675165
 20
1524.275541282359
 30
0.0
  0
VERTEX
  5
277
330
223
100
AcDbEntity
  8
Make2D$可见线$普通线
100
AcDbVertex
100
AcDb2dVertex
 10
151.7303779618516
 20
1524.275950051835
 30
0.0
  0
VERTEX
  5
278
330
223
100
AcDbEntity
  8
Make2D$可见线$普通线
100
AcDbVertex
100
AcDb2dVertex
 10
151.7309755250492
 20
1524.276358819227
 30
0.0
  0
VERTEX
  5
279
330
223
100
AcDbEntity
  8
Make2D$可见线$普通线
100
AcDbVertex
100
AcDb2dVertex
 10
151.7315991561277
 20
1524.276767584574
 30
0.0
  0
VERTEX
  5
27A
330
223
100
AcDbEntity
  8
Make2D$可见线$普通线
100
AcDbVertex
100
AcDb2dVertex
 10
151.7322488541054
 20
1524.277176347915
 30
0.0
  0
VERTEX
  5
27B
330
223
100
AcDbEntity
  8
Make2D$可见线$普通线
100
AcDbVertex
100
AcDb2dVertex
 10
151.7329246180005
 20
1524.277585109287
 30
0.0
  0
VERTEX
  5
27C
330
223
100
AcDbEntity
  8
Make2D$可见线$普通线
100
AcDbVertex
100
AcDb2dVertex
 10
151.7343543396165
 20
1524.278402626278
 30
0.0
  0
VERTEX
  5
27D
330
223
100
AcDbEntity
  8
Make2D$可见线$普通线
100
AcDbVertex
100
AcDb2dVertex
 10
151.7358883131222
 20
1524.279220135854
 30
0.0
  0
VERTEX
  5
27E
330
223
100
AcDbEntity
  8
Make2D$可见线$普通线
100
AcDbVertex
100
AcDb2dVertex
 10
151.7375265306639
 20
1524.280037638318
 30
0.0
  0
VERTEX
  5
27F
330
223
100
AcDbEntity
  8
Make2D$可见线$普通线
100
AcDbVertex
100
AcDb2dVertex
 10
151.7392689843882
 20
1524.280855133976
 30
0.0
  0
VERTEX
  5
280
330
223
100
AcDbEntity
  8
Make2D$可见线$普通线
100
AcDbVertex
100
AcDb2dVertex
 10
151.7411156664415
 20
1524.281672623134
 30
0.0
  0
VERTEX
  5
281
330
223
100
AcDbEntity
  8
Make2D$可见线$普通线
100
AcDbVertex
100
AcDb2dVertex
 10
151.7430665689703
 20
1524.282490106096
 30
0.0
  0
VERTEX
  5
282
330
223
100
AcDbEntity
  8
Make2D$可见线$普通线
100
AcDbVertex
100
AcDb2dVertex
 10
151.7451216841211
 20
1524.283307583169
 30
0.0
  0
VERTEX
  5
283
330
223
100
AcDbEntity
  8
Make2D$可见线$普通线
100
AcDbVertex
100
AcDb2dVertex
 10
151.7495445208745
 20
1524.284942520865
 30
0.0
  0
VERTEX
  5
284
330
223
100
AcDbEntity
  8
Make2D$可见线$普通线
100
AcDbVertex
100
AcDb2dVertex
 10
151.7543841138734
 20
1524.286577438665
 30
0.0
  0
VERTEX
  5
285
330
223
100
AcDbEntity
  8
Make2D$可见线$普通线
100
AcDbVertex
100
AcDb2dVertex
 10
151.7596404002895
 20
1524.28821233901
 30
0.0
  0
VERTEX
  5
286
330
223
100
AcDbEntity
  8
Make2D$可见线$普通线
100
AcDbVertex
100
AcDb2dVertex
 10
151.7653133172947
 20
1524.289847224341
 30
0.0
  0
VERTEX
  5
287
330
223
100
AcDbEntity
  8
Make2D$可见线$普通线
100
AcDbVertex
100
AcDb2dVertex
 10
151.7714028020606
 20
1524.291482097102
 30
0.0
  0
VERTEX
  5
288
330
223
100
AcDbEntity
  8
Make2D$可见线$普通线
100
AcDbVertex
100
AcDb2dVertex
 10
151.7848312235618
 20
1524.294751814681
 30
0.0
  0
VERTEX
  5
289
330
223
100
AcDbEntity
  8
Make2D$可见线$普通线
100
AcDbVertex
100
AcDb2dVertex
 10
151.7999251621671
 20
1524.29802151128
 30
0.0
  0
VERTEX
  5
28A
330
223
100
AcDbEntity
  8
Make2D$可见线$普通线
100
AcDbVertex
100
AcDb2dVertex
 10
151.8351075801861
 20
1524.30456091969
 30
0.0
  0
VERTEX
  5
28B
330
223
100
AcDbEntity
  8
Make2D$可见线$普通线
100
AcDbVertex
100
AcDb2dVertex
 10
152.0025125380264
 20
1524.325736522435
 30
0.0
  0
VERTEX
  5
28C
330
223
100
AcDbEntity
  8
Make2D$可见线$普通线
100
AcDbVertex
100
AcDb2dVertex
 10
152.1703753553603
 20
1524.34329249035
 30
0.0
  0
VERTEX
  5
28D
330
223
100
AcDbEntity
  8
Make2D$可见线$普通线
100
AcDbVertex
100
AcDb2dVertex
 10
152.3385784896119
 20
1524.357215244414
 30
0.0
  0
VERTEX
  5
28E
330
223
100
AcDbEntity
  8
Make2D$可见线$普通线
100
AcDbVertex
100
AcDb2dVertex
 10
153.7479161438292
 20
1524.43039203857
 30
0.0
  0
VERTEX
  5
28F
330
223
100
AcDbEntity
  8
Make2D$可见线$普通线
100
AcDbVertex
100
AcDb2dVertex
 10
155.4841799547819
 20
1524.493297705807
 30
0.0
  0
VERTEX
  5
290
330
223
100
AcDbEntity
  8
Make2D$可见线$普通线
100
AcDbVertex
100
AcDb2dVertex
 10
159.9990059947186
 20
1524.619013346461
 30
0.0
  0
VERTEX
  5
291
330
223
100
AcDbEntity
  8
Make2D$可见线$普通线
100
AcDbVertex
100
AcDb2dVertex
 10
167.2839972311704
 20
1524.807488134797
 30
0.0
  0
VERTEX
  5
292
330
223
100
AcDbEntity
  8
Make2D$可见线$普通线
100
AcDbVertex
100
AcDb2dVertex
 10
169.265724070451
 20
1524.870285636484
 30
0.0
  0
VERTEX
  5
293
330
223
100
AcDbEntity
  8
Make2D$可见线$普通线
100
AcDbVertex
100
AcDb2dVertex
 10
170.8117598211367
 20
1524.933063396539
 30
0.0
  0
VERTEX
  5
294
330
223
100
AcDbEntity
  8
Make2D$可见线$普通线
100
AcDbVertex
100
AcDb2dVertex
 10
171.8296726716972
 20
1524.995814447383
 30
0.0
 42
0.0574609369374006
  0
VERTEX
  5
295
330
223
100
AcDbEntity
  8
Make2D$可见线$普通线
100
AcDbVertex
100
AcDb2dVertex
 10
172.2590901489345
 20
1525.05856774777
 30
0.0
  0
VERTEX
  5
296
330
223
100
AcDbEntity
  8
Make2D$可见线$普通线
100
AcDbVertex
100
AcDb2dVertex
 10
172.2606925140331
 20
1525.059408745878
 30
0.0
 42
0.644451208831341
  0
VERTEX
  5
297
330
223
100
AcDbEntity
  8
Make2D$可见线$普通线
100
AcDbVertex
100
AcDb2dVertex
 10
172.3401907716173
 20
1524.175890994929
 30
0.0
  0
SEQEND
  5
298
330
223
100
AcDbEntity
  8
Make2D$可见线$普通线
  0
POLYLINE
  5
299
330
1F
100
AcDbEntity
  8
Make2D$可见线$普通线
100
AcDb2dPolyline
 66
     1
 10
0.0
 20
0.0
 30
0.0
  0
VERTEX
  5
29A
330
299
100
AcDbEntity
  8
Make2D$可见线$普通线
100
AcDbVertex
100
AcDb2dVertex
 10
151.7734532155475
 20
1525.030815505378
 30
0.0
 42
0.547235740983906
  0
VERTEX
  5
29B
330
299
100
AcDbEntity
  8
Make2D$可见线$普通线
100
AcDbVertex
100
AcDb2dVertex
 10
151.8010755534226
 20
1525.861931176185
 30
0.0
  0
VERTEX
  5
29C
330
299
100
AcDbEntity
  8
Make2D$可见线$普通线
100
AcDbVertex
100
AcDb2dVertex
 10
151.7999685354027
 20
1525.862610080769
 30
0.0
  0
VERTEX
  5
29D
330
299
100
AcDbEntity
  8
Make2D$可见线$普通线
100
AcDbVertex
100
AcDb2dVertex
 10
151.798932573414
 20
1525.863288300069
 30
0.0
  0
VERTEX
  5
29E
330
299
100
AcDbEntity
  8
Make2D$可见线$普通线
100
AcDbVertex
100
AcDb2dVertex
 10
151.7979677178112
 20
1525.86396587961
 30
0.0
  0
VERTEX
  5
29F
330
299
100
AcDbEntity
  8
Make2D$可见线$普通线
100
AcDbVertex
100
AcDb2dVertex
 10
151.7975119706403
 20
1525.864304443697
 30
0.0
  0
VERTEX
  5
2A0
330
299
100
AcDbEntity
  8
Make2D$可见线$普通线
100
AcDbVertex
100
AcDb2dVertex
 10
151.7970740189488
 20
1525.864642864916
 30
0.0
  0
VERTEX
  5
2A1
330
299
100
AcDbEntity
  8
Make2D$可见线$普通线
100
AcDbVertex
100
AcDb2dVertex
 10
151.7966538690311
 20
1525.864981148958
 30
0.0
  0
VERTEX
  5
2A2
330
299
100
AcDbEntity
  8
Make2D$可见线$普通线
100
AcDbVertex
100
AcDb2dVertex
 10
151.7962515271815
 20
1525.865319301513
 30
0.0
  0
VERTEX
  5
2A3
330
299
100
AcDbEntity
  8
Make2D$可见线$普通线
100
AcDbVertex
100
AcDb2dVertex
 10
151.7958669996943
 20
1525.865657328274
 30
0.0
  0
VERTEX
  5
2A4
330
299
100
AcDbEntity
  8
Make2D$可见线$普通线
100
AcDbVertex
100
AcDb2dVertex
 10
151.7955002928637
 20
1525.865995234928
 30
0.0
  0
VERTEX
  5
2A5
330
299
100
AcDbEntity
  8
Make2D$可见线$普通线
100
AcDbVertex
100
AcDb2dVertex
 10
151.7951514129842
 20
1525.866333027169
 30
0.0
  0
VERTEX
  5
2A6
330
299
100
AcDbEntity
  8
Make2D$可见线$普通线
100
AcDbVertex
100
AcDb2dVertex
 10
151.79482036635
 20
1525.866670710685
 30
0.0
  0
VERTEX
  5
2A7
330
299
100
AcDbEntity
  8
Make2D$可见线$普通线
100
AcDbVertex
100
AcDb2dVertex
 10
151.7945071592555
 20
1525.867008291168
 30
0.0
  0
VERTEX
  5
2A8
330
299
100
AcDbEntity
  8
Make2D$可见线$普通线
100
AcDbVertex
100
AcDb2dVertex
 10
151.794211797995
 20
1525.867345774309
 30
0.0
  0
VERTEX
  5
2A9
330
299
100
AcDbEntity
  8
Make2D$可见线$普通线
100
AcDbVertex
100
AcDb2dVertex
 10
151.7939342888628
 20
1525.867683165798
 30
0.0
  0
VERTEX
  5
2AA
330
299
100
AcDbEntity
  8
Make2D$可见线$普通线
100
AcDbVertex
100
AcDb2dVertex
 10
151.7936746381532
 20
1525.868020471326
 30
0.0
  0
VERTEX
  5
2AB
330
299
100
AcDbEntity
  8
Make2D$可见线$普通线
100
AcDbVertex
100
AcDb2dVertex
 10
151.7934328521606
 20
1525.868357696583
 30
0.0
  0
VERTEX
  5
2AC
330
299
100
AcDbEntity
  8
Make2D$可见线$普通线
100
AcDbVertex
100
AcDb2dVertex
 10
151.7933186604001
 20
1525.868526280889
 30
0.0
  0
VERTEX
  5
2AD
330
299
100
AcDbEntity
  8
Make2D$可见线$普通线
100
AcDbVertex
100
AcDb2dVertex
 10
151.7932089371793
 20
1525.868694847261
 30
0.0
  0
VERTEX
  5
2AE
330
299
100
AcDbEntity
  8
Make2D$可见线$普通线
100
AcDbVertex
100
AcDb2dVertex
 10
151.7931036832848
 20
1525.86886339641
 30
0.0
  0
VERTEX
  5
2AF
330
299
100
AcDbEntity
  8
Make2D$可见线$普通线
100
AcDbVertex
100
AcDb2dVertex
 10
151.7930028995035
 20
1525.869031929049
 30
0.0
  0
VERTEX
  5
2B0
330
299
100
AcDbEntity
  8
Make2D$可见线$普通线
100
AcDbVertex
100
AcDb2dVertex
 10
151.7929065866222
 20
1525.869200445888
 30
0.0
  0
VERTEX
  5
2B1
330
299
100
AcDbEntity
  8
Make2D$可见线$普通线
100
AcDbVertex
100
AcDb2dVertex
 10
151.7928147454277
 20
1525.869368947639
 30
0.0
  0
VERTEX
  5
2B2
330
299
100
AcDbEntity
  8
Make2D$可见线$普通线
100
AcDbVertex
100
AcDb2dVertex
 10
151.7927273767067
 20
1525.869537435013
 30
0.0
  0
VERTEX
  5
2B3
330
299
100
AcDbEntity
  8
Make2D$可见线$普通线
100
AcDbVertex
100
AcDb2dVertex
 10
151.792644481246
 20
1525.869705908721
 30
0.0
  0
VERTEX
  5
2B4
330
299
100
AcDbEntity
  8
Make2D$可见线$普通线
100
AcDbVertex
100
AcDb2dVertex
 10
151.7925660598326
 20
1525.869874369475
 30
0.0
  0
VERTEX
  5
2B5
330
299
100
AcDbEntity
  8
Make2D$可见线$普通线
100
AcDbVertex
100
AcDb2dVertex
 10
151.792492113253
 20
1525.870042817986
 30
0.0
  0
VERTEX
  5
2B6
330
299
100
AcDbEntity
  8
Make2D$可见线$普通线
100
AcDbVertex
100
AcDb2dVertex
 10
151.7924226422942
 20
1525.870211254965
 30
0.0
  0
VERTEX
  5
2B7
330
299
100
AcDbEntity
  8
Make2D$可见线$普通线
100
AcDbVertex
100
AcDb2dVertex
 10
151.7923576477428
 20
1525.870379681124
 30
0.0
  0
VERTEX
  5
2B8
330
299
100
AcDbEntity
  8
Make2D$可见线$普通线
100
AcDbVertex
100
AcDb2dVertex
 10
151.7922971303857
 20
1525.870548097175
 30
0.0
  0
VERTEX
  5
2B9
330
299
100
AcDbEntity
  8
Make2D$可见线$普通线
100
AcDbVertex
100
AcDb2dVertex
 10
151.7922410910098
 20
1525.870716503827
 30
0.0
  0
VERTEX
  5
2BA
330
299
100
AcDbEntity
  8
Make2D$可见线$普通线
100
AcDbVertex
100
AcDb2dVertex
 10
151.7921895304017
 20
1525.870884901794
 30
0.0
  0
VERTEX
  5
2BB
330
299
100
AcDbEntity
  8
Make2D$可见线$普通线
100
AcDbVertex
100
AcDb2dVertex
 10
151.7921424493483
 20
1525.871053291785
 30
0.0
  0
VERTEX
  5
2BC
330
299
100
AcDbEntity
  8
Make2D$可见线$普通线
100
AcDbVertex
100
AcDb2dVertex
 10
151.7920998486364
 20
1525.871221674513
 30
0.0
  0
VERTEX
  5
2BD
330
299
100
AcDbEntity
  8
Make2D$可见线$普通线
100
AcDbVertex
100
AcDb2dVertex
 10
151.7920617290527
 20
1525.871390050688
 30
0.0
  0
VERTEX
  5
2BE
330
299
100
AcDbEntity
  8
Make2D$可见线$普通线
100
AcDbVertex
100
AcDb2dVertex
 10
151.7920280913841
 20
1525.871558421022
 30
0.0
  0
VERTEX
  5
2BF
330
299
100
AcDbEntity
  8
Make2D$可见线$普通线
100
AcDbVertex
100
AcDb2dVertex
 10
151.7919989364172
 20
1525.871726786227
 30
0.0
  0
VERTEX
  5
2C0
330
299
100
AcDbEntity
  8
Make2D$可见线$普通线
100
AcDbVertex
100
AcDb2dVertex
 10
151.791974264939
 20
1525.871895147014
 30
0.0
  0
VERTEX
  5
2C1
330
299
100
AcDbEntity
  8
Make2D$可见线$普通线
100
AcDbVertex
100
AcDb2dVertex
 10
151.7919540777362
 20
1525.872063504094
 30
0.0
  0
VERTEX
  5
2C2
330
299
100
AcDbEntity
  8
Make2D$可见线$普通线
100
AcDbVertex
100
AcDb2dVertex
 10
151.7919383755956
 20
1525.872231858178
 30
0.0
  0
VERTEX
  5
2C3
330
299
100
AcDbEntity
  8
Make2D$可见线$普通线
100
AcDbVertex
100
AcDb2dVertex
 10
151.791927159304
 20
1525.872400209977
 30
0.0
  0
VERTEX
  5
2C4
330
299
100
AcDbEntity
  8
Make2D$可见线$普通线
100
AcDbVertex
100
AcDb2dVertex
 10
151.7919204296481
 20
1525.872568560204
 30
0.0
  0
VERTEX
  5
2C5
330
299
100
AcDbEntity
  8
Make2D$可见线$普通线
100
AcDbVertex
100
AcDb2dVertex
 10
151.7919181874149
 20
1525.872736909569
 30
0.0
  0
VERTEX
  5
2C6
330
299
100
AcDbEntity
  8
Make2D$可见线$普通线
100
AcDbVertex
100
AcDb2dVertex
 10
151.7919229146237
 20
1525.872981187653
 30
0.0
  0
VERTEX
  5
2C7
330
299
100
AcDbEntity
  8
Make2D$可见线$普通线
100
AcDbVertex
100
AcDb2dVertex
 10
151.791937090417
 20
1525.873225465418
 30
0.0
  0
VERTEX
  5
2C8
330
299
100
AcDbEntity
  8
Make2D$可见线$普通线
100
AcDbVertex
100
AcDb2dVertex
 10
151.7919607136207
 20
1525.873469742866
 30
0.0
  0
VERTEX
  5
2C9
330
299
100
AcDbEntity
  8
Make2D$可见线$普通线
100
AcDbVertex
100
AcDb2dVertex
 10
151.7919937830608
 20
1525.873714019993
 30
0.0
  0
VERTEX
  5
2CA
330
299
100
AcDbEntity
  8
Make2D$可见线$普通线
100
AcDbVertex
100
AcDb2dVertex
 10
151.7920362975634
 20
1525.873958296799
 30
0.0
  0
VERTEX
  5
2CB
330
299
100
AcDbEntity
  8
Make2D$可见线$普通线
100
AcDbVertex
100
AcDb2dVertex
 10
151.7920882559542
 20
1525.874202573283
 30
0.0
  0
VERTEX
  5
2CC
330
299
100
AcDbEntity
  8
Make2D$可见线$普通线
100
AcDbVertex
100
AcDb2dVertex
 10
151.7921496570594
 20
1525.874446849444
 30
0.0
  0
VERTEX
  5
2CD
330
299
100
AcDbEntity
  8
Make2D$可见线$普通线
100
AcDbVertex
100
AcDb2dVertex
 10
151.792220499705
 20
1525.874691125281
 30
0.0
  0
VERTEX
  5
2CE
330
299
100
AcDbEntity
  8
Make2D$可见线$普通线
100
AcDbVertex
100
AcDb2dVertex
 10
151.7923007827167
 20
1525.874935400792
 30
0.0
  0
VERTEX
  5
2CF
330
299
100
AcDbEntity
  8
Make2D$可见线$普通线
100
AcDbVertex
100
AcDb2dVertex
 10
151.7923905049206
 20
1525.875179675976
 30
0.0
  0
VERTEX
  5
2D0
330
299
100
AcDbEntity
  8
Make2D$可见线$普通线
100
AcDbVertex
100
AcDb2dVertex
 10
151.7924896651427
 20
1525.875423950832
 30
0.0
  0
VERTEX
  5
2D1
330
299
100
AcDbEntity
  8
Make2D$可见线$普通线
100
AcDbVertex
100
AcDb2dVertex
 10
151.792598262209
 20
1525.87566822536
 30
0.0
  0
VERTEX
  5
2D2
330
299
100
AcDbEntity
  8
Make2D$可见线$普通线
100
AcDbVertex
100
AcDb2dVertex
 10
151.7927162949453
 20
1525.875912499557
 30
0.0
  0
VERTEX
  5
2D3
330
299
100
AcDbEntity
  8
Make2D$可见线$普通线
100
AcDbVertex
100
AcDb2dVertex
 10
151.7928437621777
 20
1525.876156773423
 30
0.0
  0
VERTEX
  5
2D4
330
299
100
AcDbEntity
  8
Make2D$可见线$普通线
100
AcDbVertex
100
AcDb2dVertex
 10
151.7929806627321
 20
1525.876401046957
 30
0.0
  0
VERTEX
  5
2D5
330
299
100
AcDbEntity
  8
Make2D$可见线$普通线
100
AcDbVertex
100
AcDb2dVertex
 10
151.7931269954345
 20
1525.876645320157
 30
0.0
  0
VERTEX
  5
2D6
330
299
100
AcDbEntity
  8
Make2D$可见线$普通线
100
AcDbVertex
100
AcDb2dVertex
 10
151.7932827591109
 20
1525.876889593023
 30
0.0
  0
VERTEX
  5
2D7
330
299
100
AcDbEntity
  8
Make2D$可见线$普通线
100
AcDbVertex
100
AcDb2dVertex
 10
151.7934479525872
 20
1525.877133865552
 30
0.0
  0
VERTEX
  5
2D8
330
299
100
AcDbEntity
  8
Make2D$可见线$普通线
100
AcDbVertex
100
AcDb2dVertex
 10
151.7936225746894
 20
1525.877378137745
 30
0.0
  0
VERTEX
  5
2D9
330
299
100
AcDbEntity
  8
Make2D$可见线$普通线
100
AcDbVertex
100
AcDb2dVertex
 10
151.7938066242434
 20
1525.8776224096
 30
0.0
  0
VERTEX
  5
2DA
330
299
100
AcDbEntity
  8
Make2D$可见线$普通线
100
AcDbVertex
100
AcDb2dVertex
 10
151.7940001000753
 20
1525.877866681115
 30
0.0
  0
VERTEX
  5
2DB
330
299
100
AcDbEntity
  8
Make2D$可见线$普通线
100
AcDbVertex
100
AcDb2dVertex
 10
151.7942030010109
 20
1525.87811095229
 30
0.0
  0
VERTEX
  5
2DC
330
299
100
AcDbEntity
  8
Make2D$可见线$普通线
100
AcDbVertex
100
AcDb2dVertex
 10
151.7944153258762
 20
1525.878355223123
 30
0.0
  0
VERTEX
  5
2DD
330
299
100
AcDbEntity
  8
Make2D$可见线$普通线
100
AcDbVertex
100
AcDb2dVertex
 10
151.7946370734973
 20
1525.878599493614
 30
0.0
  0
VERTEX
  5
2DE
330
299
100
AcDbEntity
  8
Make2D$可见线$普通线
100
AcDbVertex
100
AcDb2dVertex
 10
151.7948682427
 20
1525.878843763761
 30
0.0
  0
VERTEX
  5
2DF
330
299
100
AcDbEntity
  8
Make2D$可见线$普通线
100
AcDbVertex
100
AcDb2dVertex
 10
151.7951088323104
 20
1525.879088033563
 30
0.0
  0
VERTEX
  5
2E0
330
299
100
AcDbEntity
  8
Make2D$可见线$普通线
100
AcDbVertex
100
AcDb2dVertex
 10
151.7953588411543
 20
1525.879332303018
 30
0.0
  0
VERTEX
  5
2E1
330
299
100
AcDbEntity
  8
Make2D$可见线$普通线
100
AcDbVertex
100
AcDb2dVertex
 10
151.7956182680579
 20
1525.879576572127
 30
0.0
  0
VERTEX
  5
2E2
330
299
100
AcDbEntity
  8
Make2D$可见线$普通线
100
AcDbVertex
100
AcDb2dVertex
 10
151.7961653713474
 20
1525.880065109297
 30
0.0
  0
VERTEX
  5
2E3
330
299
100
AcDbEntity
  8
Make2D$可见线$普通线
100
AcDbVertex
100
AcDb2dVertex
 10
151.7967501327868
 20
1525.880553645065
 30
0.0
  0
VERTEX
  5
2E4
330
299
100
AcDbEntity
  8
Make2D$可见线$普通线
100
AcDbVertex
100
AcDb2dVertex
 10
151.7973725429837
 20
1525.881042179421
 30
0.0
  0
VERTEX
  5
2E5
330
299
100
AcDbEntity
  8
Make2D$可见线$普通线
100
AcDbVertex
100
AcDb2dVertex
 10
151.7980325925458
 20
1525.881530712356
 30
0.0
  0
VERTEX
  5
2E6
330
299
100
AcDbEntity
  8
Make2D$可见线$普通线
100
AcDbVertex
100
AcDb2dVertex
 10
151.7987302720808
 20
1525.882019243861
 30
0.0
  0
VERTEX
  5
2E7
330
299
100
AcDbEntity
  8
Make2D$可见线$普通线
100
AcDbVertex
100
AcDb2dVertex
 10
151.7994655721965
 20
1525.882507773927
 30
0.0
  0
VERTEX
  5
2E8
330
299
100
AcDbEntity
  8
Make2D$可见线$普通线
100
AcDbVertex
100
AcDb2dVertex
 10
151.8002384835006
 20
1525.882996302545
 30
0.0
  0
VERTEX
  5
2E9
330
299
100
AcDbEntity
  8
Make2D$可见线$普通线
100
AcDbVertex
100
AcDb2dVertex
 10
151.8010489966008
 20
1525.883484829704
 30
0.0
  0
VERTEX
  5
2EA
330
299
100
AcDbEntity
  8
Make2D$可见线$普通线
100
AcDbVertex
100
AcDb2dVertex
 10
151.8018971021048
 20
1525.883973355398
 30
0.0
  0
VERTEX
  5
2EB
330
299
100
AcDbEntity
  8
Make2D$可见线$普通线
100
AcDbVertex
100
AcDb2dVertex
 10
151.8027827906202
 20
1525.884461879615
 30
0.0
  0
VERTEX
  5
2EC
330
299
100
AcDbEntity
  8
Make2D$可见线$普通线
100
AcDbVertex
100
AcDb2dVertex
 10
151.8046668791165
 20
1525.885438923585
 30
0.0
  0
VERTEX
  5
2ED
330
299
100
AcDbEntity
  8
Make2D$可见线$普通线
100
AcDbVertex
100
AcDb2dVertex
 10
151.8067011869513
 20
1525.886415961543
 30
0.0
  0
VERTEX
  5
2EE
330
299
100
AcDbEntity
  8
Make2D$可见线$普通线
100
AcDbVertex
100
AcDb2dVertex
 10
151.8088856389863
 20
1525.887392993415
 30
0.0
  0
VERTEX
  5
2EF
330
299
100
AcDbEntity
  8
Make2D$可见线$普通线
100
AcDbVertex
100
AcDb2dVertex
 10
151.8112201600834
 20
1525.888370019127
 30
0.0
  0
VERTEX
  5
2F0
330
299
100
AcDbEntity
  8
Make2D$可见线$普通线
100
AcDbVertex
100
AcDb2dVertex
 10
151.8137046751041
 20
1525.889347038607
 30
0.0
  0
VERTEX
  5
2F1
330
299
100
AcDbEntity
  8
Make2D$可见线$普通线
100
AcDbVertex
100
AcDb2dVertex
 10
151.8163391089101
 20
1525.890324051782
 30
0.0
  0
VERTEX
  5
2F2
330
299
100
AcDbEntity
  8
Make2D$可见线$普通线
100
AcDbVertex
100
AcDb2dVertex
 10
151.822057432325
 20
1525.892278058923
 30
0.0
  0
VERTEX
  5
2F3
330
299
100
AcDbEntity
  8
Make2D$可见线$普通线
100
AcDbVertex
100
AcDb2dVertex
 10
151.8283745292217
 20
1525.894232039966
 30
0.0
  0
VERTEX
  5
2F4
330
299
100
AcDbEntity
  8
Make2D$可见线$普通线
100
AcDbVertex
100
AcDb2dVertex
 10
151.8352897984937
 20
1525.896185994326
 30
0.0
  0
VERTEX
  5
2F5
330
299
100
AcDbEntity
  8
Make2D$可见线$普通线
100
AcDbVertex
100
AcDb2dVertex
 10
151.8428026390347
 20
1525.898139921417
 30
0.0
  0
VERTEX
  5
2F6
330
299
100
AcDbEntity
  8
Make2D$可见线$普通线
100
AcDbVertex
100
AcDb2dVertex
 10
151.8509124497381
 20
1525.900093820655
 30
0.0
  0
VERTEX
  5
2F7
330
299
100
AcDbEntity
  8
Make2D$可见线$普通线
100
AcDbVertex
100
AcDb2dVertex
 10
151.8689205772068
 20
1525.904001533234
 30
0.0
  0
VERTEX
  5
2F8
330
299
100
AcDbEntity
  8
Make2D$可见线$普通线
100
AcDbVertex
100
AcDb2dVertex
 10
151.8893093720484
 20
1525.907909127383
 30
0.0
  0
VERTEX
  5
2F9
330
299
100
AcDbEntity
  8
Make2D$可见线$普通线
100
AcDbVertex
100
AcDb2dVertex
 10
151.9120740254117
 20
1525.911816598423
 30
0.0
  0
VERTEX
  5
2FA
330
299
100
AcDbEntity
  8
Make2D$可见线$普通线
100
AcDbVertex
100
AcDb2dVertex
 10
151.9647116722974
 20
1525.919631152463
 30
0.0
  0
VERTEX
  5
2FB
330
299
100
AcDbEntity
  8
Make2D$可见线$普通线
100
AcDbVertex
100
AcDb2dVertex
 10
152.0982856788674
 20
1525.935258577387
 30
0.0
  0
VERTEX
  5
2FC
330
299
100
AcDbEntity
  8
Make2D$可见线$普通线
100
AcDbVertex
100
AcDb2dVertex
 10
152.5481034290127
 20
1525.971581316177
 30
0.0
  0
VERTEX
  5
2FD
330
299
100
AcDbEntity
  8
Make2D$可见线$普通线
100
AcDbVertex
100
AcDb2dVertex
 10
152.998625697762
 20
1525.997754490611
 30
0.0
  0
VERTEX
  5
2FE
330
299
100
AcDbEntity
  8
Make2D$可见线$普通线
100
AcDbVertex
100
AcDb2dVertex
 10
154.4391961889798
 20
1526.060253504752
 30
0.0
  0
VERTEX
  5
2FF
330
299
100
AcDbEntity
  8
Make2D$可见线$普通线
100
AcDbVertex
100
AcDb2dVertex
 10
156.3327042152547
 20
1526.122722622615
 30
0.0
  0
VERTEX
  5
300
330
299
100
AcDbEntity
  8
Make2D$可见线$普通线
100
AcDbVertex
100
AcDb2dVertex
 10
168.0831714725005
 20
1526.434842749957
 30
0.0
  0
VERTEX
  5
301
330
299
100
AcDbEntity
  8
Make2D$可见线$普通线
100
AcDbVertex
100
AcDb2dVertex
 10
169.8920762817261
 20
1526.497238389833
 30
0.0
  0
VERTEX
  5
302
330
299
100
AcDbEntity
  8
Make2D$可见线$普通线
100
AcDbVertex
100
AcDb2dVertex
 10
171.2274788689857
 20
1526.559595541028
 30
0.0
  0
VERTEX
  5
303
330
299
100
AcDbEntity
  8
Make2D$可见线$普通线
100
AcDbVertex
100
AcDb2dVertex
 10
171.6194057659058
 20
1526.584814582375
 30
0.0
  0
VERTEX
  5
304
330
299
100
AcDbEntity
  8
Make2D$可见线$普通线
100
AcDbVertex
100
AcDb2dVertex
 10
172.0103845178142
 20
1526.621940154856
 30
0.0
 42
0.0807754575640558
  0
VERTEX
  5
305
330
299
100
AcDbEntity
  8
Make2D$可见线$普通线
100
AcDbVertex
100
AcDb2dVertex
 10
172.2001305617657
 20
1526.662995340838
 30
0.0
  0
VERTEX
  5
306
330
299
100
AcDbEntity
  8
Make2D$可见线$普通线
100
AcDbVertex
100
AcDb2dVertex
 10
172.2036919753972
 20
1526.665757974121
 30
0.0
  0
VERTEX
  5
307
330
299
100
AcDbEntity
  8
Make2D$可见线$普通线
100
AcDbVertex
100
AcDb2dVertex
 10
172.2697135652589
 20
1526.712536214485
 30
0.0
  0
SEQEND
  5
308
330
299
100
AcDbEntity
  8
Make2D$可见线$普通线
  0
POLYLINE
  5
309
330
1F
100
AcDbEntity
  8
Make2D$可见线$普通线
100
AcDb2dPolyline
 66
     1
 10
0.0
 20
0.0
 30
0.0
  0
VERTEX
  5
30A
330
309
100
AcDbEntity
  8
Make2D$可见线$普通线
100
AcDbVertex
100
AcDb2dVertex
 10
46.32626809635857
 20
1586.417133834308
 30
0.0
 42
-0.1454667338992264
  0
VERTEX
  5
30B
330
309
100
AcDbEntity
  8
Make2D$可见线$普通线
100
AcDbVertex
100
AcDb2dVertex
 10
46.00026186753641
 20
1587.510236491187
 30
0.0
  0
VERTEX
  5
30C
330
309
100
AcDbEntity
  8
Make2D$可见线$普通线
100
AcDbVertex
100
AcDb2dVertex
 10
46.00031473193791
 20
1594.511553341079
 30
0.0
 42
0.4148432797852614
  0
VERTEX
  5
30D
330
309
100
AcDbEntity
  8
Make2D$可见线$普通线
100
AcDbVertex
100
AcDb2dVertex
 10
44.99832837398939
 20
1595.51155334108
 30
0.0
  0
VERTEX
  5
30E
330
309
100
AcDbEntity
  8
Make2D$可见线$普通线
100
AcDbVertex
100
AcDb2dVertex
 10
8.009816987356821
 20
1595.51155334108
 30
0.0
 42
0.4142634218909699
  0
VERTEX
  5
30F
330
309
100
AcDbEntity
  8
Make2D$可见线$普通线
100
AcDbVertex
100
AcDb2dVertex
 10
7.00980612059734
 20
1594.511553341079
 30
0.0
  0
VERTEX
  5
310
330
309
100
AcDbEntity
  8
Make2D$可见线$普通线
100
AcDbVertex
100
AcDb2dVertex
 10
7.009856751192965
 20
1587.510397237139
 30
0.0
 42
-0.1631318643630779
  0
VERTEX
  5
311
330
309
100
AcDbEntity
  8
Make2D$可见线$普通线
100
AcDbVertex
100
AcDb2dVertex
 10
6.604992741674645
 20
1586.30509183449
 30
0.0
  0
SEQEND
  5
312
330
309
100
AcDbEntity
  8
Make2D$可见线$普通线
  0
POLYLINE
  5
313
330
1F
100
AcDbEntity
  8
Make2D$可见线$普通线
100
AcDb2dPolyline
 66
     1
 10
0.0
 20
0.0
 30
0.0
  0
VERTEX
  5
314
330
313
100
AcDbEntity
  8
Make2D$可见线$普通线
100
AcDbVertex
100
AcDb2dVertex
 10
151.7499231964989
 20
1521.733474996247
 30
0.0
 42
0.6549637796422528
  0
VERTEX
  5
315
330
313
100
AcDbEntity
  8
Make2D$可见线$普通线
100
AcDbVertex
100
AcDb2dVertex
 10
151.6943257886841
 20
1522.626131912658
 30
0.0
  0
VERTEX
  5
316
330
313
100
AcDbEntity
  8
Make2D$可见线$普通线
100
AcDbVertex
100
AcDb2dVertex
 10
151.686320231643
 20
1522.6283867631
 30
0.0
  0
VERTEX
  5
317
330
313
100
AcDbEntity
  8
Make2D$可见线$普通线
100
AcDbVertex
100
AcDb2dVertex
 10
151.6791173062823
 20
1522.630644491941
 30
0.0
  0
VERTEX
  5
318
330
313
100
AcDbEntity
  8
Make2D$可见线$普通线
100
AcDbVertex
100
AcDb2dVertex
 10
151.675816964146
 20
1522.631774374579
 30
0.0
  0
VERTEX
  5
319
330
313
100
AcDbEntity
  8
Make2D$可见线$普通线
100
AcDbVertex
100
AcDb2dVertex
 10
151.6727174403266
 20
1522.632904903398
 30
0.0
  0
VERTEX
  5
31A
330
313
100
AcDbEntity
  8
Make2D$可见线$普通线
100
AcDbVertex
100
AcDb2dVertex
 10
151.6698187882895
 20
1522.634036053926
 30
0.0
  0
VERTEX
  5
31B
330
313
100
AcDbEntity
  8
Make2D$可见线$普通线
100
AcDbVertex
100
AcDb2dVertex
 10
151.6671210615004
 20
1522.63516780169
 30
0.0
  0
VERTEX
  5
31C
330
313
100
AcDbEntity
  8
Make2D$可见线$普通线
100
AcDbVertex
100
AcDb2dVertex
 10
151.6646243134248
 20
1522.636300122217
 30
0.0
  0
VERTEX
  5
31D
330
313
100
AcDbEntity
  8
Make2D$可见线$普通线
100
AcDbVertex
100
AcDb2dVertex
 10
151.6634513231126
 20
1522.636866489619
 30
0.0
  0
VERTEX
  5
31E
330
313
100
AcDbEntity
  8
Make2D$可见线$普通线
100
AcDbVertex
100
AcDb2dVertex
 10
151.6623285975284
 20
1522.637432991034
 30
0.0
  0
VERTEX
  5
31F
330
313
100
AcDbEntity
  8
Make2D$可见线$普通线
100
AcDbVertex
100
AcDb2dVertex
 10
151.6612561433553
 20
1522.637999623404
 30
0.0
  0
VERTEX
  5
320
330
313
100
AcDbEntity
  8
Make2D$可见线$普通线
100
AcDbVertex
100
AcDb2dVertex
 10
151.6602339672766
 20
1522.638566383669
 30
0.0
  0
VERTEX
  5
321
330
313
100
AcDbEntity
  8
Make2D$可见线$普通线
100
AcDbVertex
100
AcDb2dVertex
 10
151.6592620759754
 20
1522.63913326877
 30
0.0
  0
VERTEX
  5
322
330
313
100
AcDbEntity
  8
Make2D$可见线$普通线
100
AcDbVertex
100
AcDb2dVertex
 10
151.6583404761351
 20
1522.639700275648
 30
0.0
  0
VERTEX
  5
323
330
313
100
AcDbEntity
  8
Make2D$可见线$普通线
100
AcDbVertex
100
AcDb2dVertex
 10
151.6574691744386
 20
1522.640267401244
 30
0.0
  0
VERTEX
  5
324
330
313
100
AcDbEntity
  8
Make2D$可见线$普通线
100
AcDbVertex
100
AcDb2dVertex
 10
151.6566481775693
 20
1522.640834642499
 30
0.0
  0
VERTEX
  5
325
330
313
100
AcDbEntity
  8
Make2D$可见线$普通线
100
AcDbVertex
100
AcDb2dVertex
 10
151.6558774922104
 20
1522.641401996354
 30
0.0
  0
VERTEX
  5
326
330
313
100
AcDbEntity
  8
Make2D$可见线$普通线
100
AcDbVertex
100
AcDb2dVertex
 10
151.655157125045
 20
1522.641969459749
 30
0.0
  0
VERTEX
  5
327
330
313
100
AcDbEntity
  8
Make2D$可见线$普通线
100
AcDbVertex
100
AcDb2dVertex
 10
151.6548158128733
 20
1522.642253231569
 30
0.0
  0
VERTEX
  5
328
330
313
100
AcDbEntity
  8
Make2D$可见线$普通线
100
AcDbVertex
100
AcDb2dVertex
 10
151.6544870827563
 20
1522.642537029627
 30
0.0
  0
VERTEX
  5
329
330
313
100
AcDbEntity
  8
Make2D$可见线$普通线
100
AcDbVertex
100
AcDb2dVertex
 10
151.6541709355292
 20
1522.64282085354
 30
0.0
  0
VERTEX
  5
32A
330
313
100
AcDbEntity
  8
Make2D$可见线$普通线
100
AcDbVertex
100
AcDb2dVertex
 10
151.6538673720275
 20
1522.643104702926
 30
0.0
  0
VERTEX
  5
32B
330
313
100
AcDbEntity
  8
Make2D$可见线$普通线
100
AcDbVertex
100
AcDb2dVertex
 10
151.6535763930867
 20
1522.643388577403
 30
0.0
  0
VERTEX
  5
32C
330
313
100
AcDbEntity
  8
Make2D$可见线$普通线
100
AcDbVertex
100
AcDb2dVertex
 10
151.653297999542
 20
1522.643672476589
 30
0.0
  0
VERTEX
  5
32D
330
313
100
AcDbEntity
  8
Make2D$可见线$普通线
100
AcDbVertex
100
AcDb2dVertex
 10
151.6530321922288
 20
1522.643956400101
 30
0.0
  0
VERTEX
  5
32E
330
313
100
AcDbEntity
  8
Make2D$可见线$普通线
100
AcDbVertex
100
AcDb2dVertex
 10
151.6527789719827
 20
1522.644240347556
 30
0.0
  0
VERTEX
  5
32F
330
313
100
AcDbEntity
  8
Make2D$可见线$普通线
100
AcDbVertex
100
AcDb2dVertex
 10
151.6525383396389
 20
1522.644524318573
 30
0.0
  0
VERTEX
  5
330
330
313
100
AcDbEntity
  8
Make2D$可见线$普通线
100
AcDbVertex
100
AcDb2dVertex
 10
151.6523102960329
 20
1522.644808312769
 30
0.0
  0
VERTEX
  5
331
330
313
100
AcDbEntity
  8
Make2D$可见线$普通线
100
AcDbVertex
100
AcDb2dVertex
 10
151.6520948420001
 20
1522.645092329761
 30
0.0
  0
VERTEX
  5
332
330
313
100
AcDbEntity
  8
Make2D$可见线$普通线
100
AcDbVertex
100
AcDb2dVertex
 10
151.6518919783759
 20
1522.645376369167
 30
0.0
  0
VERTEX
  5
333
330
313
100
AcDbEntity
  8
Make2D$可见线$普通线
100
AcDbVertex
100
AcDb2dVertex
 10
151.6517017059956
 20
1522.645660430605
 30
0.0
  0
VERTEX
  5
334
330
313
100
AcDbEntity
  8
Make2D$可见线$普通线
100
AcDbVertex
100
AcDb2dVertex
 10
151.6515240256948
 20
1522.645944513693
 30
0.0
  0
VERTEX
  5
335
330
313
100
AcDbEntity
  8
Make2D$可见线$普通线
100
AcDbVertex
100
AcDb2dVertex
 10
151.6513589383087
 20
1522.646228618047
 30
0.0
  0
VERTEX
  5
336
330
313
100
AcDbEntity
  8
Make2D$可见线$普通线
100
AcDbVertex
100
AcDb2dVertex
 10
151.6512064446728
 20
1522.646512743286
 30
0.0
  0
VERTEX
  5
337
330
313
100
AcDbEntity
  8
Make2D$可见线$普通线
100
AcDbVertex
100
AcDb2dVertex
 10
151.6511349207722
 20
1522.646654813618
 30
0.0
  0
VERTEX
  5
338
330
313
100
AcDbEntity
  8
Make2D$可见线$普通线
100
AcDbVertex
100
AcDb2dVertex
 10
151.6510665456224
 20
1522.646796889027
 30
0.0
  0
VERTEX
  5
339
330
313
100
AcDbEntity
  8
Make2D$可见线$普通线
100
AcDbVertex
100
AcDb2dVertex
 10
151.6510013193279
 20
1522.646938969467
 30
0.0
  0
VERTEX
  5
33A
330
313
100
AcDbEntity
  8
Make2D$可见线$普通线
100
AcDbVertex
100
AcDb2dVertex
 10
151.6509392419931
 20
1522.647081054888
 30
0.0
  0
VERTEX
  5
33B
330
313
100
AcDbEntity
  8
Make2D$可见线$普通线
100
AcDbVertex
100
AcDb2dVertex
 10
151.6508803137223
 20
1522.647223145244
 30
0.0
  0
VERTEX
  5
33C
330
313
100
AcDbEntity
  8
Make2D$可见线$普通线
100
AcDbVertex
100
AcDb2dVertex
 10
151.6508245346201
 20
1522.647365240487
 30
0.0
  0
VERTEX
  5
33D
330
313
100
AcDbEntity
  8
Make2D$可见线$普通线
100
AcDbVertex
100
AcDb2dVertex
 10
151.6507719047908
 20
1522.647507340568
 30
0.0
  0
VERTEX
  5
33E
330
313
100
AcDbEntity
  8
Make2D$可见线$普通线
100
AcDbVertex
100
AcDb2dVertex
 10
151.6507224243389
 20
1522.64764944544
 30
0.0
  0
VERTEX
  5
33F
330
313
100
AcDbEntity
  8
Make2D$可见线$普通线
100
AcDbVertex
100
AcDb2dVertex
 10
151.6506760933687
 20
1522.647791555056
 30
0.0
  0
VERTEX
  5
340
330
313
100
AcDbEntity
  8
Make2D$可见线$普通线
100
AcDbVertex
100
AcDb2dVertex
 10
151.6506329119848
 20
1522.647933669366
 30
0.0
  0
VERTEX
  5
341
330
313
100
AcDbEntity
  8
Make2D$可见线$普通线
100
AcDbVertex
100
AcDb2dVertex
 10
151.6505928802915
 20
1522.648075788325
 30
0.0
  0
VERTEX
  5
342
330
313
100
AcDbEntity
  8
Make2D$可见线$普通线
100
AcDbVertex
100
AcDb2dVertex
 10
151.6505559983933
 20
1522.648217911883
 30
0.0
  0
VERTEX
  5
343
330
313
100
AcDbEntity
  8
Make2D$可见线$普通线
100
AcDbVertex
100
AcDb2dVertex
 10
151.6505222663946
 20
1522.648360039992
 30
0.0
  0
VERTEX
  5
344
330
313
100
AcDbEntity
  8
Make2D$可见线$普通线
100
AcDbVertex
100
AcDb2dVertex
 10
151.6504916843998
 20
1522.648502172607
 30
0.0
  0
VERTEX
  5
345
330
313
100
AcDbEntity
  8
Make2D$可见线$普通线
100
AcDbVertex
100
AcDb2dVertex
 10
151.6504642525134
 20
1522.648644309678
 30
0.0
  0
VERTEX
  5
346
330
313
100
AcDbEntity
  8
Make2D$可见线$普通线
100
AcDbVertex
100
AcDb2dVertex
 10
151.6504399708397
 20
1522.648786451157
 30
0.0
  0
VERTEX
  5
347
330
313
100
AcDbEntity
  8
Make2D$可见线$普通线
100
AcDbVertex
100
AcDb2dVertex
 10
151.6504188394833
 20
1522.648928596997
 30
0.0
  0
VERTEX
  5
348
330
313
100
AcDbEntity
  8
Make2D$可见线$普通线
100
AcDbVertex
100
AcDb2dVertex
 10
151.6504008585484
 20
1522.64907074715
 30
0.0
  0
VERTEX
  5
349
330
313
100
AcDbEntity
  8
Make2D$可见线$普通线
100
AcDbVertex
100
AcDb2dVertex
 10
151.6503860281396
 20
1522.649212901568
 30
0.0
  0
VERTEX
  5
34A
330
313
100
AcDbEntity
  8
Make2D$可见线$普通线
100
AcDbVertex
100
AcDb2dVertex
 10
151.6503743483612
 20
1522.649355060204
 30
0.0
  0
VERTEX
  5
34B
330
313
100
AcDbEntity
  8
Make2D$可见线$普通线
100
AcDbVertex
100
AcDb2dVertex
 10
151.6503658193178
 20
1522.649497223009
 30
0.0
  0
VERTEX
  5
34C
330
313
100
AcDbEntity
  8
Make2D$可见线$普通线
100
AcDbVertex
100
AcDb2dVertex
 10
151.6503604411136
 20
1522.649639389936
 30
0.0
  0
VERTEX
  5
34D
330
313
100
AcDbEntity
  8
Make2D$可见线$普通线
100
AcDbVertex
100
AcDb2dVertex
 10
151.6503582138532
 20
1522.649781560936
 30
0.0
  0
VERTEX
  5
34E
330
313
100
AcDbEntity
  8
Make2D$可见线$普通线
100
AcDbVertex
100
AcDb2dVertex
 10
151.650359137641
 20
1522.649923735964
 30
0.0
  0
VERTEX
  5
34F
330
313
100
AcDbEntity
  8
Make2D$可见线$普通线
100
AcDbVertex
100
AcDb2dVertex
 10
151.6503632125813
 20
1522.650065914969
 30
0.0
  0
VERTEX
  5
350
330
313
100
AcDbEntity
  8
Make2D$可见线$普通线
100
AcDbVertex
100
AcDb2dVertex
 10
151.6503704387787
 20
1522.650208097905
 30
0.0
  0
VERTEX
  5
351
330
313
100
AcDbEntity
  8
Make2D$可见线$普通线
100
AcDbVertex
100
AcDb2dVertex
 10
151.6503808163376
 20
1522.650350284724
 30
0.0
  0
VERTEX
  5
352
330
313
100
AcDbEntity
  8
Make2D$可见线$普通线
100
AcDbVertex
100
AcDb2dVertex
 10
151.6503943453623
 20
1522.650492475378
 30
0.0
  0
VERTEX
  5
353
330
313
100
AcDbEntity
  8
Make2D$可见线$普通线
100
AcDbVertex
100
AcDb2dVertex
 10
151.6504110259572
 20
1522.650634669818
 30
0.0
  0
VERTEX
  5
354
330
313
100
AcDbEntity
  8
Make2D$可见线$普通线
100
AcDbVertex
100
AcDb2dVertex
 10
151.6504308582269
 20
1522.650776867999
 30
0.0
  0
VERTEX
  5
355
330
313
100
AcDbEntity
  8
Make2D$可见线$普通线
100
AcDbVertex
100
AcDb2dVertex
 10
151.6504538422757
 20
1522.650919069871
 30
0.0
  0
VERTEX
  5
356
330
313
100
AcDbEntity
  8
Make2D$可见线$普通线
100
AcDbVertex
100
AcDb2dVertex
 10
151.6504799782082
 20
1522.651061275387
 30
0.0
  0
VERTEX
  5
357
330
313
100
AcDbEntity
  8
Make2D$可见线$普通线
100
AcDbVertex
100
AcDb2dVertex
 10
151.6505092661286
 20
1522.651203484498
 30
0.0
  0
VERTEX
  5
358
330
313
100
AcDbEntity
  8
Make2D$可见线$普通线
100
AcDbVertex
100
AcDb2dVertex
 10
151.6505417061414
 20
1522.651345697158
 30
0.0
  0
VERTEX
  5
359
330
313
100
AcDbEntity
  8
Make2D$可见线$普通线
100
AcDbVertex
100
AcDb2dVertex
 10
151.6505772983511
 20
1522.651487913319
 30
0.0
  0
VERTEX
  5
35A
330
313
100
AcDbEntity
  8
Make2D$可见线$普通线
100
AcDbVertex
100
AcDb2dVertex
 10
151.650616042862
 20
1522.651630132932
 30
0.0
  0
VERTEX
  5
35B
330
313
100
AcDbEntity
  8
Make2D$可见线$普通线
100
AcDbVertex
100
AcDb2dVertex
 10
151.6506579397786
 20
1522.651772355949
 30
0.0
  0
VERTEX
  5
35C
330
313
100
AcDbEntity
  8
Make2D$可见线$普通线
100
AcDbVertex
100
AcDb2dVertex
 10
151.6507029892054
 20
1522.651914582324
 30
0.0
  0
VERTEX
  5
35D
330
313
100
AcDbEntity
  8
Make2D$可见线$普通线
100
AcDbVertex
100
AcDb2dVertex
 10
151.6507511912467
 20
1522.652056812008
 30
0.0
  0
VERTEX
  5
35E
330
313
100
AcDbEntity
  8
Make2D$可见线$普通线
100
AcDbVertex
100
AcDb2dVertex
 10
151.6508025460069
 20
1522.652199044954
 30
0.0
  0
VERTEX
  5
35F
330
313
100
AcDbEntity
  8
Make2D$可见线$普通线
100
AcDbVertex
100
AcDb2dVertex
 10
151.6508570535905
 20
1522.652341281113
 30
0.0
  0
VERTEX
  5
360
330
313
100
AcDbEntity
  8
Make2D$可见线$普通线
100
AcDbVertex
100
AcDb2dVertex
 10
151.650914714102
 20
1522.652483520438
 30
0.0
  0
VERTEX
  5
361
330
313
100
AcDbEntity
  8
Make2D$可见线$普通线
100
AcDbVertex
100
AcDb2dVertex
 10
151.6509755276457
 20
1522.652625762881
 30
0.0
  0
VERTEX
  5
362
330
313
100
AcDbEntity
  8
Make2D$可见线$普通线
100
AcDbVertex
100
AcDb2dVertex
 10
151.6510394943261
 20
1522.652768008394
 30
0.0
  0
VERTEX
  5
363
330
313
100
AcDbEntity
  8
Make2D$可见线$普通线
100
AcDbVertex
100
AcDb2dVertex
 10
151.6511066142475
 20
1522.652910256929
 30
0.0
  0
VERTEX
  5
364
330
313
100
AcDbEntity
  8
Make2D$可见线$普通线
100
AcDbVertex
100
AcDb2dVertex
 10
151.6511768875145
 20
1522.653052508439
 30
0.0
  0
VERTEX
  5
365
330
313
100
AcDbEntity
  8
Make2D$可见线$普通线
100
AcDbVertex
100
AcDb2dVertex
 10
151.6513268945027
 20
1522.653337020192
 30
0.0
  0
VERTEX
  5
366
330
313
100
AcDbEntity
  8
Make2D$可见线$普通线
100
AcDbVertex
100
AcDb2dVertex
 10
151.651489516126
 20
1522.65362154327
 30
0.0
  0
VERTEX
  5
367
330
313
100
AcDbEntity
  8
Make2D$可见线$普通线
100
AcDbVertex
100
AcDb2dVertex
 10
151.65166475322
 20
1522.653906077291
 30
0.0
  0
VERTEX
  5
368
330
313
100
AcDbEntity
  8
Make2D$可见线$普通线
100
AcDbVertex
100
AcDb2dVertex
 10
151.6518526066199
 20
1522.654190621871
 30
0.0
  0
VERTEX
  5
369
330
313
100
AcDbEntity
  8
Make2D$可见线$普通线
100
AcDbVertex
100
AcDb2dVertex
 10
151.6520530771611
 20
1522.654475176629
 30
0.0
  0
VERTEX
  5
36A
330
313
100
AcDbEntity
  8
Make2D$可见线$普通线
100
AcDbVertex
100
AcDb2dVertex
 10
151.6522661656791
 20
1522.654759741183
 30
0.0
  0
VERTEX
  5
36B
330
313
100
AcDbEntity
  8
Make2D$可见线$普通线
100
AcDbVertex
100
AcDb2dVertex
 10
151.6524918730093
 20
1522.65504431515
 30
0.0
  0
VERTEX
  5
36C
330
313
100
AcDbEntity
  8
Make2D$可见线$普通线
100
AcDbVertex
100
AcDb2dVertex
 10
151.652730199987
 20
1522.655328898147
 30
0.0
  0
VERTEX
  5
36D
330
313
100
AcDbEntity
  8
Make2D$可见线$普通线
100
AcDbVertex
100
AcDb2dVertex
 10
151.6529811474478
 20
1522.655613489792
 30
0.0
  0
VERTEX
  5
36E
330
313
100
AcDbEntity
  8
Make2D$可见线$普通线
100
AcDbVertex
100
AcDb2dVertex
 10
151.6532447162268
 20
1522.655898089703
 30
0.0
  0
VERTEX
  5
36F
330
313
100
AcDbEntity
  8
Make2D$可见线$普通线
100
AcDbVertex
100
AcDb2dVertex
 10
151.6535209071597
 20
1522.656182697498
 30
0.0
  0
VERTEX
  5
370
330
313
100
AcDbEntity
  8
Make2D$可见线$普通线
100
AcDbVertex
100
AcDb2dVertex
 10
151.6538097210817
 20
1522.656467312794
 30
0.0
  0
VERTEX
  5
371
330
313
100
AcDbEntity
  8
Make2D$可见线$普通线
100
AcDbVertex
100
AcDb2dVertex
 10
151.6541111588282
 20
1522.656751935208
 30
0.0
  0
VERTEX
  5
372
330
313
100
AcDbEntity
  8
Make2D$可见线$普通线
100
AcDbVertex
100
AcDb2dVertex
 10
151.6544252212347
 20
1522.657036564358
 30
0.0
  0
VERTEX
  5
373
330
313
100
AcDbEntity
  8
Make2D$可见线$普通线
100
AcDbVertex
100
AcDb2dVertex
 10
151.6547519091366
 20
1522.657321199863
 30
0.0
  0
VERTEX
  5
374
330
313
100
AcDbEntity
  8
Make2D$可见线$普通线
100
AcDbVertex
100
AcDb2dVertex
 10
151.6550912233692
 20
1522.657605841339
 30
0.0
  0
VERTEX
  5
375
330
313
100
AcDbEntity
  8
Make2D$可见线$普通线
100
AcDbVertex
100
AcDb2dVertex
 10
151.655443164768
 20
1522.657890488404
 30
0.0
  0
VERTEX
  5
376
330
313
100
AcDbEntity
  8
Make2D$可见线$普通线
100
AcDbVertex
100
AcDb2dVertex
 10
151.6561849324056
 20
1522.658459797772
 30
0.0
  0
VERTEX
  5
377
330
313
100
AcDbEntity
  8
Make2D$可见线$普通线
100
AcDbVertex
100
AcDb2dVertex
 10
151.6569772187327
 20
1522.659029124908
 30
0.0
  0
VERTEX
  5
378
330
313
100
AcDbEntity
  8
Make2D$可见线$普通线
100
AcDbVertex
100
AcDb2dVertex
 10
151.6578200304324
 20
1522.659598466752
 30
0.0
  0
VERTEX
  5
379
330
313
100
AcDbEntity
  8
Make2D$可见线$普通线
100
AcDbVertex
100
AcDb2dVertex
 10
151.6587133741879
 20
1522.660167820246
 30
0.0
  0
VERTEX
  5
37A
330
313
100
AcDbEntity
  8
Make2D$可见线$普通线
100
AcDbVertex
100
AcDb2dVertex
 10
151.6596572566825
 20
1522.66073718233
 30
0.0
  0
VERTEX
  5
37B
330
313
100
AcDbEntity
  8
Make2D$可见线$普通线
100
AcDbVertex
100
AcDb2dVertex
 10
151.6606516845992
 20
1522.661306549946
 30
0.0
  0
VERTEX
  5
37C
330
313
100
AcDbEntity
  8
Make2D$可见线$普通线
100
AcDbVertex
100
AcDb2dVertex
 10
151.6616966646214
 20
1522.661875920034
 30
0.0
  0
VERTEX
  5
37D
330
313
100
AcDbEntity
  8
Make2D$可见线$普通线
100
AcDbVertex
100
AcDb2dVertex
 10
151.6627922034322
 20
1522.662445289535
 30
0.0
 42
-0.0574612439154508
  0
VERTEX
  5
37E
330
313
100
AcDbEntity
  8
Make2D$可见线$普通线
100
AcDbVertex
100
AcDb2dVertex
 10
152.096503217341
 20
1522.725822942707
 30
0.0
  0
VERTEX
  5
37F
330
313
100
AcDbEntity
  8
Make2D$可见线$普通线
100
AcDbVertex
100
AcDb2dVertex
 10
153.1241340324089
 20
1522.78917600347
 30
0.0
  0
VERTEX
  5
380
330
313
100
AcDbEntity
  8
Make2D$可见线$普通线
100
AcDbVertex
100
AcDb2dVertex
 10
154.6842262401489
 20
1522.852525948801
 30
0.0
  0
VERTEX
  5
381
330
313
100
AcDbEntity
  8
Make2D$可见线$普通线
100
AcDbVertex
100
AcDb2dVertex
 10
158.9991838115362
 20
1522.979155375023
 30
0.0
  0
VERTEX
  5
382
330
313
100
AcDbEntity
  8
Make2D$可见线$普通线
100
AcDbVertex
100
AcDb2dVertex
 10
166.4253117021149
 20
1523.168969634698
 30
0.0
  0
VERTEX
  5
383
330
313
100
AcDbEntity
  8
Make2D$可见线$普通线
100
AcDbVertex
100
AcDb2dVertex
 10
168.5639006549403
 20
1523.232206051677
 30
0.0
  0
VERTEX
  5
384
330
313
100
AcDbEntity
  8
Make2D$可见线$普通线
100
AcDbVertex
100
AcDb2dVertex
 10
170.3089232337801
 20
1523.295426682433
 30
0.0
  0
VERTEX
  5
385
330
313
100
AcDbEntity
  8
Make2D$可见线$普通线
100
AcDbVertex
100
AcDb2dVertex
 10
171.5561093873497
 20
1523.358638774929
 30
0.0
  0
VERTEX
  5
386
330
313
100
AcDbEntity
  8
Make2D$可见线$普通线
100
AcDbVertex
100
AcDb2dVertex
 10
171.9682570005968
 20
1523.390235247696
 30
0.0
  0
SEQEND
  5
387
330
313
100
AcDbEntity
  8
Make2D$可见线$普通线
  0
POLYLINE
  5
388
330
1F
100
AcDbEntity
  8
Make2D$可见线$普通线
100
AcDb2dPolyline
 66
     1
 10
0.0
 20
0.0
 30
0.0
  0
VERTEX
  5
389
330
388
100
AcDbEntity
  8
Make2D$可见线$普通线
100
AcDbVertex
100
AcDb2dVertex
 10
162.0150000000014
 20
1521.432344170945
 30
0.0
  0
VERTEX
  5
38A
330
388
100
AcDbEntity
  8
Make2D$可见线$普通线
100
AcDbVertex
100
AcDb2dVertex
 10
167.8699391924191
 20
1521.586176627993
 30
0.0
  0
VERTEX
  5
38B
330
388
100
AcDbEntity
  8
Make2D$可见线$普通线
100
AcDbVertex
100
AcDb2dVertex
 10
169.829491200644
 20
1521.650410787889
 30
0.0
  0
VERTEX
  5
38C
330
388
100
AcDbEntity
  8
Make2D$可见线$普通线
100
AcDbVertex
100
AcDb2dVertex
 10
171.3202058574123
 20
1521.71463034416
 30
0.0
  0
VERTEX
  5
38D
330
388
100
AcDbEntity
  8
Make2D$可见线$普通线
100
AcDbVertex
100
AcDb2dVertex
 10
171.7870382042824
 20
1521.741536434426
 30
0.0
  0
VERTEX
  5
38E
330
388
100
AcDbEntity
  8
Make2D$可见线$普通线
100
AcDbVertex
100
AcDb2dVertex
 10
172.2531547614229
 20
1521.778842371449
 30
0.0
  0
VERTEX
  5
38F
330
388
100
AcDbEntity
  8
Make2D$可见线$普通线
100
AcDbVertex
100
AcDb2dVertex
 10
172.392011722035
 20
1521.794908488824
 30
0.0
  0
VERTEX
  5
390
330
388
100
AcDbEntity
  8
Make2D$可见线$普通线
100
AcDbVertex
100
AcDb2dVertex
 10
172.4467633582772
 20
1521.802939503461
 30
0.0
  0
VERTEX
  5
391
330
388
100
AcDbEntity
  8
Make2D$可见线$普通线
100
AcDbVertex
100
AcDb2dVertex
 10
172.4704576174627
 20
1521.806956109639
 30
0.0
  0
VERTEX
  5
392
330
388
100
AcDbEntity
  8
Make2D$可见线$普通线
100
AcDbVertex
100
AcDb2dVertex
 10
172.4916928000554
 20
1521.810974061676
 30
0.0
  0
VERTEX
  5
393
330
388
100
AcDbEntity
  8
Make2D$可见线$普通线
100
AcDbVertex
100
AcDb2dVertex
 10
172.5104653780781
 20
1521.814993819535
 30
0.0
  0
VERTEX
  5
394
330
388
100
AcDbEntity
  8
Make2D$可见线$普通线
100
AcDbVertex
100
AcDb2dVertex
 10
172.5189270878828
 20
1521.817004519385
 30
0.0
  0
VERTEX
  5
395
330
388
100
AcDbEntity
  8
Make2D$可见线$普通线
100
AcDbVertex
100
AcDb2dVertex
 10
172.5267718235538
 20
1521.819015843178
 30
0.0
  0
VERTEX
  5
396
330
388
100
AcDbEntity
  8
Make2D$可见线$普通线
100
AcDbVertex
100
AcDb2dVertex
 10
172.5339991440937
 20
1521.821027848408
 30
0.0
  0
VERTEX
  5
397
330
388
100
AcDbEntity
  8
Make2D$可见线$普通线
100
AcDbVertex
100
AcDb2dVertex
 10
172.5406086085055
 20
1521.82304059257
 30
0.0
  0
VERTEX
  5
398
330
388
100
AcDbEntity
  8
Make2D$可见线$普通线
100
AcDbVertex
100
AcDb2dVertex
 10
172.5465997757921
 20
1521.82505413316
 30
0.0
  0
VERTEX
  5
399
330
388
100
AcDbEntity
  8
Make2D$可见线$普通线
100
AcDbVertex
100
AcDb2dVertex
 10
172.5493633602019
 20
1521.826061220084
 30
0.0
  0
VERTEX
  5
39A
330
388
100
AcDbEntity
  8
Make2D$可见线$普通线
100
AcDbVertex
100
AcDb2dVertex
 10
172.5519722049563
 20
1521.827068527674
 30
0.0
  0
VERTEX
  5
39B
330
388
100
AcDbEntity
  8
Make2D$可见线$普通线
100
AcDbVertex
100
AcDb2dVertex
 10
172.5544262549309
 20
1521.82807606312
 30
0.0
  0
VERTEX
  5
39C
330
388
100
AcDbEntity
  8
Make2D$可见线$普通线
100
AcDbVertex
100
AcDb2dVertex
 10
172.5567254550011
 20
1521.829083833607
 30
0.0
  0
VERTEX
  5
39D
330
388
100
AcDbEntity
  8
Make2D$可见线$普通线
100
AcDbVertex
100
AcDb2dVertex
 10
172.558869750042
 20
1521.830091846323
 30
0.0
  0
VERTEX
  5
39E
330
388
100
AcDbEntity
  8
Make2D$可见线$普通线
100
AcDbVertex
100
AcDb2dVertex
 10
172.5608590849292
 20
1521.831100108454
 30
0.0
  0
VERTEX
  5
39F
330
388
100
AcDbEntity
  8
Make2D$可见线$普通线
100
AcDbVertex
100
AcDb2dVertex
 10
172.5617956250886
 20
1521.831604335297
 30
0.0
  0
VERTEX
  5
3A0
330
388
100
AcDbEntity
  8
Make2D$可见线$普通线
100
AcDbVertex
100
AcDb2dVertex
 10
172.5626934045379
 20
1521.832108627188
 30
0.0
  0
VERTEX
  5
3A1
330
388
100
AcDbEntity
  8
Make2D$可见线$普通线
100
AcDbVertex
100
AcDb2dVertex
 10
172.5635524163864
 20
1521.832612985027
 30
0.0
  0
VERTEX
  5
3A2
330
388
100
AcDbEntity
  8
Make2D$可见线$普通线
100
AcDbVertex
100
AcDb2dVertex
 10
172.5643726537436
 20
1521.833117409712
 30
0.0
  0
VERTEX
  5
3A3
330
388
100
AcDbEntity
  8
Make2D$可见线$普通线
100
AcDbVertex
100
AcDb2dVertex
 10
172.5651541097188
 20
1521.83362190214
 30
0.0
  0
VERTEX
  5
3A4
330
388
100
AcDbEntity
  8
Make2D$可见线$普通线
100
AcDbVertex
100
AcDb2dVertex
 10
172.5658967774215
 20
1521.834126463211
 30
0.0
  0
VERTEX
  5
3A5
330
388
100
AcDbEntity
  8
Make2D$可见线$普通线
100
AcDbVertex
100
AcDb2dVertex
 10
172.5666006499611
 20
1521.834631093823
 30
0.0
  0
VERTEX
  5
3A6
330
388
100
AcDbEntity
  8
Make2D$可见线$普通线
100
AcDbVertex
100
AcDb2dVertex
 10
172.5672657204471
 20
1521.835135794874
 30
0.0
  0
VERTEX
  5
3A7
330
388
100
AcDbEntity
  8
Make2D$可见线$普通线
100
AcDbVertex
100
AcDb2dVertex
 10
172.5678919819888
 20
1521.835640567263
 30
0.0
  0
VERTEX
  5
3A8
330
388
100
AcDbEntity
  8
Make2D$可见线$普通线
100
AcDbVertex
100
AcDb2dVertex
 10
172.5684794276957
 20
1521.836145411887
 30
0.0
  0
VERTEX
  5
3A9
330
388
100
AcDbEntity
  8
Make2D$可见线$普通线
100
AcDbVertex
100
AcDb2dVertex
 10
172.5687585924578
 20
1521.836397861568
 30
0.0
  0
VERTEX
  5
3AA
330
388
100
AcDbEntity
  8
Make2D$可见线$普通线
100
AcDbVertex
100
AcDb2dVertex
 10
172.5690280506772
 20
1521.836650329646
 30
0.0
  0
VERTEX
  5
3AB
330
388
100
AcDbEntity
  8
Make2D$可见线$普通线
100
AcDbVertex
100
AcDb2dVertex
 10
172.5692878014926
 20
1521.836902816231
 30
0.0
  0
VERTEX
  5
3AC
330
388
100
AcDbEntity
  8
Make2D$可见线$普通线
100
AcDbVertex
100
AcDb2dVertex
 10
172.5695378440427
 20
1521.837155321437
 30
0.0
  0
VERTEX
  5
3AD
330
388
100
AcDbEntity
  8
Make2D$可见线$普通线
100
AcDbVertex
100
AcDb2dVertex
 10
172.5697781774661
 20
1521.837407845376
 30
0.0
  0
VERTEX
  5
3AE
330
388
100
AcDbEntity
  8
Make2D$可见线$普通线
100
AcDbVertex
100
AcDb2dVertex
 10
172.5700088009016
 20
1521.83766038816
 30
0.0
  0
VERTEX
  5
3AF
330
388
100
AcDbEntity
  8
Make2D$可见线$普通线
100
AcDbVertex
100
AcDb2dVertex
 10
172.5702297134878
 20
1521.837912949901
 30
0.0
  0
VERTEX
  5
3B0
330
388
100
AcDbEntity
  8
Make2D$可见线$普通线
100
AcDbVertex
100
AcDb2dVertex
 10
172.5704409143634
 20
1521.838165530712
 30
0.0
  0
VERTEX
  5
3B1
330
388
100
AcDbEntity
  8
Make2D$可见线$普通线
100
AcDbVertex
100
AcDb2dVertex
 10
172.570642402667
 20
1521.838418130704
 30
0.0
  0
VERTEX
  5
3B2
330
388
100
AcDbEntity
  8
Make2D$可见线$普通线
100
AcDbVertex
100
AcDb2dVertex
 10
172.5708341775374
 20
1521.838670749991
 30
0.0
  0
VERTEX
  5
3B3
330
388
100
AcDbEntity
  8
Make2D$可见线$普通线
100
AcDbVertex
100
AcDb2dVertex
 10
172.5710162381132
 20
1521.838923388685
 30
0.0
  0
VERTEX
  5
3B4
330
388
100
AcDbEntity
  8
Make2D$可见线$普通线
100
AcDbVertex
100
AcDb2dVertex
 10
172.5711885835331
 20
1521.839176046897
 30
0.0
  0
VERTEX
  5
3B5
330
388
100
AcDbEntity
  8
Make2D$可见线$普通线
100
AcDbVertex
100
AcDb2dVertex
 10
172.5713512129358
 20
1521.83942872474
 30
0.0
  0
VERTEX
  5
3B6
330
388
100
AcDbEntity
  8
Make2D$可见线$普通线
100
AcDbVertex
100
AcDb2dVertex
 10
172.57150412546
 20
1521.839681422327
 30
0.0
  0
VERTEX
  5
3B7
330
388
100
AcDbEntity
  8
Make2D$可见线$普通线
100
AcDbVertex
100
AcDb2dVertex
 10
172.5716473202442
 20
1521.839934139769
 30
0.0
  0
VERTEX
  5
3B8
330
388
100
AcDbEntity
  8
Make2D$可见线$普通线
100
AcDbVertex
100
AcDb2dVertex
 10
172.5717807964273
 20
1521.84018687718
 30
0.0
  0
VERTEX
  5
3B9
330
388
100
AcDbEntity
  8
Make2D$可见线$普通线
100
AcDbVertex
100
AcDb2dVertex
 10
172.5719045531479
 20
1521.84043963467
 30
0.0
  0
VERTEX
  5
3BA
330
388
100
AcDbEntity
  8
Make2D$可见线$普通线
100
AcDbVertex
100
AcDb2dVertex
 10
172.5720185895447
 20
1521.840692412354
 30
0.0
  0
VERTEX
  5
3BB
330
388
100
AcDbEntity
  8
Make2D$可见线$普通线
100
AcDbVertex
100
AcDb2dVertex
 10
172.5721229047562
 20
1521.840945210342
 30
0.0
  0
VERTEX
  5
3BC
330
388
100
AcDbEntity
  8
Make2D$可见线$普通线
100
AcDbVertex
100
AcDb2dVertex
 10
172.5722174979213
 20
1521.841198028748
 30
0.0
  0
VERTEX
  5
3BD
330
388
100
AcDbEntity
  8
Make2D$可见线$普通线
100
AcDbVertex
100
AcDb2dVertex
 10
172.5723023681786
 20
1521.841450867682
 30
0.0
  0
VERTEX
  5
3BE
330
388
100
AcDbEntity
  8
Make2D$可见线$普通线
100
AcDbVertex
100
AcDb2dVertex
 10
172.5723775146668
 20
1521.841703727259
 30
0.0
  0
VERTEX
  5
3BF
330
388
100
AcDbEntity
  8
Make2D$可见线$普通线
100
AcDbVertex
100
AcDb2dVertex
 10
172.5724429365245
 20
1521.84195660759
 30
0.0
  0
VERTEX
  5
3C0
330
388
100
AcDbEntity
  8
Make2D$可见线$普通线
100
AcDbVertex
100
AcDb2dVertex
 10
172.5724986328905
 20
1521.842209508787
 30
0.0
  0
VERTEX
  5
3C1
330
388
100
AcDbEntity
  8
Make2D$可见线$普通线
100
AcDbVertex
100
AcDb2dVertex
 10
172.5725446029033
 20
1521.842462430963
 30
0.0
  0
VERTEX
  5
3C2
330
388
100
AcDbEntity
  8
Make2D$可见线$普通线
100
AcDbVertex
100
AcDb2dVertex
 10
172.5725808457018
 20
1521.84271537423
 30
0.0
  0
VERTEX
  5
3C3
330
388
100
AcDbEntity
  8
Make2D$可见线$普通线
100
AcDbVertex
100
AcDb2dVertex
 10
172.5726073604245
 20
1521.8429683387
 30
0.0
  0
VERTEX
  5
3C4
330
388
100
AcDbEntity
  8
Make2D$可见线$普通线
100
AcDbVertex
100
AcDb2dVertex
 10
172.5726241462102
 20
1521.843221324486
 30
0.0
  0
VERTEX
  5
3C5
330
388
100
AcDbEntity
  8
Make2D$可见线$普通线
100
AcDbVertex
100
AcDb2dVertex
 10
172.5726277713608
 20
1522.48420350908
 30
0.0
  0
SEQEND
  5
3C6
330
388
100
AcDbEntity
  8
Make2D$可见线$普通线
  0
POLYLINE
  5
3C7
330
1F
100
AcDbEntity
  8
Make2D$可见线$普通线
100
AcDb2dPolyline
 66
     1
 10
0.0
 20
0.0
 30
0.0
  0
VERTEX
  5
3C8
330
3C7
100
AcDbEntity
  8
Make2D$可见线$普通线
100
AcDbVertex
100
AcDb2dVertex
 10
48.00025911881645
 20
1585.511553341079
 30
0.0
  0
VERTEX
  5
3C9
330
3C7
100
AcDbEntity
  8
Make2D$可见线$普通线
100
AcDbVertex
100
AcDb2dVertex
 10
52.74000000000147
 20
1585.511825010097
 30
0.0
 42
-0.414839073302597
  0
VERTEX
  5
3CA
330
3C7
100
AcDbEntity
  8
Make2D$可见线$普通线
100
AcDbVertex
100
AcDb2dVertex
 10
53.74000000000134
 20
1584.509932460096
 30
0.0
  0
VERTEX
  5
3CB
330
3C7
100
AcDbEntity
  8
Make2D$可见线$普通线
100
AcDbVertex
100
AcDb2dVertex
 10
53.74000000000132
 20
1536.513174222062
 30
0.0
 42
-0.4150370438050013
  0
VERTEX
  5
3CC
330
3C7
100
AcDbEntity
  8
Make2D$可见线$普通线
100
AcDbVertex
100
AcDb2dVertex
 10
52.74000000000146
 20
1535.511281672062
 30
0.0
  0
VERTEX
  5
3CD
330
3C7
100
AcDbEntity
  8
Make2D$可见线$普通线
100
AcDbVertex
100
AcDb2dVertex
 10
1.869767465363114
 20
1535.511281671756
 30
0.0
 42
-0.3932161999642777
  0
VERTEX
  5
3CE
330
3C7
100
AcDbEntity
  8
Make2D$可见线$普通线
100
AcDbVertex
100
AcDb2dVertex
 10
0.8724030383321061
 20
1536.438475354346
 30
0.0
  0
SEQEND
  5
3CF
330
3C7
100
AcDbEntity
  8
Make2D$可见线$普通线
  0
POLYLINE
  5
3D0
330
1F
100
AcDbEntity
  8
Make2D$可见线$普通线
100
AcDb2dPolyline
 66
     1
 10
0.0
 20
0.0
 30
0.0
  0
VERTEX
  5
3D1
330
3D0
100
AcDbEntity
  8
Make2D$可见线$普通线
100
AcDbVertex
100
AcDb2dVertex
 10
323.1575969616705
 20
1584.584631327853
 30
0.0
 42
0.3932161999732595
  0
VERTEX
  5
3D2
330
3D0
100
AcDbEntity
  8
Make2D$可见线$普通线
100
AcDbVertex
100
AcDb2dVertex
 10
322.1602325346398
 20
1585.511825010424
 30
0.0
  0
VERTEX
  5
3D3
330
3D0
100
AcDbEntity
  8
Make2D$可见线$普通线
100
AcDbVertex
100
AcDb2dVertex
 10
319.0160834145891
 20
1585.510611800432
 30
0.0
 42
-0.0575884229635899
  0
VERTEX
  5
3D4
330
3D0
100
AcDbEntity
  8
Make2D$可见线$普通线
100
AcDbVertex
100
AcDb2dVertex
 10
312.1458404603228
 20
1584.685442675157
 30
0.0
  0
VERTEX
  5
3D5
330
3D0
100
AcDbEntity
  8
Make2D$可见线$普通线
100
AcDbVertex
100
AcDb2dVertex
 10
283.1542373664565
 20
1584.627051756587
 30
0.0
 42
-0.0596241238610202
  0
VERTEX
  5
3D6
330
3D0
100
AcDbEntity
  8
Make2D$可见线$普通线
100
AcDbVertex
100
AcDb2dVertex
 10
276.0390161034026
 20
1585.510480722256
 30
0.0
  0
VERTEX
  5
3D7
330
3D0
100
AcDbEntity
  8
Make2D$可见线$普通线
100
AcDbVertex
100
AcDb2dVertex
 10
276.0391753439724
 20
1585.510581739048
 30
0.0
  0
VERTEX
  5
3D8
330
3D0
100
AcDbEntity
  8
Make2D$可见线$普通线
100
AcDbVertex
100
AcDb2dVertex
 10
276.0393332950781
 20
1585.510676498125
 30
0.0
  0
VERTEX
  5
3D9
330
3D0
100
AcDbEntity
  8
Make2D$可见线$普通线
100
AcDbVertex
100
AcDb2dVertex
 10
276.0394886386115
 20
1585.51076519597
 30
0.0
  0
VERTEX
  5
3DA
330
3D0
100
AcDbEntity
  8
Make2D$可见线$普通线
100
AcDbVertex
100
AcDb2dVertex
 10
276.0396400564643
 20
1585.510848029066
 30
0.0
  0
VERTEX
  5
3DB
330
3D0
100
AcDbEntity
  8
Make2D$可见线$普通线
100
AcDbVertex
100
AcDb2dVertex
 10
276.0401801089059
 20
1585.511124643592
 30
0.0
  0
VERTEX
  5
3DC
330
3D0
100
AcDbEntity
  8
Make2D$可见线$普通线
100
AcDbVertex
100
AcDb2dVertex
 10
276.0403923102296
 20
1585.511232870895
 30
0.0
  0
VERTEX
  5
3DD
330
3D0
100
AcDbEntity
  8
Make2D$可见线$普通线
100
AcDbVertex
100
AcDb2dVertex
 10
276.0404793412885
 20
1585.511280152244
 30
0.0
  0
VERTEX
  5
3DE
330
3D0
100
AcDbEntity
  8
Make2D$可见线$普通线
100
AcDbVertex
100
AcDb2dVertex
 10
276.0405175127447
 20
1585.511302170804
 30
0.0
  0
VERTEX
  5
3DF
330
3D0
100
AcDbEntity
  8
Make2D$可见线$普通线
100
AcDbVertex
100
AcDb2dVertex
 10
276.0405519018009
 20
1585.511323140701
 30
0.0
  0
VERTEX
  5
3E0
330
3D0
100
AcDbEntity
  8
Make2D$可见线$普通线
100
AcDbVertex
100
AcDb2dVertex
 10
276.0405676264403
 20
1585.511333240077
 30
0.0
  0
VERTEX
  5
3E1
330
3D0
100
AcDbEntity
  8
Make2D$可见线$普通线
100
AcDbVertex
100
AcDb2dVertex
 10
276.0405823436935
 20
1585.511343086496
 30
0.0
  0
VERTEX
  5
3E2
330
3D0
100
AcDbEntity
  8
Make2D$可见线$普通线
100
AcDbVertex
100
AcDb2dVertex
 10
276.0405960329648
 20
1585.51135268303
 30
0.0
  0
VERTEX
  5
3E3
330
3D0
100
AcDbEntity
  8
Make2D$可见线$普通线
100
AcDbVertex
100
AcDb2dVertex
 10
276.0406086736589
 20
1585.511362032749
 30
0.0
  0
VERTEX
  5
3E4
330
3D0
100
AcDbEntity
  8
Make2D$可见线$普通线
100
AcDbVertex
100
AcDb2dVertex
 10
276.0406202451802
 20
1585.511371138722
 30
0.0
  0
VERTEX
  5
3E5
330
3D0
100
AcDbEntity
  8
Make2D$可见线$普通线
100
AcDbVertex
100
AcDb2dVertex
 10
276.0406256235651
 20
1585.511375601263
 30
0.0
  0
VERTEX
  5
3E6
330
3D0
100
AcDbEntity
  8
Make2D$可见线$普通线
100
AcDbVertex
100
AcDb2dVertex
 10
276.0406307269335
 20
1585.51138000402
 30
0.0
  0
VERTEX
  5
3E7
330
3D0
100
AcDbEntity
  8
Make2D$可见线$普通线
100
AcDbVertex
100
AcDb2dVertex
 10
276.040635552711
 20
1585.511384347375
 30
0.0
  0
VERTEX
  5
3E8
330
3D0
100
AcDbEntity
  8
Make2D$可见线$普通线
100
AcDbVertex
100
AcDb2dVertex
 10
276.0406400983233
 20
1585.511388631712
 30
0.0
  0
VERTEX
  5
3E9
330
3D0
100
AcDbEntity
  8
Make2D$可见线$普通线
100
AcDbVertex
100
AcDb2dVertex
 10
276.0406443611957
 20
1585.511392857416
 30
0.0
  0
VERTEX
  5
3EA
330
3D0
100
AcDbEntity
  8
Make2D$可见线$普通线
100
AcDbVertex
100
AcDb2dVertex
 10
276.040648338754
 20
1585.511397024869
 30
0.0
  0
VERTEX
  5
3EB
330
3D0
100
AcDbEntity
  8
Make2D$可见线$普通线
100
AcDbVertex
100
AcDb2dVertex
 10
276.0406520284237
 20
1585.511401134456
 30
0.0
  0
VERTEX
  5
3EC
330
3D0
100
AcDbEntity
  8
Make2D$可见线$普通线
100
AcDbVertex
100
AcDb2dVertex
 10
276.0406554276303
 20
1585.511405186561
 30
0.0
  0
VERTEX
  5
3ED
330
3D0
100
AcDbEntity
  8
Make2D$可见线$普通线
100
AcDbVertex
100
AcDb2dVertex
 10
276.0406585337994
 20
1585.511409181567
 30
0.0
  0
VERTEX
  5
3EE
330
3D0
100
AcDbEntity
  8
Make2D$可见线$普通线
100
AcDbVertex
100
AcDb2dVertex
 10
276.0406613443567
 20
1585.511413119857
 30
0.0
  0
VERTEX
  5
3EF
330
3D0
100
AcDbEntity
  8
Make2D$可见线$普通线
100
AcDbVertex
100
AcDb2dVertex
 10
276.0406638567276
 20
1585.511417001817
 30
0.0
  0
VERTEX
  5
3F0
330
3D0
100
AcDbEntity
  8
Make2D$可见线$普通线
100
AcDbVertex
100
AcDb2dVertex
 10
276.0406660683378
 20
1585.511420827829
 30
0.0
  0
VERTEX
  5
3F1
330
3D0
100
AcDbEntity
  8
Make2D$可见线$普通线
100
AcDbVertex
100
AcDb2dVertex
 10
276.0406679766128
 20
1585.511424598277
 30
0.0
  0
VERTEX
  5
3F2
330
3D0
100
AcDbEntity
  8
Make2D$可见线$普通线
100
AcDbVertex
100
AcDb2dVertex
 10
276.0406695789782
 20
1585.511428313545
 30
0.0
  0
VERTEX
  5
3F3
330
3D0
100
AcDbEntity
  8
Make2D$可见线$普通线
100
AcDbVertex
100
AcDb2dVertex
 10
276.0406708728595
 20
1585.511431974016
 30
0.0
  0
VERTEX
  5
3F4
330
3D0
100
AcDbEntity
  8
Make2D$可见线$普通线
100
AcDbVertex
100
AcDb2dVertex
 10
276.0406718556823
 20
1585.511435580076
 30
0.0
  0
VERTEX
  5
3F5
330
3D0
100
AcDbEntity
  8
Make2D$可见线$普通线
100
AcDbVertex
100
AcDb2dVertex
 10
276.0406725248722
 20
1585.511439132106
 30
0.0
  0
VERTEX
  5
3F6
330
3D0
100
AcDbEntity
  8
Make2D$可见线$普通线
100
AcDbVertex
100
AcDb2dVertex
 10
276.0406728778548
 20
1585.511442630491
 30
0.0
  0
VERTEX
  5
3F7
330
3D0
100
AcDbEntity
  8
Make2D$可见线$普通线
100
AcDbVertex
100
AcDb2dVertex
 10
276.0406729120557
 20
1585.511446075615
 30
0.0
  0
VERTEX
  5
3F8
330
3D0
100
AcDbEntity
  8
Make2D$可见线$普通线
100
AcDbVertex
100
AcDb2dVertex
 10
276.0406726249003
 20
1585.511449467862
 30
0.0
  0
VERTEX
  5
3F9
330
3D0
100
AcDbEntity
  8
Make2D$可见线$普通线
100
AcDbVertex
100
AcDb2dVertex
 10
276.0406720138142
 20
1585.511452807615
 30
0.0
  0
VERTEX
  5
3FA
330
3D0
100
AcDbEntity
  8
Make2D$可见线$普通线
100
AcDbVertex
100
AcDb2dVertex
 10
276.0406710762231
 20
1585.511456095257
 30
0.0
  0
VERTEX
  5
3FB
330
3D0
100
AcDbEntity
  8
Make2D$可见线$普通线
100
AcDbVertex
100
AcDb2dVertex
 10
276.0406698095526
 20
1585.511459331174
 30
0.0
  0
VERTEX
  5
3FC
330
3D0
100
AcDbEntity
  8
Make2D$可见线$普通线
100
AcDbVertex
100
AcDb2dVertex
 10
276.0406682112281
 20
1585.511462515748
 30
0.0
  0
VERTEX
  5
3FD
330
3D0
100
AcDbEntity
  8
Make2D$可见线$普通线
100
AcDbVertex
100
AcDb2dVertex
 10
276.0406662786752
 20
1585.511465649363
 30
0.0
  0
VERTEX
  5
3FE
330
3D0
100
AcDbEntity
  8
Make2D$可见线$普通线
100
AcDbVertex
100
AcDb2dVertex
 10
276.0406640093196
 20
1585.511468732404
 30
0.0
  0
VERTEX
  5
3FF
330
3D0
100
AcDbEntity
  8
Make2D$可见线$普通线
100
AcDbVertex
100
AcDb2dVertex
 10
276.0406614005867
 20
1585.511471765253
 30
0.0
  0
VERTEX
  5
400
330
3D0
100
AcDbEntity
  8
Make2D$可见线$普通线
100
AcDbVertex
100
AcDb2dVertex
 10
276.0406584499023
 20
1585.511474748294
 30
0.0
  0
VERTEX
  5
401
330
3D0
100
AcDbEntity
  8
Make2D$可见线$普通线
100
AcDbVertex
100
AcDb2dVertex
 10
276.0406551546916
 20
1585.511477681912
 30
0.0
  0
VERTEX
  5
402
330
3D0
100
AcDbEntity
  8
Make2D$可见线$普通线
100
AcDbVertex
100
AcDb2dVertex
 10
276.0406515123806
 20
1585.51148056649
 30
0.0
  0
VERTEX
  5
403
330
3D0
100
AcDbEntity
  8
Make2D$可见线$普通线
100
AcDbVertex
100
AcDb2dVertex
 10
276.0406475203946
 20
1585.511483402411
 30
0.0
  0
VERTEX
  5
404
330
3D0
100
AcDbEntity
  8
Make2D$可见线$普通线
100
AcDbVertex
100
AcDb2dVertex
 10
276.0406431761593
 20
1585.51148619006
 30
0.0
  0
VERTEX
  5
405
330
3D0
100
AcDbEntity
  8
Make2D$可见线$普通线
100
AcDbVertex
100
AcDb2dVertex
 10
276.0406384771001
 20
1585.511488929821
 30
0.0
  0
VERTEX
  5
406
330
3D0
100
AcDbEntity
  8
Make2D$可见线$普通线
100
AcDbVertex
100
AcDb2dVertex
 10
276.0406334206427
 20
1585.511491622076
 30
0.0
  0
VERTEX
  5
407
330
3D0
100
AcDbEntity
  8
Make2D$可见线$普通线
100
AcDbVertex
100
AcDb2dVertex
 10
276.0406280042127
 20
1585.511494267211
 30
0.0
  0
VERTEX
  5
408
330
3D0
100
AcDbEntity
  8
Make2D$可见线$普通线
100
AcDbVertex
100
AcDb2dVertex
 10
276.0406222252356
 20
1585.511496865608
 30
0.0
  0
VERTEX
  5
409
330
3D0
100
AcDbEntity
  8
Make2D$可见线$普通线
100
AcDbVertex
100
AcDb2dVertex
 10
276.040616081137
 20
1585.511499417651
 30
0.0
  0
VERTEX
  5
40A
330
3D0
100
AcDbEntity
  8
Make2D$可见线$普通线
100
AcDbVertex
100
AcDb2dVertex
 10
276.0406095693425
 20
1585.511501923724
 30
0.0
  0
VERTEX
  5
40B
330
3D0
100
AcDbEntity
  8
Make2D$可见线$普通线
100
AcDbVertex
100
AcDb2dVertex
 10
276.0406026872776
 20
1585.511504384211
 30
0.0
  0
VERTEX
  5
40C
330
3D0
100
AcDbEntity
  8
Make2D$可见线$普通线
100
AcDbVertex
100
AcDb2dVertex
 10
276.0405954323678
 20
1585.511506799495
 30
0.0
  0
VERTEX
  5
40D
330
3D0
100
AcDbEntity
  8
Make2D$可见线$普通线
100
AcDbVertex
100
AcDb2dVertex
 10
276.0405878020388
 20
1585.511509169961
 30
0.0
  0
VERTEX
  5
40E
330
3D0
100
AcDbEntity
  8
Make2D$可见线$普通线
100
AcDbVertex
100
AcDb2dVertex
 10
276.0405797937162
 20
1585.511511495992
 30
0.0
  0
VERTEX
  5
40F
330
3D0
100
AcDbEntity
  8
Make2D$可见线$普通线
100
AcDbVertex
100
AcDb2dVertex
 10
276.0405626327922
 20
1585.511516016285
 30
0.0
  0
VERTEX
  5
410
330
3D0
100
AcDbEntity
  8
Make2D$可见线$普通线
100
AcDbVertex
100
AcDb2dVertex
 10
276.0405439290005
 20
1585.511520363442
 30
0.0
  0
VERTEX
  5
411
330
3D0
100
AcDbEntity
  8
Make2D$可见线$普通线
100
AcDbVertex
100
AcDb2dVertex
 10
276.0405236617455
 20
1585.511524540535
 30
0.0
  0
VERTEX
  5
412
330
3D0
100
AcDbEntity
  8
Make2D$可见线$普通线
100
AcDbVertex
100
AcDb2dVertex
 10
276.0405018104317
 20
1585.511528550634
 30
0.0
  0
VERTEX
  5
413
330
3D0
100
AcDbEntity
  8
Make2D$可见线$普通线
100
AcDbVertex
100
AcDb2dVertex
 10
276.0404532732463
 20
1585.511536082127
 30
0.0
  0
VERTEX
  5
414
330
3D0
100
AcDbEntity
  8
Make2D$可见线$普通线
100
AcDbVertex
100
AcDb2dVertex
 10
276.0403981526808
 20
1585.511542982482
 30
0.0
  0
VERTEX
  5
415
330
3D0
100
AcDbEntity
  8
Make2D$可见线$普通线
100
AcDbVertex
100
AcDb2dVertex
 10
276.0403362839718
 20
1585.51154927626
 30
0.0
  0
VERTEX
  5
416
330
3D0
100
AcDbEntity
  8
Make2D$可见线$普通线
100
AcDbVertex
100
AcDb2dVertex
 10
276.0401916430687
 20
1585.511560142325
 30
0.0
  0
VERTEX
  5
417
330
3D0
100
AcDbEntity
  8
Make2D$可见线$普通线
100
AcDbVertex
100
AcDb2dVertex
 10
276.039814133944
 20
1585.511575676175
 30
0.0
  0
VERTEX
  5
418
330
3D0
100
AcDbEntity
  8
Make2D$可见线$普通线
100
AcDbVertex
100
AcDb2dVertex
 10
276.0369344106583
 20
1585.51158398527
 30
0.0
  0
VERTEX
  5
419
330
3D0
100
AcDbEntity
  8
Make2D$可见线$普通线
100
AcDbVertex
100
AcDb2dVertex
 10
271.2900000000013
 20
1585.511825010097
 30
0.0
 42
0.4151814799640698
  0
VERTEX
  5
41A
330
3D0
100
AcDbEntity
  8
Make2D$可见线$普通线
100
AcDbVertex
100
AcDb2dVertex
 10
270.2900000000014
 20
1584.509932460096
 30
0.0
  0
VERTEX
  5
41B
330
3D0
100
AcDbEntity
  8
Make2D$可见线$普通线
100
AcDbVertex
100
AcDb2dVertex
 10
270.2900000000015
 20
1536.513174222063
 30
0.0
 42
0.4141638009542915
  0
VERTEX
  5
41C
330
3D0
100
AcDbEntity
  8
Make2D$可见线$普通线
100
AcDbVertex
100
AcDb2dVertex
 10
271.2900000000014
 20
1535.511281672062
 30
0.0
  0
VERTEX
  5
41D
330
3D0
100
AcDbEntity
  8
Make2D$可见线$普通线
100
AcDbVertex
100
AcDb2dVertex
 10
322.1602325346397
 20
1535.511281671756
 30
0.0
 42
0.3932161999641645
  0
VERTEX
  5
41E
330
3D0
100
AcDbEntity
  8
Make2D$可见线$普通线
100
AcDbVertex
100
AcDb2dVertex
 10
323.1575969616707
 20
1536.438475354346
 30
0.0
  0
SEQEND
  5
41F
330
3D0
100
AcDbEntity
  8
Make2D$可见线$普通线
  0
POLYLINE
  5
420
330
1F
100
AcDbEntity
  8
Make2D$可见线$普通线
100
AcDb2dPolyline
 66
     1
 10
0.0
 20
0.0
 30
0.0
  0
VERTEX
  5
421
330
420
100
AcDbEntity
  8
Make2D$可见线$普通线
100
AcDbVertex
100
AcDb2dVertex
 10
47.98178727437811
 20
1585.511648240128
 30
0.0
  0
VERTEX
  5
422
330
420
100
AcDbEntity
  8
Make2D$可见线$普通线
100
AcDbVertex
100
AcDb2dVertex
 10
47.99098389172391
 20
1585.510480791765
 30
0.0
 42
-0.059668302485233
  0
VERTEX
  5
423
330
420
100
AcDbEntity
  8
Make2D$可见线$普通线
100
AcDbVertex
100
AcDb2dVertex
 10
40.87576263354629
 20
1584.627051756587
 30
0.0
  0
VERTEX
  5
424
330
420
100
AcDbEntity
  8
Make2D$可见线$普通线
100
AcDbVertex
100
AcDb2dVertex
 10
11.88415953968002
 20
1584.685442675157
 30
0.0
 42
-0.0575884229636152
  0
VERTEX
  5
425
330
420
100
AcDbEntity
  8
Make2D$可见线$普通线
100
AcDbVertex
100
AcDb2dVertex
 10
5.013916585413747
 20
1585.510611800432
 30
0.0
  0
VERTEX
  5
426
330
420
100
AcDbEntity
  8
Make2D$可见线$普通线
100
AcDbVertex
100
AcDb2dVertex
 10
1.869767465363104
 20
1585.511825010424
 30
0.0
 42
0.3932161999734262
  0
VERTEX
  5
427
330
420
100
AcDbEntity
  8
Make2D$可见线$普通线
100
AcDbVertex
100
AcDb2dVertex
 10
0.8724030383325155
 20
1584.584631327853
 30
0.0
  0
SEQEND
  5
428
330
420
100
AcDbEntity
  8
Make2D$可见线$普通线
  0
ARC
  5
429
330
1F
100
AcDbEntity
  8
Make2D$可见线$普通线
100
AcDbCircle
 10
-8.534779622804658
 20
1560.511553341091
 30
0.0
 40
332.5647796228075
100
AcDbArc
 50
355.8675556513487
 51
4.132444348651847
  0
ARC
  5
42A
330
1F
100
AcDbEntity
  8
Make2D$可见线$普通线
100
AcDbCircle
 10
332.5647796228694
 20
1560.511553341091
 30
0.0
 40
332.5647796228694
100
AcDbArc
 50
175.8675556513488
 51
184.1324443486504
  0
ARC
  5
42B
330
1F
100
AcDbEntity
  8
Make2D$可见线$普通线
100
AcDbCircle
 10
238.0812420918161
 20
1560.51155334108
 30
0.0
 40
30.50167794465574
100
AcDbArc
 50
235.0474764077439
 51
304.9525235922593
  0
ARC
  5
42C
330
1F
100
AcDbEntity
  8
Make2D$可见线$普通线
100
AcDbCircle
 10
238.0812420918162
 20
1560.511553341079
 30
0.0
 40
30.50167794465598
100
AcDbArc
 50
55.04747640774093
 51
124.9525235922591
  0
ARC
  5
42D
330
1F
100
AcDbEntity
  8
Make2D$可见线$普通线
100
AcDbCircle
 10
86.9487654729611
 20
1560.51155334108
 30
0.0
 40
30.50167794465589
100
AcDbArc
 50
235.0474764077412
 51
304.9525235922561
  0
ARC
  5
42E
330
1F
100
AcDbEntity
  8
Make2D$可见线$普通线
100
AcDbCircle
 10
86.94876547296099
 20
1560.511553341081
 30
0.0
 40
30.50167794465396
100
AcDbArc
 50
55.04747640773817
 51
124.9525235922618
  0
SPLINE
  5
42F
330
1F
100
AcDbEntity
  8
Make2D$可见线$普通线
100
AcDbSpline
210
0.0
220
0.0
230
1.0
 70
     8
 71
     3
 72
    14
 73
    10
 74
     0
 42
0.000000001
 43
0.0000000001
 12
1.0
 22
0.0
 32
0.0
 13
1.0
 23
0.0
 33
0.0
 40
47.34935474017768
 40
47.34935474017768
 40
47.34935474017768
 40
47.34935474017768
 40
49.86250989549032
 40
49.86250989549032
 40
49.86250989549032
 40
49.87488673006036
 40
49.87488673006036
 40
49.87488673006036
 40
52.10883219427295
 40
52.10883219427295
 40
52.10883219427295
 40
52.10883219427295
 10
151.7563105809051
 20
1525.890960936252
 30
0.0
 10
151.5587305486019
 20
1525.911684667216
 30
0.0
 10
151.4583597158255
 20
1525.932338578943
 30
0.0
 10
151.4573794789433
 20
1525.953067985344
 30
0.0
 10
151.4573746454102
 20
1525.953170201732
 30
0.0
 10
151.457372228642
 20
1525.953272416675
 30
0.0
 10
151.457372228642
 20
1525.953374630074
 30
0.0
 10
151.457372228642
 20
1525.971800702762
 30
0.0
 10
151.5359099736908
 20
1525.990165364392
 30
0.0
 10
151.6914749209896
 20
1526.008576107248
 30
0.0
  0
LINE
  5
430
330
1F
100
AcDbEntity
  8
Make2D$可见线$普通线
100
AcDbLine
 10
162.0026272936446
 20
1528.00806798502
 30
0.0
 11
162.0061680596394
 21
1527.86597763579
 31
0.0
  0
POLYLINE
  5
431
330
1F
100
AcDbEntity
  8
Make2D$可见线$普通线
100
AcDb2dPolyline
 66
     1
 10
0.0
 20
0.0
 30
0.0
  0
VERTEX
  5
432
330
431
100
AcDbEntity
  8
Make2D$可见线$普通线
100
AcDbVertex
100
AcDb2dVertex
 10
172.2800721424711
 20
1525.843476935692
 30
0.0
 42
-0.0603669138947613
  0
VERTEX
  5
433
330
431
100
AcDbEntity
  8
Make2D$可见线$普通线
100
AcDbVertex
100
AcDb2dVertex
 10
172.5593128358315
 20
1525.794880160223
 30
0.0
  0
VERTEX
  5
434
330
431
100
AcDbEntity
  8
Make2D$可见线$普通线
100
AcDbVertex
100
AcDb2dVertex
 10
172.5609249603459
 20
1525.794058704908
 30
0.0
  0
VERTEX
  5
435
330
431
100
AcDbEntity
  8
Make2D$可见线$普通线
100
AcDbVertex
100
AcDb2dVertex
 10
172.5624331214627
 20
1525.793237320637
 30
0.0
  0
VERTEX
  5
436
330
431
100
AcDbEntity
  8
Make2D$可见线$普通线
100
AcDbVertex
100
AcDb2dVertex
 10
172.5638373130231
 20
1525.792416001782
 30
0.0
  0
VERTEX
  5
437
330
431
100
AcDbEntity
  8
Make2D$可见线$普通线
100
AcDbVertex
100
AcDb2dVertex
 10
172.564500418295
 20
1525.792005365125
 30
0.0
  0
VERTEX
  5
438
330
431
100
AcDbEntity
  8
Make2D$可见线$普通线
100
AcDbVertex
100
AcDb2dVertex
 10
172.5651375288681
 20
1525.791594742712
 30
0.0
  0
VERTEX
  5
439
330
431
100
AcDbEntity
  8
Make2D$可见线$普通线
100
AcDbVertex
100
AcDb2dVertex
 10
172.5657486439727
 20
1525.791184133838
 30
0.0
  0
VERTEX
  5
43A
330
431
100
AcDbEntity
  8
Make2D$可见线$普通线
100
AcDbVertex
100
AcDb2dVertex
 10
172.5663337628389
 20
1525.7907735378
 30
0.0
  0
VERTEX
  5
43B
330
431
100
AcDbEntity
  8
Make2D$可见线$普通线
100
AcDbVertex
100
AcDb2dVertex
 10
172.5668928846968
 20
1525.790362953893
 30
0.0
  0
VERTEX
  5
43C
330
431
100
AcDbEntity
  8
Make2D$可见线$普通线
100
AcDbVertex
100
AcDb2dVertex
 10
172.5674260087765
 20
1525.789952381415
 30
0.0
  0
VERTEX
  5
43D
330
431
100
AcDbEntity
  8
Make2D$可见线$普通线
100
AcDbVertex
100
AcDb2dVertex
 10
172.5679331343081
 20
1525.789541819661
 30
0.0
  0
VERTEX
  5
43E
330
431
100
AcDbEntity
  8
Make2D$可见线$普通线
100
AcDbVertex
100
AcDb2dVertex
 10
172.5684142605219
 20
1525.789131267928
 30
0.0
  0
VERTEX
  5
43F
330
431
100
AcDbEntity
  8
Make2D$可见线$普通线
100
AcDbVertex
100
AcDb2dVertex
 10
172.5688693866479
 20
1525.788720725513
 30
0.0
  0
VERTEX
  5
440
330
431
100
AcDbEntity
  8
Make2D$可见线$普通线
100
AcDbVertex
100
AcDb2dVertex
 10
172.5692985119163
 20
1525.788310191712
 30
0.0
  0
VERTEX
  5
441
330
431
100
AcDbEntity
  8
Make2D$可见线$普通线
100
AcDbVertex
100
AcDb2dVertex
 10
172.5697016355572
 20
1525.787899665821
 30
0.0
  0
VERTEX
  5
442
330
431
100
AcDbEntity
  8
Make2D$可见线$普通线
100
AcDbVertex
100
AcDb2dVertex
 10
172.5700787568007
 20
1525.787489147136
 30
0.0
  0
VERTEX
  5
443
330
431
100
AcDbEntity
  8
Make2D$可见线$普通线
100
AcDbVertex
100
AcDb2dVertex
 10
172.5702575662828
 20
1525.787283890276
 30
0.0
  0
VERTEX
  5
444
330
431
100
AcDbEntity
  8
Make2D$可见线$普通线
100
AcDbVertex
100
AcDb2dVertex
 10
172.5704298748769
 20
1525.787078634954
 30
0.0
  0
VERTEX
  5
445
330
431
100
AcDbEntity
  8
Make2D$可见线$普通线
100
AcDbVertex
100
AcDb2dVertex
 10
172.5705956824868
 20
1525.786873381082
 30
0.0
  0
VERTEX
  5
446
330
431
100
AcDbEntity
  8
Make2D$可见线$普通线
100
AcDbVertex
100
AcDb2dVertex
 10
172.5707549890161
 20
1525.786668128572
 30
0.0
  0
VERTEX
  5
447
330
431
100
AcDbEntity
  8
Make2D$可见线$普通线
100
AcDbVertex
100
AcDb2dVertex
 10
172.5709077943687
 20
1525.786462877335
 30
0.0
  0
VERTEX
  5
448
330
431
100
AcDbEntity
  8
Make2D$可见线$普通线
100
AcDbVertex
100
AcDb2dVertex
 10
172.5710540984483
 20
1525.786257627285
 30
0.0
  0
VERTEX
  5
449
330
431
100
AcDbEntity
  8
Make2D$可见线$普通线
100
AcDbVertex
100
AcDb2dVertex
 10
172.5711939011587
 20
1525.786052378332
 30
0.0
  0
VERTEX
  5
44A
330
431
100
AcDbEntity
  8
Make2D$可见线$普通线
100
AcDbVertex
100
AcDb2dVertex
 10
172.5713272024037
 20
1525.78584713039
 30
0.0
  0
VERTEX
  5
44B
330
431
100
AcDbEntity
  8
Make2D$可见线$普通线
100
AcDbVertex
100
AcDb2dVertex
 10
172.5714540020869
 20
1525.785641883369
 30
0.0
  0
VERTEX
  5
44C
330
431
100
AcDbEntity
  8
Make2D$可见线$普通线
100
AcDbVertex
100
AcDb2dVertex
 10
172.5715743001123
 20
1525.785436637183
 30
0.0
  0
VERTEX
  5
44D
330
431
100
AcDbEntity
  8
Make2D$可见线$普通线
100
AcDbVertex
100
AcDb2dVertex
 10
172.5716880963836
 20
1525.785231391743
 30
0.0
  0
VERTEX
  5
44E
330
431
100
AcDbEntity
  8
Make2D$可见线$普通线
100
AcDbVertex
100
AcDb2dVertex
 10
172.5717953908044
 20
1525.785026146961
 30
0.0
  0
VERTEX
  5
44F
330
431
100
AcDbEntity
  8
Make2D$可见线$普通线
100
AcDbVertex
100
AcDb2dVertex
 10
172.5718961832787
 20
1525.784820902749
 30
0.0
  0
VERTEX
  5
450
330
431
100
AcDbEntity
  8
Make2D$可见线$普通线
100
AcDbVertex
100
AcDb2dVertex
 10
172.5719904737101
 20
1525.78461565902
 30
0.0
  0
VERTEX
  5
451
330
431
100
AcDbEntity
  8
Make2D$可见线$普通线
100
AcDbVertex
100
AcDb2dVertex
 10
172.5720782620024
 20
1525.784410415685
 30
0.0
  0
VERTEX
  5
452
330
431
100
AcDbEntity
  8
Make2D$可见线$普通线
100
AcDbVertex
100
AcDb2dVertex
 10
172.5721595480595
 20
1525.784205172656
 30
0.0
  0
VERTEX
  5
453
330
431
100
AcDbEntity
  8
Make2D$可见线$普通线
100
AcDbVertex
100
AcDb2dVertex
 10
172.5722343317849
 20
1525.783999929846
 30
0.0
  0
VERTEX
  5
454
330
431
100
AcDbEntity
  8
Make2D$可见线$普通线
100
AcDbVertex
100
AcDb2dVertex
 10
172.5723026130826
 20
1525.783794687166
 30
0.0
  0
VERTEX
  5
455
330
431
100
AcDbEntity
  8
Make2D$可见线$普通线
100
AcDbVertex
100
AcDb2dVertex
 10
172.5723643918564
 20
1525.783589444529
 30
0.0
  0
VERTEX
  5
456
330
431
100
AcDbEntity
  8
Make2D$可见线$普通线
100
AcDbVertex
100
AcDb2dVertex
 10
172.5724196680098
 20
1525.783384201847
 30
0.0
  0
VERTEX
  5
457
330
431
100
AcDbEntity
  8
Make2D$可见线$普通线
100
AcDbVertex
100
AcDb2dVertex
 10
172.5724684414468
 20
1525.78317895903
 30
0.0
  0
VERTEX
  5
458
330
431
100
AcDbEntity
  8
Make2D$可见线$普通线
100
AcDbVertex
100
AcDb2dVertex
 10
172.5725107120711
 20
1525.782973715993
 30
0.0
  0
VERTEX
  5
459
330
431
100
AcDbEntity
  8
Make2D$可见线$普通线
100
AcDbVertex
100
AcDb2dVertex
 10
172.5725464797864
 20
1525.782768472646
 30
0.0
  0
VERTEX
  5
45A
330
431
100
AcDbEntity
  8
Make2D$可见线$普通线
100
AcDbVertex
100
AcDb2dVertex
 10
172.5725757444966
 20
1525.782563228903
 30
0.0
  0
VERTEX
  5
45B
330
431
100
AcDbEntity
  8
Make2D$可见线$普通线
100
AcDbVertex
100
AcDb2dVertex
 10
172.5725985061054
 20
1525.782357984674
 30
0.0
  0
VERTEX
  5
45C
330
431
100
AcDbEntity
  8
Make2D$可见线$普通线
100
AcDbVertex
100
AcDb2dVertex
 10
172.5726147645165
 20
1525.782152739871
 30
0.0
  0
VERTEX
  5
45D
330
431
100
AcDbEntity
  8
Make2D$可见线$普通线
100
AcDbVertex
100
AcDb2dVertex
 10
172.5726245196337
 20
1525.781947494408
 30
0.0
  0
VERTEX
  5
45E
330
431
100
AcDbEntity
  8
Make2D$可见线$普通线
100
AcDbVertex
100
AcDb2dVertex
 10
172.5726277713608
 20
1525.781742248196
 30
0.0
  0
VERTEX
  5
45F
330
431
100
AcDbEntity
  8
Make2D$可见线$普通线
100
AcDbVertex
100
AcDb2dVertex
 10
172.5726246971448
 20
1525.781542681321
 30
0.0
  0
VERTEX
  5
460
330
431
100
AcDbEntity
  8
Make2D$可见线$普通线
100
AcDbVertex
100
AcDb2dVertex
 10
172.572615474725
 20
1525.781343116163
 30
0.0
  0
VERTEX
  5
461
330
431
100
AcDbEntity
  8
Make2D$可见线$普通线
100
AcDbVertex
100
AcDb2dVertex
 10
172.5726001044433
 20
1525.781143552704
 30
0.0
  0
VERTEX
  5
462
330
431
100
AcDbEntity
  8
Make2D$可见线$普通线
100
AcDbVertex
100
AcDb2dVertex
 10
172.572578586642
 20
1525.780943990929
 30
0.0
  0
VERTEX
  5
463
330
431
100
AcDbEntity
  8
Make2D$可见线$普通线
100
AcDbVertex
100
AcDb2dVertex
 10
172.5725509216633
 20
1525.780744430822
 30
0.0
  0
VERTEX
  5
464
330
431
100
AcDbEntity
  8
Make2D$可见线$普通线
100
AcDbVertex
100
AcDb2dVertex
 10
172.5725171098492
 20
1525.780544872366
 30
0.0
  0
VERTEX
  5
465
330
431
100
AcDbEntity
  8
Make2D$可见线$普通线
100
AcDbVertex
100
AcDb2dVertex
 10
172.572477151542
 20
1525.780345315545
 30
0.0
  0
VERTEX
  5
466
330
431
100
AcDbEntity
  8
Make2D$可见线$普通线
100
AcDbVertex
100
AcDb2dVertex
 10
172.5724310470837
 20
1525.780145760343
 30
0.0
  0
VERTEX
  5
467
330
431
100
AcDbEntity
  8
Make2D$可见线$普通线
100
AcDbVertex
100
AcDb2dVertex
 10
172.5723787968166
 20
1525.779946206743
 30
0.0
  0
VERTEX
  5
468
330
431
100
AcDbEntity
  8
Make2D$可见线$普通线
100
AcDbVertex
100
AcDb2dVertex
 10
172.5723204010827
 20
1525.779746654729
 30
0.0
  0
VERTEX
  5
469
330
431
100
AcDbEntity
  8
Make2D$可见线$普通线
100
AcDbVertex
100
AcDb2dVertex
 10
172.5722558602241
 20
1525.779547104287
 30
0.0
  0
VERTEX
  5
46A
330
431
100
AcDbEntity
  8
Make2D$可见线$普通线
100
AcDbVertex
100
AcDb2dVertex
 10
172.5721851745831
 20
1525.779347555398
 30
0.0
  0
VERTEX
  5
46B
330
431
100
AcDbEntity
  8
Make2D$可见线$普通线
100
AcDbVertex
100
AcDb2dVertex
 10
172.5721083445019
 20
1525.779148008046
 30
0.0
  0
VERTEX
  5
46C
330
431
100
AcDbEntity
  8
Make2D$可见线$普通线
100
AcDbVertex
100
AcDb2dVertex
 10
172.5720253703224
 20
1525.778948462217
 30
0.0
  0
VERTEX
  5
46D
330
431
100
AcDbEntity
  8
Make2D$可见线$普通线
100
AcDbVertex
100
AcDb2dVertex
 10
172.5719362523869
 20
1525.778748917892
 30
0.0
  0
VERTEX
  5
46E
330
431
100
AcDbEntity
  8
Make2D$可见线$普通线
100
AcDbVertex
100
AcDb2dVertex
 10
172.5718409910375
 20
1525.778549375057
 30
0.0
  0
VERTEX
  5
46F
330
431
100
AcDbEntity
  8
Make2D$可见线$普通线
100
AcDbVertex
100
AcDb2dVertex
 10
172.5717395866163
 20
1525.778349833695
 30
0.0
  0
VERTEX
  5
470
330
431
100
AcDbEntity
  8
Make2D$可见线$普通线
100
AcDbVertex
100
AcDb2dVertex
 10
172.5716320394656
 20
1525.77815029379
 30
0.0
  0
VERTEX
  5
471
330
431
100
AcDbEntity
  8
Make2D$可见线$普通线
100
AcDbVertex
100
AcDb2dVertex
 10
172.5715183499274
 20
1525.777950755325
 30
0.0
  0
VERTEX
  5
472
330
431
100
AcDbEntity
  8
Make2D$可见线$普通线
100
AcDbVertex
100
AcDb2dVertex
 10
172.5713985183439
 20
1525.777751218284
 30
0.0
  0
VERTEX
  5
473
330
431
100
AcDbEntity
  8
Make2D$可见线$普通线
100
AcDbVertex
100
AcDb2dVertex
 10
172.5712725450572
 20
1525.777551682651
 30
0.0
  0
VERTEX
  5
474
330
431
100
AcDbEntity
  8
Make2D$可见线$普通线
100
AcDbVertex
100
AcDb2dVertex
 10
172.5711404304096
 20
1525.777352148411
 30
0.0
  0
VERTEX
  5
475
330
431
100
AcDbEntity
  8
Make2D$可见线$普通线
100
AcDbVertex
100
AcDb2dVertex
 10
172.571002174743
 20
1525.777152615546
 30
0.0
  0
VERTEX
  5
476
330
431
100
AcDbEntity
  8
Make2D$可见线$普通线
100
AcDbVertex
100
AcDb2dVertex
 10
172.5708577783997
 20
1525.776953084041
 30
0.0
  0
VERTEX
  5
477
330
431
100
AcDbEntity
  8
Make2D$可见线$普通线
100
AcDbVertex
100
AcDb2dVertex
 10
172.5707072417218
 20
1525.776753553878
 30
0.0
  0
VERTEX
  5
478
330
431
100
AcDbEntity
  8
Make2D$可见线$普通线
100
AcDbVertex
100
AcDb2dVertex
 10
172.5705505650515
 20
1525.776554025043
 30
0.0
  0
VERTEX
  5
479
330
431
100
AcDbEntity
  8
Make2D$可见线$普通线
100
AcDbVertex
100
AcDb2dVertex
 10
172.5703877487308
 20
1525.776354497519
 30
0.0
  0
VERTEX
  5
47A
330
431
100
AcDbEntity
  8
Make2D$可见线$普通线
100
AcDbVertex
100
AcDb2dVertex
 10
172.570218793102
 20
1525.77615497129
 30
0.0
  0
VERTEX
  5
47B
330
431
100
AcDbEntity
  8
Make2D$可见线$普通线
100
AcDbVertex
100
AcDb2dVertex
 10
172.5698624652885
 20
1525.77575592265
 30
0.0
  0
VERTEX
  5
47C
330
431
100
AcDbEntity
  8
Make2D$可见线$普通线
100
AcDbVertex
100
AcDb2dVertex
 10
172.569481584348
 20
1525.775356878994
 30
0.0
  0
VERTEX
  5
47D
330
431
100
AcDbEntity
  8
Make2D$可见线$普通线
100
AcDbVertex
100
AcDb2dVertex
 10
172.5690761530177
 20
1525.774957840192
 30
0.0
  0
VERTEX
  5
47E
330
431
100
AcDbEntity
  8
Make2D$可见线$普通线
100
AcDbVertex
100
AcDb2dVertex
 10
172.5686461740349
 20
1525.774558806115
 30
0.0
  0
VERTEX
  5
47F
330
431
100
AcDbEntity
  8
Make2D$可见线$普通线
100
AcDbVertex
100
AcDb2dVertex
 10
172.5681916501366
 20
1525.774159776634
 30
0.0
  0
VERTEX
  5
480
330
431
100
AcDbEntity
  8
Make2D$可见线$普通线
100
AcDbVertex
100
AcDb2dVertex
 10
172.5677125840599
 20
1525.773760751618
 30
0.0
  0
VERTEX
  5
481
330
431
100
AcDbEntity
  8
Make2D$可见线$普通线
100
AcDbVertex
100
AcDb2dVertex
 10
172.5672089785421
 20
1525.773361730937
 30
0.0
  0
VERTEX
  5
482
330
431
100
AcDbEntity
  8
Make2D$可见线$普通线
100
AcDbVertex
100
AcDb2dVertex
 10
172.5666808363202
 20
1525.772962714463
 30
0.0
  0
VERTEX
  5
483
330
431
100
AcDbEntity
  8
Make2D$可见线$普通线
100
AcDbVertex
100
AcDb2dVertex
 10
172.5661281601315
 20
1525.772563702064
 30
0.0
  0
VERTEX
  5
484
330
431
100
AcDbEntity
  8
Make2D$可见线$普通线
100
AcDbVertex
100
AcDb2dVertex
 10
172.5655509527131
 20
1525.772164693613
 30
0.0
  0
VERTEX
  5
485
330
431
100
AcDbEntity
  8
Make2D$可见线$普通线
100
AcDbVertex
100
AcDb2dVertex
 10
172.5649492168021
 20
1525.771765688979
 30
0.0
  0
VERTEX
  5
486
330
431
100
AcDbEntity
  8
Make2D$可见线$普通线
100
AcDbVertex
100
AcDb2dVertex
 10
172.5643229551357
 20
1525.771366688032
 30
0.0
  0
VERTEX
  5
487
330
431
100
AcDbEntity
  8
Make2D$可见线$普通线
100
AcDbVertex
100
AcDb2dVertex
 10
172.5629968654852
 20
1525.770568696681
 30
0.0
  0
VERTEX
  5
488
330
431
100
AcDbEntity
  8
Make2D$可见线$普通线
100
AcDbVertex
100
AcDb2dVertex
 10
172.5615727056588
 20
1525.769770718523
 30
0.0
  0
VERTEX
  5
489
330
431
100
AcDbEntity
  8
Make2D$可见线$普通线
100
AcDbVertex
100
AcDb2dVertex
 10
172.5600504975537
 20
1525.768972752522
 30
0.0
  0
VERTEX
  5
48A
330
431
100
AcDbEntity
  8
Make2D$可见线$普通线
100
AcDbVertex
100
AcDb2dVertex
 10
172.5584302630671
 20
1525.768174797639
 30
0.0
  0
VERTEX
  5
48B
330
431
100
AcDbEntity
  8
Make2D$可见线$普通线
100
AcDbVertex
100
AcDb2dVertex
 10
172.5567120240963
 20
1525.767376852838
 30
0.0
  0
VERTEX
  5
48C
330
431
100
AcDbEntity
  8
Make2D$可见线$普通线
100
AcDbVertex
100
AcDb2dVertex
 10
172.5548958025383
 20
1525.76657891708
 30
0.0
  0
VERTEX
  5
48D
330
431
100
AcDbEntity
  8
Make2D$可见线$普通线
100
AcDbVertex
100
AcDb2dVertex
 10
172.5529816202905
 20
1525.765780989329
 30
0.0
  0
VERTEX
  5
48E
330
431
100
AcDbEntity
  8
Make2D$可见线$普通线
100
AcDbVertex
100
AcDb2dVertex
 10
172.548859461314
 20
1525.764185153696
 30
0.0
  0
VERTEX
  5
48F
330
431
100
AcDbEntity
  8
Make2D$可见线$普通线
100
AcDbVertex
100
AcDb2dVertex
 10
172.5443457223444
 20
1525.762589337641
 30
0.0
  0
VERTEX
  5
490
330
431
100
AcDbEntity
  8
Make2D$可见线$普通线
100
AcDbVertex
100
AcDb2dVertex
 10
172.5394405785593
 20
1525.760993532863
 30
0.0
  0
VERTEX
  5
491
330
431
100
AcDbEntity
  8
Make2D$可见线$普通线
100
AcDbVertex
100
AcDb2dVertex
 10
172.5341442051362
 20
1525.759397731065
 30
0.0
  0
VERTEX
  5
492
330
431
100
AcDbEntity
  8
Make2D$可见线$普通线
100
AcDbVertex
100
AcDb2dVertex
 10
172.5223784700867
 20
1525.756206103209
 30
0.0
  0
VERTEX
  5
493
330
431
100
AcDbEntity
  8
Make2D$可见线$普通线
100
AcDbVertex
100
AcDb2dVertex
 10
172.5090499186167
 20
1525.75301438768
 30
0.0
  0
VERTEX
  5
494
330
431
100
AcDbEntity
  8
Make2D$可见线$普通线
100
AcDbVertex
100
AcDb2dVertex
 10
172.4941599521469
 20
1525.749822518087
 30
0.0
  0
VERTEX
  5
495
330
431
100
AcDbEntity
  8
Make2D$可见线$普通线
100
AcDbVertex
100
AcDb2dVertex
 10
172.4597013798914
 20
1525.743438051134
 30
0.0
  0
VERTEX
  5
496
330
431
100
AcDbEntity
  8
Make2D$可见线$普通线
100
AcDbVertex
100
AcDb2dVertex
 10
172.4190139646868
 20
1525.737052171211
 30
0.0
  0
VERTEX
  5
497
330
431
100
AcDbEntity
  8
Make2D$可见线$普通线
100
AcDbVertex
100
AcDb2dVertex
 10
172.3721089178994
 20
1525.730664347177
 30
0.0
  0
VERTEX
  5
498
330
431
100
AcDbEntity
  8
Make2D$可见线$普通线
100
AcDbVertex
100
AcDb2dVertex
 10
171.9686674335462
 20
1525.692394091463
 30
0.0
  0
VERTEX
  5
499
330
431
100
AcDbEntity
  8
Make2D$可见线$普通线
100
AcDbVertex
100
AcDb2dVertex
 10
171.5642458479464
 20
1525.666455223512
 30
0.0
  0
VERTEX
  5
49A
330
431
100
AcDbEntity
  8
Make2D$可见线$普通线
100
AcDbVertex
100
AcDb2dVertex
 10
169.4803701903731
 20
1525.576263061933
 30
0.0
  0
VERTEX
  5
49B
330
431
100
AcDbEntity
  8
Make2D$可见线$普通线
100
AcDbVertex
100
AcDb2dVertex
 10
166.0668513863742
 20
1525.473809091794
 30
0.0
  0
VERTEX
  5
49C
330
431
100
AcDbEntity
  8
Make2D$可见线$普通线
100
AcDbVertex
100
AcDb2dVertex
 10
162.0150000000014
 20
1525.370753876447
 30
0.0
  0
SEQEND
  5
49D
330
431
100
AcDbEntity
  8
Make2D$可见线$普通线
  0
LINE
  5
49E
330
1F
100
AcDbEntity
  8
Make2D$可见线$普通线
100
AcDbLine
 10
156.1480739036701
 20
1521.278184831969
 30
0.0
 11
151.466568960637
 21
1521.278184831969
 31
0.0
  0
ARC
  5
49F
330
1F
100
AcDbEntity
  8
Make2D$可见线$普通线
100
AcDbCircle
 10
319.0202858722608
 20
1587.511914049166
 30
0.0
 40
2.000357735133365
100
AcDbArc
 50
225.0043648408027
 51
269.0495632557828
  0
ARC
  5
4A0
330
1F
100
AcDbEntity
  8
Make2D$可见线$普通线
100
AcDbCircle
 10
5.009625776816279
 20
1587.512121693963
 30
0.0
 40
2.000567043919184
100
AcDbArc
 50
270.9528711300645
 51
314.9932197508909
  0
LINE
  5
4A1
330
1F
100
AcDbEntity
  8
Make2D$可见线$普通线
100
AcDbLine
 10
54.95000000000142
 20
1582.691553341079
 30
0.0
 11
53.74000000000144
 21
1582.691553341079
 31
0.0
  0
LINE
  5
4A2
330
1F
100
AcDbEntity
  8
Make2D$可见线$普通线
100
AcDbLine
 10
54.95000000000142
 20
1538.331553341079
 30
0.0
 11
53.74000000000144
 21
1538.331553341079
 31
0.0
  0
LINE
  5
4A3
330
1F
100
AcDbEntity
  8
Make2D$可见线$普通线
100
AcDbLine
 10
269.0800000000014
 20
1538.331553341079
 30
0.0
 11
270.2900000000014
 21
1538.331553341079
 31
0.0
  0
LINE
  5
4A4
330
1F
100
AcDbEntity
  8
Make2D$可见线$普通线
100
AcDbLine
 10
269.0800000000014
 20
1582.691553341079
 30
0.0
 11
270.2900000000014
 21
1582.691553341079
 31
0.0
  0
POLYLINE
  5
4A5
330
1F
100
AcDbEntity
  8
Make2D$可见线$普通线
100
AcDb2dPolyline
 66
     1
 10
0.0
 20
0.0
 30
0.0
  0
VERTEX
  5
4A6
330
4A5
100
AcDbEntity
  8
Make2D$可见线$普通线
100
AcDbVertex
100
AcDb2dVertex
 10
152.3815224335624
 20
1530.361492451688
 30
0.0
 42
-0.3628268635508196
  0
VERTEX
  5
4A7
330
4A5
100
AcDbEntity
  8
Make2D$可见线$普通线
100
AcDbVertex
100
AcDb2dVertex
 10
152.7963720635984
 20
1529.865905577967
 30
0.0
  0
VERTEX
  5
4A8
330
4A5
100
AcDbEntity
  8
Make2D$可见线$普通线
100
AcDbVertex
100
AcDb2dVertex
 10
152.7963720635985
 20
1528.855782895456
 30
0.0
 42
-0.3589818407710837
  0
VERTEX
  5
4A9
330
4A5
100
AcDbEntity
  8
Make2D$可见线$普通线
100
AcDbVertex
100
AcDb2dVertex
 10
152.3830503429097
 20
1528.359762706498
 30
0.0
  0
SEQEND
  5
4AA
330
4A5
100
AcDbEntity
  8
Make2D$可见线$普通线
  0
POLYLINE
  5
4AB
330
1F
100
AcDbEntity
  8
Make2D$可见线$普通线
100
AcDb2dPolyline
 66
     1
 10
0.0
 20
0.0
 30
0.0
  0
VERTEX
  5
4AC
330
4AB
100
AcDbEntity
  8
Make2D$可见线$普通线
100
AcDbVertex
100
AcDb2dVertex
 10
171.6484775660732
 20
1530.361492451623
 30
0.0
 42
0.3628268633415382
  0
VERTEX
  5
4AD
330
4AB
100
AcDbEntity
  8
Make2D$可见线$普通线
100
AcDbVertex
100
AcDb2dVertex
 10
171.2336279364042
 20
1529.865905577967
 30
0.0
  0
VERTEX
  5
4AE
330
4AB
100
AcDbEntity
  8
Make2D$可见线$普通线
100
AcDbVertex
100
AcDb2dVertex
 10
171.2336279364044
 20
1528.855782895456
 30
0.0
 42
0.3589818407711037
  0
VERTEX
  5
4AF
330
4AB
100
AcDbEntity
  8
Make2D$可见线$普通线
100
AcDbVertex
100
AcDb2dVertex
 10
171.6469496570931
 20
1528.359762706498
 30
0.0
  0
SEQEND
  5
4B0
330
4AB
100
AcDbEntity
  8
Make2D$可见线$普通线
  0
ARC
  5
4B1
330
1F
100
AcDbEntity
  8
Make2D$可见线$普通线
100
AcDbCircle
 10
151.5532902986326
 20
1525.554213464467
 30
0.0
 40
0.3940042932029975
100
AcDbArc
 50
53.12402972103762
 51
68.97404648999918
  0
ARC
  5
4B2
330
1F
100
AcDbEntity
  8
Make2D$可见线$普通线
100
AcDbCircle
 10
151.5238013901747
 20
1527.100855830521
 30
0.0
 40
0.4913984282920024
100
AcDbArc
 50
298.5922885024993
 51
47.23746786927368
  0
ARC
  5
4B3
330
1F
100
AcDbEntity
  8
Make2D$可见线$普通线
100
AcDbCircle
 10
172.503410608815
 20
1521.34624789609
 30
0.0
 40
0.4893108975288472
100
AcDbArc
 50
117.1513542928904
 51
235.801931921448
  0
ARC
  5
4B4
330
1F
100
AcDbEntity
  8
Make2D$可见线$普通线
100
AcDbCircle
 10
172.5020823508386
 20
1522.991882130331
 30
0.0
 40
0.4875654613204652
100
AcDbArc
 50
119.3505236496868
 51
250.7156554584007
  0
ARC
  5
4B5
330
1F
100
AcDbEntity
  8
Make2D$可见线$普通线
100
AcDbCircle
 10
172.5096292409502
 20
1526.278173093496
 30
0.0
 40
0.4939643917926403
100
AcDbArc
 50
131.444247176465
 51
249.772004801712
  0
POLYLINE
  5
4B6
330
1F
100
AcDbEntity
  8
Make2D$可见线$普通线
100
AcDb2dPolyline
 66
     1
 10
0.0
 20
0.0
 30
0.0
  0
VERTEX
  5
4B7
330
4B6
100
AcDbEntity
  8
Make2D$可见线$普通线
100
AcDbVertex
100
AcDb2dVertex
 10
151.457372228642
 20
1524.318908852774
 30
0.0
  0
VERTEX
  5
4B8
330
4B6
100
AcDbEntity
  8
Make2D$可见线$普通线
100
AcDbVertex
100
AcDb2dVertex
 10
151.4573758537927
 20
1524.959885390703
 30
0.0
  0
VERTEX
  5
4B9
330
4B6
100
AcDbEntity
  8
Make2D$可见线$普通线
100
AcDbVertex
100
AcDb2dVertex
 10
151.4573926384545
 20
1524.960138364345
 30
0.0
  0
VERTEX
  5
4BA
330
4B6
100
AcDbEntity
  8
Make2D$可见线$普通线
100
AcDbVertex
100
AcDb2dVertex
 10
151.4574191510416
 20
1524.960391316765
 30
0.0
  0
VERTEX
  5
4BB
330
4B6
100
AcDbEntity
  8
Make2D$可见线$普通线
100
AcDbVertex
100
AcDb2dVertex
 10
151.4574553906927
 20
1524.960644248076
 30
0.0
  0
VERTEX
  5
4BC
330
4B6
100
AcDbEntity
  8
Make2D$可见线$普通线
100
AcDbVertex
100
AcDb2dVertex
 10
151.4575013565467
 20
1524.960897158388
 30
0.0
  0
VERTEX
  5
4BD
330
4B6
100
AcDbEntity
  8
Make2D$可见线$普通线
100
AcDbVertex
100
AcDb2dVertex
 10
151.4575570477425
 20
1524.961150047811
 30
0.0
  0
VERTEX
  5
4BE
330
4B6
100
AcDbEntity
  8
Make2D$可见线$普通线
100
AcDbVertex
100
AcDb2dVertex
 10
151.4576224634189
 20
1524.961402916458
 30
0.0
  0
VERTEX
  5
4BF
330
4B6
100
AcDbEntity
  8
Make2D$可见线$普通线
100
AcDbVertex
100
AcDb2dVertex
 10
151.4576976027148
 20
1524.961655764439
 30
0.0
  0
VERTEX
  5
4C0
330
4B6
100
AcDbEntity
  8
Make2D$可见线$普通线
100
AcDbVertex
100
AcDb2dVertex
 10
151.457782464769
 20
1524.961908591866
 30
0.0
  0
VERTEX
  5
4C1
330
4B6
100
AcDbEntity
  8
Make2D$可见线$普通线
100
AcDbVertex
100
AcDb2dVertex
 10
151.4578770487204
 20
1524.962161398849
 30
0.0
  0
VERTEX
  5
4C2
330
4B6
100
AcDbEntity
  8
Make2D$可见线$普通线
100
AcDbVertex
100
AcDb2dVertex
 10
151.4579813537079
 20
1524.962414185499
 30
0.0
  0
VERTEX
  5
4C3
330
4B6
100
AcDbEntity
  8
Make2D$可见线$普通线
100
AcDbVertex
100
AcDb2dVertex
 10
151.4580953788704
 20
1524.962666951929
 30
0.0
  0
VERTEX
  5
4C4
330
4B6
100
AcDbEntity
  8
Make2D$可见线$普通线
100
AcDbVertex
100
AcDb2dVertex
 10
151.4582191233466
 20
1524.962919698248
 30
0.0
  0
VERTEX
  5
4C5
330
4B6
100
AcDbEntity
  8
Make2D$可见线$普通线
100
AcDbVertex
100
AcDb2dVertex
 10
151.4583525862755
 20
1524.963172424568
 30
0.0
  0
VERTEX
  5
4C6
330
4B6
100
AcDbEntity
  8
Make2D$可见线$普通线
100
AcDbVertex
100
AcDb2dVertex
 10
151.4584957667958
 20
1524.963425131
 30
0.0
  0
VERTEX
  5
4C7
330
4B6
100
AcDbEntity
  8
Make2D$可见线$普通线
100
AcDbVertex
100
AcDb2dVertex
 10
151.4586486640466
 20
1524.963677817655
 30
0.0
  0
VERTEX
  5
4C8
330
4B6
100
AcDbEntity
  8
Make2D$可见线$普通线
100
AcDbVertex
100
AcDb2dVertex
 10
151.4588112771665
 20
1524.963930484644
 30
0.0
  0
VERTEX
  5
4C9
330
4B6
100
AcDbEntity
  8
Make2D$可见线$普通线
100
AcDbVertex
100
AcDb2dVertex
 10
151.4589836052946
 20
1524.964183132079
 30
0.0
  0
VERTEX
  5
4CA
330
4B6
100
AcDbEntity
  8
Make2D$可见线$普通线
100
AcDbVertex
100
AcDb2dVertex
 10
151.4591656475696
 20
1524.96443576007
 30
0.0
  0
VERTEX
  5
4CB
330
4B6
100
AcDbEntity
  8
Make2D$可见线$普通线
100
AcDbVertex
100
AcDb2dVertex
 10
151.4593574031304
 20
1524.964688368728
 30
0.0
  0
VERTEX
  5
4CC
330
4B6
100
AcDbEntity
  8
Make2D$可见线$普通线
100
AcDbVertex
100
AcDb2dVertex
 10
151.4595588711159
 20
1524.964940958165
 30
0.0
  0
VERTEX
  5
4CD
330
4B6
100
AcDbEntity
  8
Make2D$可见线$普通线
100
AcDbVertex
100
AcDb2dVertex
 10
151.4597700506649
 20
1524.965193528492
 30
0.0
  0
VERTEX
  5
4CE
330
4B6
100
AcDbEntity
  8
Make2D$可见线$普通线
100
AcDbVertex
100
AcDb2dVertex
 10
151.4599909409163
 20
1524.96544607982
 30
0.0
  0
VERTEX
  5
4CF
330
4B6
100
AcDbEntity
  8
Make2D$可见线$普通线
100
AcDbVertex
100
AcDb2dVertex
 10
151.4602215410089
 20
1524.965698612259
 30
0.0
  0
VERTEX
  5
4D0
330
4B6
100
AcDbEntity
  8
Make2D$可见线$普通线
100
AcDbVertex
100
AcDb2dVertex
 10
151.4604618500817
 20
1524.965951125922
 30
0.0
  0
VERTEX
  5
4D1
330
4B6
100
AcDbEntity
  8
Make2D$可见线$普通线
100
AcDbVertex
100
AcDb2dVertex
 10
151.4607118672734
 20
1524.966203620918
 30
0.0
  0
VERTEX
  5
4D2
330
4B6
100
AcDbEntity
  8
Make2D$可见线$普通线
100
AcDbVertex
100
AcDb2dVertex
 10
151.4609715917229
 20
1524.96645609736
 30
0.0
  0
VERTEX
  5
4D3
330
4B6
100
AcDbEntity
  8
Make2D$可见线$普通线
100
AcDbVertex
100
AcDb2dVertex
 10
151.4612410225691
 20
1524.966708555358
 30
0.0
  0
VERTEX
  5
4D4
330
4B6
100
AcDbEntity
  8
Make2D$可见线$普通线
100
AcDbVertex
100
AcDb2dVertex
 10
151.4615201589509
 20
1524.966960995024
 30
0.0
  0
VERTEX
  5
4D5
330
4B6
100
AcDbEntity
  8
Make2D$可见线$普通线
100
AcDbVertex
100
AcDb2dVertex
 10
151.4621075448765
 20
1524.967465819802
 30
0.0
  0
VERTEX
  5
4D6
330
4B6
100
AcDbEntity
  8
Make2D$可见线$普通线
100
AcDbVertex
100
AcDb2dVertex
 10
151.4627337426107
 20
1524.967970572583
 30
0.0
  0
VERTEX
  5
4D7
330
4B6
100
AcDbEntity
  8
Make2D$可见线$普通线
100
AcDbVertex
100
AcDb2dVertex
 10
151.4633987452643
 20
1524.968475254255
 30
0.0
  0
VERTEX
  5
4D8
330
4B6
100
AcDbEntity
  8
Make2D$可见线$普通线
100
AcDbVertex
100
AcDb2dVertex
 10
151.4641025459481
 20
1524.968979865708
 30
0.0
  0
VERTEX
  5
4D9
330
4B6
100
AcDbEntity
  8
Make2D$可见线$普通线
100
AcDbVertex
100
AcDb2dVertex
 10
151.4648451377731
 20
1524.969484407831
 30
0.0
  0
VERTEX
  5
4DA
330
4B6
100
AcDbEntity
  8
Make2D$可见线$普通线
100
AcDbVertex
100
AcDb2dVertex
 10
151.4656265138501
 20
1524.969988881511
 30
0.0
  0
VERTEX
  5
4DB
330
4B6
100
AcDbEntity
  8
Make2D$可见线$普通线
100
AcDbVertex
100
AcDb2dVertex
 10
151.46644666729
 20
1524.970493287639
 30
0.0
  0
VERTEX
  5
4DC
330
4B6
100
AcDbEntity
  8
Make2D$可见线$普通线
100
AcDbVertex
100
AcDb2dVertex
 10
151.4673055912037
 20
1524.970997627102
 30
0.0
  0
VERTEX
  5
4DD
330
4B6
100
AcDbEntity
  8
Make2D$可见线$普通线
100
AcDbVertex
100
AcDb2dVertex
 10
151.4682032787021
 20
1524.97150190079
 30
0.0
  0
VERTEX
  5
4DE
330
4B6
100
AcDbEntity
  8
Make2D$可见线$普通线
100
AcDbVertex
100
AcDb2dVertex
 10
151.469139722896
 20
1524.972006109592
 30
0.0
  0
VERTEX
  5
4DF
330
4B6
100
AcDbEntity
  8
Make2D$可见线$普通线
100
AcDbVertex
100
AcDb2dVertex
 10
151.4711288538141
 20
1524.97301433609
 30
0.0
  0
VERTEX
  5
4E0
330
4B6
100
AcDbEntity
  8
Make2D$可见线$普通线
100
AcDbVertex
100
AcDb2dVertex
 10
151.473272928845
 20
1524.974022313708
 30
0.0
  0
VERTEX
  5
4E1
330
4B6
100
AcDbEntity
  8
Make2D$可见线$普通线
100
AcDbVertex
100
AcDb2dVertex
 10
151.4755718928757
 20
1524.975030049556
 30
0.0
  0
VERTEX
  5
4E2
330
4B6
100
AcDbEntity
  8
Make2D$可见线$普通线
100
AcDbVertex
100
AcDb2dVertex
 10
151.4780256907933
 20
1524.976037550744
 30
0.0
  0
VERTEX
  5
4E3
330
4B6
100
AcDbEntity
  8
Make2D$可见线$普通线
100
AcDbVertex
100
AcDb2dVertex
 10
151.4806342674849
 20
1524.977044824384
 30
0.0
  0
VERTEX
  5
4E4
330
4B6
100
AcDbEntity
  8
Make2D$可见线$普通线
100
AcDbVertex
100
AcDb2dVertex
 10
151.4833975678374
 20
1524.978051877586
 30
0.0
  0
VERTEX
  5
4E5
330
4B6
100
AcDbEntity
  8
Make2D$可见线$普通线
100
AcDbVertex
100
AcDb2dVertex
 10
151.4893881190735
 20
1524.980065351115
 30
0.0
  0
VERTEX
  5
4E6
330
4B6
100
AcDbEntity
  8
Make2D$可见线$普通线
100
AcDbVertex
100
AcDb2dVertex
 10
151.4959969035979
 20
1524.982078028218
 30
0.0
  0
VERTEX
  5
4E7
330
4B6
100
AcDbEntity
  8
Make2D$可见线$普通线
100
AcDbVertex
100
AcDb2dVertex
 10
151.5032234805072
 20
1524.984089965777
 30
0.0
  0
VERTEX
  5
4E8
330
4B6
100
AcDbEntity
  8
Make2D$可见线$普通线
100
AcDbVertex
100
AcDb2dVertex
 10
151.5110674088975
 20
1524.986101220678
 30
0.0
  0
VERTEX
  5
4E9
330
4B6
100
AcDbEntity
  8
Make2D$可见线$普通线
100
AcDbVertex
100
AcDb2dVertex
 10
151.5195282478654
 20
1524.988111849804
 30
0.0
  0
VERTEX
  5
4EA
330
4B6
100
AcDbEntity
  8
Make2D$可见线$普通线
100
AcDbVertex
100
AcDb2dVertex
 10
151.5382988939189
 20
1524.99213145827
 30
0.0
  0
VERTEX
  5
4EB
330
4B6
100
AcDbEntity
  8
Make2D$可见线$普通线
100
AcDbVertex
100
AcDb2dVertex
 10
151.5595318914385
 20
1524.996149246248
 30
0.0
  0
VERTEX
  5
4EC
330
4B6
100
AcDbEntity
  8
Make2D$可见线$普通线
100
AcDbVertex
100
AcDb2dVertex
 10
151.583223713195
 20
1525.000165668812
 30
0.0
  0
VERTEX
  5
4ED
330
4B6
100
AcDbEntity
  8
Make2D$可见线$普通线
100
AcDbVertex
100
AcDb2dVertex
 10
151.6379697205024
 20
1525.008196237992
 30
0.0
  0
VERTEX
  5
4EE
330
4B6
100
AcDbEntity
  8
Make2D$可见线$普通线
100
AcDbVertex
100
AcDb2dVertex
 10
151.776812427877
 20
1525.024261014626
 30
0.0
  0
VERTEX
  5
4EF
330
4B6
100
AcDbEntity
  8
Make2D$可见线$普通线
100
AcDbVertex
100
AcDb2dVertex
 10
152.2429254011535
 20
1525.061566207645
 30
0.0
  0
VERTEX
  5
4F0
330
4B6
100
AcDbEntity
  8
Make2D$可见线$普通线
100
AcDbVertex
100
AcDb2dVertex
 10
152.7097539967234
 20
1525.088474266681
 30
0.0
  0
VERTEX
  5
4F1
330
4B6
100
AcDbEntity
  8
Make2D$可见线$普通线
100
AcDbVertex
100
AcDb2dVertex
 10
154.5496298096297
 20
1525.165241903152
 30
0.0
  0
VERTEX
  5
4F2
330
4B6
100
AcDbEntity
  8
Make2D$可见线$普通线
100
AcDbVertex
100
AcDb2dVertex
 10
158.4696211537761
 20
1525.281136234116
 30
0.0
  0
VERTEX
  5
4F3
330
4B6
100
AcDbEntity
  8
Make2D$可见线$普通线
100
AcDbVertex
100
AcDb2dVertex
 10
162.0150000000014
 20
1525.370753876447
 30
0.0
  0
VERTEX
  5
4F4
330
4B6
100
AcDbEntity
  8
Make2D$可见线$普通线
100
AcDbVertex
100
AcDb2dVertex
 10
162.0150000000014
 20
1524.720362785725
 30
0.0
  0
VERTEX
  5
4F5
330
4B6
100
AcDbEntity
  8
Make2D$可见线$普通线
100
AcDbVertex
100
AcDb2dVertex
 10
157.4898087695892
 20
1524.604462136999
 30
0.0
  0
VERTEX
  5
4F6
330
4B6
100
AcDbEntity
  8
Make2D$可见线$普通线
100
AcDbVertex
100
AcDb2dVertex
 10
154.5496298096297
 20
1524.51484415836
 30
0.0
  0
VERTEX
  5
4F7
330
4B6
100
AcDbEntity
  8
Make2D$可见线$普通线
100
AcDbVertex
100
AcDb2dVertex
 10
153.5275012059657
 20
1524.476015135988
 30
0.0
  0
VERTEX
  5
4F8
330
4B6
100
AcDbEntity
  8
Make2D$可见线$普通线
100
AcDbVertex
100
AcDb2dVertex
 10
152.0842696702782
 20
1524.401352224768
 30
0.0
  0
VERTEX
  5
4F9
330
4B6
100
AcDbEntity
  8
Make2D$可见线$普通线
100
AcDbVertex
100
AcDb2dVertex
 10
151.9123903828058
 20
1524.387155354884
 30
0.0
  0
VERTEX
  5
4FA
330
4B6
100
AcDbEntity
  8
Make2D$可见线$普通线
100
AcDbVertex
100
AcDb2dVertex
 10
151.7408602538049
 20
1524.369226176948
 30
0.0
  0
VERTEX
  5
4FB
330
4B6
100
AcDbEntity
  8
Make2D$可见线$普通线
100
AcDbVertex
100
AcDb2dVertex
 10
151.5698006710194
 20
1524.347578713912
 30
0.0
 42
0.1889798312870951
  0
VERTEX
  5
4FC
330
4B6
100
AcDbEntity
  8
Make2D$可见线$普通线
100
AcDbVertex
100
AcDb2dVertex
 10
151.457372228642
 20
1524.309352376245
 30
0.0
 42
0.235627495906873
  0
VERTEX
  5
4FD
330
4B6
100
AcDbEntity
  8
Make2D$可见线$普通线
100
AcDbVertex
100
AcDb2dVertex
 10
151.5094597654893
 20
1524.283359555811
 30
0.0
  0
VERTEX
  5
4FE
330
4B6
100
AcDbEntity
  8
Make2D$可见线$普通线
100
AcDbVertex
100
AcDb2dVertex
 10
151.7240852237083
 20
1524.253740809128
 30
0.0
  0
VERTEX
  5
4FF
330
4B6
100
AcDbEntity
  8
Make2D$可见线$普通线
100
AcDbVertex
100
AcDb2dVertex
 10
151.6922512944674
 20
1524.271176224138
 30
0.0
  0
VERTEX
  5
500
330
4B6
100
AcDbEntity
  8
Make2D$可见线$普通线
100
AcDbVertex
100
AcDb2dVertex
 10
151.7238471897084
 20
1524.267339624616
 30
0.0
  0
SEQEND
  5
501
330
4B6
100
AcDbEntity
  8
Make2D$可见线$普通线
  0
POLYLINE
  5
502
330
1F
100
AcDbEntity
  8
Make2D$可见线$普通线
100
AcDb2dPolyline
 66
     1
 10
0.0
 20
0.0
 30
0.0
  0
VERTEX
  5
503
330
502
100
AcDbEntity
  8
Make2D$可见线$普通线
100
AcDbVertex
100
AcDb2dVertex
 10
63.94999959672585
 20
1584.541553341079
 30
0.0
  0
VERTEX
  5
504
330
502
100
AcDbEntity
  8
Make2D$可见线$普通线
100
AcDbVertex
100
AcDb2dVertex
 10
58.94999959672585
 20
1584.541553341079
 30
0.0
  0
VERTEX
  5
505
330
502
100
AcDbEntity
  8
Make2D$可见线$普通线
100
AcDbVertex
100
AcDb2dVertex
 10
58.94999959672585
 20
1584.810875540103
 30
0.0
  0
VERTEX
  5
506
330
502
100
AcDbEntity
  8
Make2D$可见线$普通线
100
AcDbVertex
100
AcDb2dVertex
 10
63.94999959672585
 20
1584.810875540103
 30
0.0
  0
VERTEX
  5
507
330
502
100
AcDbEntity
  8
Make2D$可见线$普通线
100
AcDbVertex
100
AcDb2dVertex
 10
63.94999959672585
 20
1584.541553341079
 30
0.0
  0
SEQEND
  5
508
330
502
100
AcDbEntity
  8
Make2D$可见线$普通线
  0
POLYLINE
  5
509
330
1F
100
AcDbEntity
  8
Make2D$可见线$普通线
100
AcDb2dPolyline
 66
     1
 10
0.0
 20
0.0
 30
0.0
  0
VERTEX
  5
50A
330
509
100
AcDbEntity
  8
Make2D$可见线$普通线
100
AcDbVertex
100
AcDb2dVertex
 10
59.14999959672583
 20
1584.598984625404
 30
0.0
  0
VERTEX
  5
50B
330
509
100
AcDbEntity
  8
Make2D$可见线$普通线
100
AcDbVertex
100
AcDb2dVertex
 10
59.14999959672583
 20
1584.760554146232
 30
0.0
  0
VERTEX
  5
50C
330
509
100
AcDbEntity
  8
Make2D$可见线$普通线
100
AcDbVertex
100
AcDb2dVertex
 10
63.74999959672586
 20
1584.760554146232
 30
0.0
  0
VERTEX
  5
50D
330
509
100
AcDbEntity
  8
Make2D$可见线$普通线
100
AcDbVertex
100
AcDb2dVertex
 10
63.74999959672586
 20
1584.598984625404
 30
0.0
  0
VERTEX
  5
50E
330
509
100
AcDbEntity
  8
Make2D$可见线$普通线
100
AcDbVertex
100
AcDb2dVertex
 10
59.14999959672583
 20
1584.598984625404
 30
0.0
  0
SEQEND
  5
50F
330
509
100
AcDbEntity
  8
Make2D$可见线$普通线
  0
POLYLINE
  5
510
330
1F
100
AcDbEntity
  8
Make2D$可见线$普通线
100
AcDb2dPolyline
 66
     1
 10
0.0
 20
0.0
 30
0.0
  0
VERTEX
  5
511
330
510
100
AcDbEntity
  8
Make2D$可见线$普通线
100
AcDbVertex
100
AcDb2dVertex
 10
263.0800000000016
 20
1583.86536092046
 30
0.0
  0
VERTEX
  5
512
330
510
100
AcDbEntity
  8
Make2D$可见线$普通线
100
AcDbVertex
100
AcDb2dVertex
 10
263.0800000000016
 20
1584.541553341079
 30
0.0
  0
VERTEX
  5
513
330
510
100
AcDbEntity
  8
Make2D$可见线$普通线
100
AcDbVertex
100
AcDb2dVertex
 10
261.0800000000016
 20
1584.541553341079
 30
0.0
  0
VERTEX
  5
514
330
510
100
AcDbEntity
  8
Make2D$可见线$普通线
100
AcDbVertex
100
AcDb2dVertex
 10
261.0800000000016
 20
1584.810875540103
 30
0.0
  0
VERTEX
  5
515
330
510
100
AcDbEntity
  8
Make2D$可见线$普通线
100
AcDbVertex
100
AcDb2dVertex
 10
263.0800000000016
 20
1584.810875540103
 30
0.0
  0
VERTEX
  5
516
330
510
100
AcDbEntity
  8
Make2D$可见线$普通线
100
AcDbVertex
100
AcDb2dVertex
 10
263.0800000000016
 20
1585.219478699586
 30
0.0
  0
VERTEX
  5
517
330
510
100
AcDbEntity
  8
Make2D$可见线$普通线
100
AcDbVertex
100
AcDb2dVertex
 10
264.0800000000016
 20
1585.219478699586
 30
0.0
  0
VERTEX
  5
518
330
510
100
AcDbEntity
  8
Make2D$可见线$普通线
100
AcDbVertex
100
AcDb2dVertex
 10
264.0800000000015
 20
1584.810875540103
 30
0.0
  0
VERTEX
  5
519
330
510
100
AcDbEntity
  8
Make2D$可见线$普通线
100
AcDbVertex
100
AcDb2dVertex
 10
266.0800000000016
 20
1584.810875540103
 30
0.0
  0
VERTEX
  5
51A
330
510
100
AcDbEntity
  8
Make2D$可见线$普通线
100
AcDbVertex
100
AcDb2dVertex
 10
266.0800000000016
 20
1584.541553341079
 30
0.0
  0
VERTEX
  5
51B
330
510
100
AcDbEntity
  8
Make2D$可见线$普通线
100
AcDbVertex
100
AcDb2dVertex
 10
264.0800000000016
 20
1584.541553341079
 30
0.0
  0
VERTEX
  5
51C
330
510
100
AcDbEntity
  8
Make2D$可见线$普通线
100
AcDbVertex
100
AcDb2dVertex
 10
264.0800000000016
 20
1583.865360920461
 30
0.0
  0
VERTEX
  5
51D
330
510
100
AcDbEntity
  8
Make2D$可见线$普通线
100
AcDbVertex
100
AcDb2dVertex
 10
263.0800000000016
 20
1583.86536092046
 30
0.0
  0
SEQEND
  5
51E
330
510
100
AcDbEntity
  8
Make2D$可见线$普通线
  0
POLYLINE
  5
51F
330
1F
100
AcDbEntity
  8
Make2D$可见线$普通线
100
AcDb2dPolyline
 66
     1
 10
0.0
 20
0.0
 30
0.0
  0
VERTEX
  5
520
330
51F
100
AcDbEntity
  8
Make2D$可见线$普通线
100
AcDbVertex
100
AcDb2dVertex
 10
263.2800000000016
 20
1584.598984625404
 30
0.0
  0
VERTEX
  5
521
330
51F
100
AcDbEntity
  8
Make2D$可见线$普通线
100
AcDbVertex
100
AcDb2dVertex
 10
261.2800000000016
 20
1584.598984625404
 30
0.0
  0
VERTEX
  5
522
330
51F
100
AcDbEntity
  8
Make2D$可见线$普通线
100
AcDbVertex
100
AcDb2dVertex
 10
261.2800000000016
 20
1584.760554146232
 30
0.0
  0
VERTEX
  5
523
330
51F
100
AcDbEntity
  8
Make2D$可见线$普通线
100
AcDbVertex
100
AcDb2dVertex
 10
263.2800000000016
 20
1584.760554146232
 30
0.0
  0
VERTEX
  5
524
330
51F
100
AcDbEntity
  8
Make2D$可见线$普通线
100
AcDbVertex
100
AcDb2dVertex
 10
263.2800000000016
 20
1585.186228222278
 30
0.0
  0
VERTEX
  5
525
330
51F
100
AcDbEntity
  8
Make2D$可见线$普通线
100
AcDbVertex
100
AcDb2dVertex
 10
263.8800000000016
 20
1585.186228222278
 30
0.0
  0
VERTEX
  5
526
330
51F
100
AcDbEntity
  8
Make2D$可见线$普通线
100
AcDbVertex
100
AcDb2dVertex
 10
263.8800000000016
 20
1584.760554146232
 30
0.0
  0
VERTEX
  5
527
330
51F
100
AcDbEntity
  8
Make2D$可见线$普通线
100
AcDbVertex
100
AcDb2dVertex
 10
265.8800000000016
 20
1584.760554146232
 30
0.0
  0
VERTEX
  5
528
330
51F
100
AcDbEntity
  8
Make2D$可见线$普通线
100
AcDbVertex
100
AcDb2dVertex
 10
265.8800000000016
 20
1584.598984625404
 30
0.0
  0
VERTEX
  5
529
330
51F
100
AcDbEntity
  8
Make2D$可见线$普通线
100
AcDbVertex
100
AcDb2dVertex
 10
263.8800000000016
 20
1584.598984625404
 30
0.0
  0
VERTEX
  5
52A
330
51F
100
AcDbEntity
  8
Make2D$可见线$普通线
100
AcDbVertex
100
AcDb2dVertex
 10
263.8800000000015
 20
1583.941553341079
 30
0.0
  0
VERTEX
  5
52B
330
51F
100
AcDbEntity
  8
Make2D$可见线$普通线
100
AcDbVertex
100
AcDb2dVertex
 10
263.2800000000015
 20
1583.941553341079
 30
0.0
  0
VERTEX
  5
52C
330
51F
100
AcDbEntity
  8
Make2D$可见线$普通线
100
AcDbVertex
100
AcDb2dVertex
 10
263.2800000000016
 20
1584.598984625404
 30
0.0
  0
SEQEND
  5
52D
330
51F
100
AcDbEntity
  8
Make2D$可见线$普通线
  0
ENDSEC
  0
SECTION
  2
OBJECTS
  0
DICTIONARY
  5
C
330
0
100
AcDbDictionary
281
     1
  3
ACAD_GROUP
350
D
  3
ACAD_LAYOUT
350
1A
  3
ACAD_MATERIAL
350
3B
  3
ACAD_MLEADERSTYLE
350
558
  3
ACAD_MLINESTYLE
350
17
  3
ACAD_PLOTSETTINGS
350
19
  3
ACAD_PLOTSTYLENAME
350
E
  3
ACAD_SCALELIST
350
3F
  3
ACAD_TABLESTYLE
350
557
  3
ACAD_VISUALSTYLE
350
2A
  3
AcDbVariableDictionary
350
52E
  0
DICTIONARY
  5
D
102
{ACAD_REACTORS
330
C
102
}
330
C
100
AcDbDictionary
281
     1
  0
DICTIONARY
  5
1A
102
{ACAD_REACTORS
330
C
102
}
330
C
100
AcDbDictionary
281
     1
  3
Layout1
350
1E
  3
Layout2
350
26
  3
Model
350
22
  0
DICTIONARY
  5
3B
102
{ACAD_REACTORS
330
C
102
}
330
C
100
AcDbDictionary
281
     1
  3
ByBlock
350
3D
  3
ByLayer
350
3C
  3
Global
350
3E
  0
DICTIONARY
  5
558
102
{ACAD_REACTORS
330
C
102
}
330
C
100
AcDbDictionary
281
     1
  0
DICTIONARY
  5
17
102
{ACAD_REACTORS
330
C
102
}
330
C
100
AcDbDictionary
281
     1
  3
Standard
350
18
  0
DICTIONARY
  5
19
102
{ACAD_REACTORS
330
C
102
}
330
C
100
AcDbDictionary
281
     1
  0
ACDBDICTIONARYWDFLT
  5
E
102
{ACAD_REACTORS
330
C
102
}
330
C
100
AcDbDictionary
281
     1
  3
Normal
350
F
100
AcDbDictionaryWithDefault
340
F
  0
DICTIONARY
  5
3F
102
{ACAD_REACTORS
330
C
102
}
330
C
100
AcDbDictionary
281
     1
  3
A0
350
40
  3
A1
350
41
  3
A2
350
42
  3
A3
350
43
  3
A4
350
44
  3
A5
350
45
  3
A6
350
46
  3
A7
350
47
  3
A8
350
48
  3
A9
350
49
  3
B0
350
4A
  3
B1
350
4B
  3
B2
350
4C
  3
B3
350
4D
  3
B4
350
4E
  3
B5
350
4F
  3
B6
350
50
  3
B7
350
51
  3
B8
350
52
  3
B9
350
53
  3
C0
350
54
  3
C1
350
55
  3
C2
350
56
  3
C3
350
57
  3
C4
350
58
  3
C5
350
59
  3
C6
350
5A
  3
C7
350
5B
  3
C8
350
5C
  3
C9
350
5D
  3
D0
350
5E
  3
D1
350
5F
  3
D2
350
60
  0
DICTIONARY
  5
557
102
{ACAD_REACTORS
330
C
102
}
330
C
100
AcDbDictionary
281
     1
  0
DICTIONARY
  5
2A
102
{ACAD_REACTORS
330
C
102
}
330
C
100
AcDbDictionary
281
     1
  3
2dWireframe
350
2F
  3
3D Hidden
350
31
  3
3dWireframe
350
30
  3
Basic
350
32
  3
Brighten
350
36
  3
ColorChange
350
3A
  3
Conceptual
350
34
  3
Dim
350
35
  3
Facepattern
350
39
  3
Flat
350
2B
  3
FlatWithEdges
350
2C
  3
Gouraud
350
2D
  3
GouraudWithEdges
350
2E
  3
Linepattern
350
38
  3
Realistic
350
33
  3
Thicken
350
37
  0
DICTIONARY
  5
52E
102
{ACAD_REACTORS
330
C
102
}
330
C
100
AcDbDictionary
281
     1
  3
CANNOSCALE
350
52F
  3
MSLTSCALE
350
530
  0
LAYOUT
  5
1E
102
{ACAD_REACTORS
330
1A
102
}
330
1A
100
AcDbPlotSettings
  1

  2
none_device
  4

  6

 40
0.0
 41
0.0
 42
0.0
 43
0.0
 44
0.0
 45
0.0
 46
0.0
 47
0.0
 48
0.0
 49
0.0
140
0.0
141
0.0
142
1.0
143
1.0
 70
   688
 72
     0
 73
     0
 74
     5
  7

 75
    16
 76
     0
 77
     2
 78
   300
147
1.0
148
0.0
149
0.0
100
AcDbLayout
  1
Layout1
 70
     1
 71
     1
 10
0.0
 20
0.0
 11
12.0
 21
9.0
 12
0.0
 22
0.0
 32
0.0
 14
1.000000000000000E+20
 24
1.000000000000000E+20
 34
1.000000000000000E+20
 15
-1.000000000000000E+20
 25
-1.000000000000000E+20
 35
-1.000000000000000E+20
146
0.0
 13
0.0
 23
0.0
 33
0.0
 16
1.0
 26
0.0
 36
0.0
 17
0.0
 27
1.0
 37
0.0
 76
     0
330
1B
  0
LAYOUT
  5
26
102
{ACAD_REACTORS
330
1A
102
}
330
1A
100
AcDbPlotSettings
  1

  2
none_device
  4

  6

 40
0.0
 41
0.0
 42
0.0
 43
0.0
 44
0.0
 45
0.0
 46
0.0
 47
0.0
 48
0.0
 49
0.0
140
0.0
141
0.0
142
1.0
143
1.0
 70
   688
 72
     0
 73
     0
 74
     5
  7

 75
    16
 76
     0
 77
     2
 78
   300
147
1.0
148
0.0
149
0.0
100
AcDbLayout
  1
Layout2
 70
     1
 71
     2
 10
0.0
 20
0.0
 11
0.0
 21
0.0
 12
0.0
 22
0.0
 32
0.0
 14
0.0
 24
0.0
 34
0.0
 15
0.0
 25
0.0
 35
0.0
146
0.0
 13
0.0
 23
0.0
 33
0.0
 16
1.0
 26
0.0
 36
0.0
 17
0.0
 27
1.0
 37
0.0
 76
     0
330
23
  0
LAYOUT
  5
22
102
{ACAD_REACTORS
330
1A
102
}
330
1A
100
AcDbPlotSettings
  1

  2
none_device
  4
Letter_(8.50_x_11.00_Inches)
  6

 40
6.35
 41
6.35
 42
6.35000508
 43
6.35000508
 44
215.9
 45
279.4
 46
0.0
 47
0.0
 48
0.0
 49
0.0
140
0.0
141
0.0
142
1.0
143
1.0
 70
  1712
 72
     0
 73
     0
 74
     0
  7

 75
     0
 76
     0
 77
     2
 78
   300
147
1.0
148
0.0
149
0.0
100
AcDbLayout
  1
Model
 70
     1
 71
     0
 10
0.0
 20
0.0
 11
12.0
 21
9.0
 12
0.0
 22
0.0
 32
0.0
 14
0.0000000000001055
 24
1520.291553374633
 34
0.0
 15
324.0300000000028
 25
1595.511555477046
 35
0.0
146
0.0
 13
0.0
 23
0.0
 33
0.0
 16
1.0
 26
0.0
 36
0.0
 17
0.0
 27
1.0
 37
0.0
 76
     0
330
1F
331
29
  0
MATERIAL
  5
3D
102
{ACAD_REACTORS
330
3B
102
}
102
{ACAD_XDICTIONARY
360
553
102
}
330
3B
100
AcDbMaterial
  1
ByBlock
  0
MATERIAL
  5
3C
102
{ACAD_REACTORS
330
3B
102
}
102
{ACAD_XDICTIONARY
360
551
102
}
330
3B
100
AcDbMaterial
  1
ByLayer
  0
MATERIAL
  5
3E
102
{ACAD_REACTORS
330
3B
102
}
102
{ACAD_XDICTIONARY
360
555
102
}
330
3B
100
AcDbMaterial
  1
Global
  0
MLINESTYLE
  5
18
102
{ACAD_REACTORS
330
17
102
}
330
17
100
AcDbMlineStyle
  2
Standard
 70
     0
  3

 62
   256
 51
90.0
 52
90.0
 71
     2
 49
0.5
 62
   256
  6
BYLAYER
 49
-0.5
 62
   256
  6
BYLAYER
  0
ACDBPLACEHOLDER
  5
F
102
{ACAD_REACTORS
330
E
102
}
330
E
  0
SCALE
  5
40
102
{ACAD_REACTORS
330
3F
102
}
330
3F
100
AcDbScale
 70
     0
300
1:1
140
1.0
141
1.0
290
     1
  0
SCALE
  5
41
102
{ACAD_REACTORS
330
3F
102
}
330
3F
100
AcDbScale
 70
     0
300
1:2
140
1.0
141
2.0
290
     0
  0
SCALE
  5
42
102
{ACAD_REACTORS
330
3F
102
}
330
3F
100
AcDbScale
 70
     0
300
1:4
140
1.0
141
4.0
290
     0
  0
SCALE
  5
43
102
{ACAD_REACTORS
330
3F
102
}
330
3F
100
AcDbScale
 70
     0
300
1:5
140
1.0
141
5.0
290
     0
  0
SCALE
  5
44
102
{ACAD_REACTORS
330
3F
102
}
330
3F
100
AcDbScale
 70
     0
300
1:8
140
1.0
141
8.0
290
     0
  0
SCALE
  5
45
102
{ACAD_REACTORS
330
3F
102
}
330
3F
100
AcDbScale
 70
     0
300
1:10
140
1.0
141
10.0
290
     0
  0
SCALE
  5
46
102
{ACAD_REACTORS
330
3F
102
}
330
3F
100
AcDbScale
 70
     0
300
1:16
140
1.0
141
16.0
290
     0
  0
SCALE
  5
47
102
{ACAD_REACTORS
330
3F
102
}
330
3F
100
AcDbScale
 70
     0
300
1:20
140
1.0
141
20.0
290
     0
  0
SCALE
  5
48
102
{ACAD_REACTORS
330
3F
102
}
330
3F
100
AcDbScale
 70
     0
300
1:30
140
1.0
141
30.0
290
     0
  0
SCALE
  5
49
102
{ACAD_REACTORS
330
3F
102
}
330
3F
100
AcDbScale
 70
     0
300
1:40
140
1.0
141
40.0
290
     0
  0
SCALE
  5
4A
102
{ACAD_REACTORS
330
3F
102
}
330
3F
100
AcDbScale
 70
     0
300
1:50
140
1.0
141
50.0
290
     0
  0
SCALE
  5
4B
102
{ACAD_REACTORS
330
3F
102
}
330
3F
100
AcDbScale
 70
     0
300
1:100
140
1.0
141
100.0
290
     0
  0
SCALE
  5
4C
102
{ACAD_REACTORS
330
3F
102
}
330
3F
100
AcDbScale
 70
     0
300
2:1
140
2.0
141
1.0
290
     0
  0
SCALE
  5
4D
102
{ACAD_REACTORS
330
3F
102
}
330
3F
100
AcDbScale
 70
     0
300
4:1
140
4.0
141
1.0
290
     0
  0
SCALE
  5
4E
102
{ACAD_REACTORS
330
3F
102
}
330
3F
100
AcDbScale
 70
     0
300
8:1
140
8.0
141
1.0
290
     0
  0
SCALE
  5
4F
102
{ACAD_REACTORS
330
3F
102
}
330
3F
100
AcDbScale
 70
     0
300
10:1
140
10.0
141
1.0
290
     0
  0
SCALE
  5
50
102
{ACAD_REACTORS
330
3F
102
}
330
3F
100
AcDbScale
 70
     0
300
100:1
140
100.0
141
1.0
290
     0
  0
SCALE
  5
51
102
{ACAD_REACTORS
330
3F
102
}
330
3F
100
AcDbScale
 70
     0
300
1/128" = 1'-0"
140
0.0078125
141
12.0
290
     0
  0
SCALE
  5
52
102
{ACAD_REACTORS
330
3F
102
}
330
3F
100
AcDbScale
 70
     0
300
1/64" = 1'-0"
140
0.015625
141
12.0
290
     0
  0
SCALE
  5
53
102
{ACAD_REACTORS
330
3F
102
}
330
3F
100
AcDbScale
 70
     0
300
1/32" = 1'-0"
140
0.03125
141
12.0
290
     0
  0
SCALE
  5
54
102
{ACAD_REACTORS
330
3F
102
}
330
3F
100
AcDbScale
 70
     0
300
1/16" = 1'-0"
140
0.0625
141
12.0
290
     0
  0
SCALE
  5
55
102
{ACAD_REACTORS
330
3F
102
}
330
3F
100
AcDbScale
 70
     0
300
3/32" = 1'-0"
140
0.09375
141
12.0
290
     0
  0
SCALE
  5
56
102
{ACAD_REACTORS
330
3F
102
}
330
3F
100
AcDbScale
 70
     0
300
1/8" = 1'-0"
140
0.125
141
12.0
290
     0
  0
SCALE
  5
57
102
{ACAD_REACTORS
330
3F
102
}
330
3F
100
AcDbScale
 70
     0
300
3/16" = 1'-0"
140
0.1875
141
12.0
290
     0
  0
SCALE
  5
58
102
{ACAD_REACTORS
330
3F
102
}
330
3F
100
AcDbScale
 70
     0
300
1/4" = 1'-0"
140
0.25
141
12.0
290
     0
  0
SCALE
  5
59
102
{ACAD_REACTORS
330
3F
102
}
330
3F
100
AcDbScale
 70
     0
300
3/8" = 1'-0"
140
0.375
141
12.0
290
     0
  0
SCALE
  5
5A
102
{ACAD_REACTORS
330
3F
102
}
330
3F
100
AcDbScale
 70
     0
300
1/2" = 1'-0"
140
0.5
141
12.0
290
     0
  0
SCALE
  5
5B
102
{ACAD_REACTORS
330
3F
102
}
330
3F
100
AcDbScale
 70
     0
300
3/4" = 1'-0"
140
0.75
141
12.0
290
     0
  0
SCALE
  5
5C
102
{ACAD_REACTORS
330
3F
102
}
330
3F
100
AcDbScale
 70
     0
300
1" = 1'-0"
140
1.0
141
12.0
290
     0
  0
SCALE
  5
5D
102
{ACAD_REACTORS
330
3F
102
}
330
3F
100
AcDbScale
 70
     0
300
1-1/2" = 1'-0"
140
1.5
141
12.0
290
     0
  0
SCALE
  5
5E
102
{ACAD_REACTORS
330
3F
102
}
330
3F
100
AcDbScale
 70
     0
300
3" = 1'-0"
140
3.0
141
12.0
290
     0
  0
SCALE
  5
5F
102
{ACAD_REACTORS
330
3F
102
}
330
3F
100
AcDbScale
 70
     0
300
6" = 1'-0"
140
6.0
141
12.0
290
     0
  0
SCALE
  5
60
102
{ACAD_REACTORS
330
3F
102
}
330
3F
100
AcDbScale
 70
     0
300
1'-0" = 1'-0"
140
12.0
141
12.0
290
     0
  0
VISUALSTYLE
  5
2F
102
{ACAD_REACTORS
330
2A
102
}
102
{ACAD_XDICTIONARY
360
539
102
}
330
2A
100
AcDbVisualStyle
  2
2dWireframe
 70
     4
 71
     0
 72
     2
 73
     0
 90
        0
 40
0.6
 41
30.0
 62
     5
 63
     7
421
 16777215
 74
     1
 91
        4
 64
     7
 65
   257
 75
     1
175
     1
 42
1.0
 92
        0
 66
   257
 43
1.0
 76
     1
 77
     6
 78
     2
 67
     7
 79
     5
170
     0
171
     0
290
     0
174
     0
 93
        1
 44
0.0
173
     0
291
     0
 45
0.0
1001
ACAD
1000
AcDbSavedByObjectVersion
1070
     0
  0
VISUALSTYLE
  5
31
102
{ACAD_REACTORS
330
2A
102
}
102
{ACAD_XDICTIONARY
360
53D
102
}
330
2A
100
AcDbVisualStyle
  2
3D Hidden
 70
     6
 71
     1
 72
     2
 73
     2
 90
        0
 40
0.6
 41
30.0
 62
     5
 63
     7
421
 16777215
 74
     2
 91
        2
 64
     7
 65
   257
 75
     2
175
     1
 42
40.0
 92
        0
 66
   257
 43
1.0
 76
     1
 77
     6
 78
     2
 67
     7
 79
     3
170
     0
171
     0
290
     0
174
     0
 93
        1
 44
0.0
173
     0
291
     0
 45
0.0
1001
ACAD
1000
AcDbSavedByObjectVersion
1070
     0
  0
VISUALSTYLE
  5
30
102
{ACAD_REACTORS
330
2A
102
}
102
{ACAD_XDICTIONARY
360
53B
102
}
330
2A
100
AcDbVisualStyle
  2
3dWireframe
 70
     5
 71
     0
 72
     2
 73
     0
 90
        0
 40
0.6
 41
30.0
 62
     5
 63
     7
421
 16777215
 74
     1
 91
        4
 64
     7
 65
   257
 75
     1
175
     1
 42
1.0
 92
        0
 66
   257
 43
1.0
 76
     1
 77
     6
 78
     2
 67
     7
 79
     5
170
     0
171
     0
290
     0
174
     0
 93
        1
 44
0.0
173
     0
291
     0
 45
0.0
1001
ACAD
1000
AcDbSavedByObjectVersion
1070
     0
  0
VISUALSTYLE
  5
32
102
{ACAD_REACTORS
330
2A
102
}
102
{ACAD_XDICTIONARY
360
53F
102
}
330
2A
100
AcDbVisualStyle
  2
Basic
 70
     7
 71
     1
 72
     0
 73
     1
 90
        0
 40
0.6
 41
30.0
 62
     5
 63
     7
421
 16777215
 74
     0
 91
        4
 64
     7
 65
   257
 75
     1
175
     1
 42
1.0
 92
        8
 66
     7
 43
1.0
 76
     1
 77
     6
 78
     2
 67
     7
 79
     5
170
     0
171
     0
290
     0
174
     0
 93
        1
 44
0.0
173
     0
291
     1
 45
0.0
1001
ACAD
1000
AcDbSavedByObjectVersion
1070
     0
  0
VISUALSTYLE
  5
36
102
{ACAD_REACTORS
330
2A
102
}
102
{ACAD_XDICTIONARY
360
547
102
}
330
2A
100
AcDbVisualStyle
  2
Brighten
 70
    12
 71
     2
 72
     2
 73
     0
 90
        0
 40
0.6
 41
30.0
 62
     5
 63
     7
421
 16777215
 74
     1
 91
        4
 64
     7
 65
   257
 75
     1
175
     1
 42
1.0
 92
        8
 66
     7
 43
1.0
 76
     1
 77
     6
 78
     2
 67
     7
 79
     5
170
     0
171
     0
290
     0
174
     0
 93
        1
 44
50.0
173
     0
291
     1
 45
0.0
1001
ACAD
1000
AcDbSavedByObjectVersion
1070
     0
  0
VISUALSTYLE
  5
3A
102
{ACAD_REACTORS
330
2A
102
}
102
{ACAD_XDICTIONARY
360
54F
102
}
330
2A
100
AcDbVisualStyle
  2
ColorChange
 70
    16
 71
     2
 72
     2
 73
     3
 90
        0
 40
0.6
 41
30.0
 62
     5
 63
     8
421
  8421504
 74
     1
 91
        4
 64
     7
 65
   257
 75
     1
175
     1
 42
1.0
 92
        8
 66
     8
424
  8421504
 43
1.0
 76
     1
 77
     6
 78
     2
 67
     7
 79
     5
170
     0
171
     0
290
     0
174
     0
 93
        1
 44
0.0
173
     0
291
     1
 45
0.0
1001
ACAD
1000
AcDbSavedByObjectVersion
1070
     0
  0
VISUALSTYLE
  5
34
102
{ACAD_REACTORS
330
2A
102
}
102
{ACAD_XDICTIONARY
360
543
102
}
330
2A
100
AcDbVisualStyle
  2
Conceptual
 70
     9
 71
     3
 72
     2
 73
     0
 90
        0
 40
0.6
 41
30.0
 62
     5
 63
     7
421
 16777215
 74
     2
 91
        2
 64
     7
 65
   257
 75
     1
175
     1
 42
40.0
 92
        8
 66
     7
 43
1.0
 76
     1
 77
     6
 78
     2
 67
     7
 79
     3
170
     0
171
     0
290
     0
174
     0
 93
        1
 44
0.0
173
     0
291
     0
 45
0.0
1001
ACAD
1000
AcDbSavedByObjectVersion
1070
     0
  0
VISUALSTYLE
  5
35
102
{ACAD_REACTORS
330
2A
102
}
102
{ACAD_XDICTIONARY
360
545
102
}
330
2A
100
AcDbVisualStyle
  2
Dim
 70
    11
 71
     2
 72
     2
 73
     0
 90
        0
 40
0.6
 41
30.0
 62
     5
 63
     7
421
 16777215
 74
     1
 91
        4
 64
     7
 65
   257
 75
     1
175
     1
 42
1.0
 92
        8
 66
     7
 43
1.0
 76
     1
 77
     6
 78
     2
 67
     7
 79
     5
170
     0
171
     0
290
     0
174
     0
 93
        1
 44
-50.0
173
     0
291
     1
 45
0.0
1001
ACAD
1000
AcDbSavedByObjectVersion
1070
     0
  0
VISUALSTYLE
  5
39
102
{ACAD_REACTORS
330
2A
102
}
102
{ACAD_XDICTIONARY
360
54D
102
}
330
2A
100
AcDbVisualStyle
  2
Facepattern
 70
    15
 71
     2
 72
     2
 73
     0
 90
        0
 40
0.6
 41
30.0
 62
     5
 63
     7
421
 16777215
 74
     1
 91
        4
 64
     7
 65
   257
 75
     1
175
     1
 42
1.0
 92
        8
 66
     7
 43
1.0
 76
     1
 77
     6
 78
     2
 67
     7
 79
     5
170
     0
171
     0
290
     0
174
     0
 93
        1
 44
0.0
173
     0
291
     1
 45
0.0
1001
ACAD
1000
AcDbSavedByObjectVersion
1070
     0
  0
VISUALSTYLE
  5
2B
102
{ACAD_REACTORS
330
2A
102
}
102
{ACAD_XDICTIONARY
360
531
102
}
330
2A
100
AcDbVisualStyle
  2
Flat
 70
     0
 71
     2
 72
     1
 73
     1
 90
        2
 40
0.6
 41
30.0
 62
     5
 63
     7
421
 16777215
 74
     0
 91
        4
 64
     7
 65
   257
 75
     1
175
     1
 42
1.0
 92
        8
 66
     7
 43
1.0
 76
     1
 77
     6
 78
     2
 67
     7
 79
     5
170
     0
171
     0
290
     0
174
     0
 93
       13
 44
0.0
173
     0
291
     1
 45
0.0
1001
ACAD
1000
AcDbSavedByObjectVersion
1070
     0
  0
VISUALSTYLE
  5
2C
102
{ACAD_REACTORS
330
2A
102
}
102
{ACAD_XDICTIONARY
360
533
102
}
330
2A
100
AcDbVisualStyle
  2
FlatWithEdges
 70
     1
 71
     2
 72
     1
 73
     1
 90
        2
 40
0.6
 41
30.0
 62
     5
 63
     7
421
 16777215
 74
     1
 91
        4
 64
     7
 65
   257
 75
     1
175
     1
 42
1.0
 92
        0
 66
   257
 43
1.0
 76
     1
 77
     6
 78
     2
 67
     7
 79
     5
170
     0
171
     0
290
     0
174
     0
 93
       13
 44
0.0
173
     0
291
     1
 45
0.0
1001
ACAD
1000
AcDbSavedByObjectVersion
1070
     0
  0
VISUALSTYLE
  5
2D
102
{ACAD_REACTORS
330
2A
102
}
102
{ACAD_XDICTIONARY
360
535
102
}
330
2A
100
AcDbVisualStyle
  2
Gouraud
 70
     2
 71
     2
 72
     2
 73
     1
 90
        2
 40
0.6
 41
30.0
 62
     5
 63
     7
421
 16777215
 74
     0
 91
        4
 64
     7
 65
   257
 75
     1
175
     1
 42
1.0
 92
        0
 66
     7
 43
1.0
 76
     1
 77
     6
 78
     2
 67
     7
 79
     5
170
     0
171
     0
290
     0
174
     0
 93
       13
 44
0.0
173
     0
291
     1
 45
0.0
1001
ACAD
1000
AcDbSavedByObjectVersion
1070
     0
  0
VISUALSTYLE
  5
2E
102
{ACAD_REACTORS
330
2A
102
}
102
{ACAD_XDICTIONARY
360
537
102
}
330
2A
100
AcDbVisualStyle
  2
GouraudWithEdges
 70
     3
 71
     2
 72
     2
 73
     1
 90
        2
 40
0.6
 41
30.0
 62
     5
 63
     7
421
 16777215
 74
     1
 91
        4
 64
     7
 65
   257
 75
     1
175
     1
 42
1.0
 92
        0
 66
   257
 43
1.0
 76
     1
 77
     6
 78
     2
 67
     7
 79
     5
170
     0
171
     0
290
     0
174
     0
 93
       13
 44
0.0
173
     0
291
     1
 45
0.0
1001
ACAD
1000
AcDbSavedByObjectVersion
1070
     0
  0
VISUALSTYLE
  5
38
102
{ACAD_REACTORS
330
2A
102
}
102
{ACAD_XDICTIONARY
360
54B
102
}
330
2A
100
AcDbVisualStyle
  2
Linepattern
 70
    14
 71
     2
 72
     2
 73
     0
 90
        0
 40
0.6
 41
30.0
 62
     5
 63
     7
421
 16777215
 74
     1
 91
        4
 64
     7
 65
   257
 75
     7
175
     7
 42
1.0
 92
        8
 66
     7
 43
1.0
 76
     1
 77
     6
 78
     2
 67
     7
 79
     5
170
     0
171
     0
290
     0
174
     0
 93
        1
 44
0.0
173
     0
291
     1
 45
0.0
1001
ACAD
1000
AcDbSavedByObjectVersion
1070
     0
  0
VISUALSTYLE
  5
33
102
{ACAD_REACTORS
330
2A
102
}
102
{ACAD_XDICTIONARY
360
541
102
}
330
2A
100
AcDbVisualStyle
  2
Realistic
 70
     8
 71
     2
 72
     3
 73
     0
 90
        2
 40
0.6
 41
30.0
 62
     5
 63
     7
421
 16777215
 74
     0
 91
        0
 64
     7
 65
   257
 75
     1
175
     1
 42
1.0
 92
        8
 66
   257
 43
1.0
 76
     1
 77
     6
 78
     2
 67
     7
 79
     3
170
     0
171
     0
290
     0
174
     0
 93
       13
 44
0.0
173
     0
291
     0
 45
0.0
1001
ACAD
1000
AcDbSavedByObjectVersion
1070
     0
  0
VISUALSTYLE
  5
37
102
{ACAD_REACTORS
330
2A
102
}
102
{ACAD_XDICTIONARY
360
549
102
}
330
2A
100
AcDbVisualStyle
  2
Thicken
 70
    13
 71
     2
 72
     2
 73
     0
 90
        0
 40
0.6
 41
30.0
 62
     5
 63
     7
421
 16777215
 74
     1
 91
        4
 64
     7
 65
   257
 75
     1
175
     1
 42
1.0
 92
       12
 66
     7
 43
1.0
 76
     1
 77
     6
 78
     2
 67
     7
 79
     5
170
     0
171
     0
290
     0
174
     0
 93
        1
 44
0.0
173
     0
291
     1
 45
0.0
1001
ACAD
1000
AcDbSavedByObjectVersion
1070
     0
  0
DICTIONARYVAR
  5
52F
102
{ACAD_REACTORS
330
52E
102
}
330
52E
100
DictionaryVariables
280
     0
  1
1:1
  0
DICTIONARYVAR
  5
530
102
{ACAD_REACTORS
330
52E
102
}
330
52E
100
DictionaryVariables
280
     0
  1
1
  0
DICTIONARY
  5
553
330
3D
100
AcDbDictionary
280
     1
281
     1
  3
ACAD_XREC_ROUNDTRIP
360
554
  0
DICTIONARY
  5
551
330
3C
100
AcDbDictionary
280
     1
281
     1
  3
ACAD_XREC_ROUNDTRIP
360
552
  0
DICTIONARY
  5
555
330
3E
100
AcDbDictionary
280
     1
281
     1
  3
ACAD_XREC_ROUNDTRIP
360
556
  0
DICTIONARY
  5
539
330
2F
100
AcDbDictionary
280
     1
281
     1
  3
ACAD_XREC_ROUNDTRIP
360
53A
  0
DICTIONARY
  5
53D
330
31
100
AcDbDictionary
280
     1
281
     1
  3
ACAD_XREC_ROUNDTRIP
360
53E
  0
DICTIONARY
  5
53B
330
30
100
AcDbDictionary
280
     1
281
     1
  3
ACAD_XREC_ROUNDTRIP
360
53C
  0
DICTIONARY
  5
53F
330
32
100
AcDbDictionary
280
     1
281
     1
  3
ACAD_XREC_ROUNDTRIP
360
540
  0
DICTIONARY
  5
547
330
36
100
AcDbDictionary
280
     1
281
     1
  3
ACAD_XREC_ROUNDTRIP
360
548
  0
DICTIONARY
  5
54F
330
3A
100
AcDbDictionary
280
     1
281
     1
  3
ACAD_XREC_ROUNDTRIP
360
550
  0
DICTIONARY
  5
543
330
34
100
AcDbDictionary
280
     1
281
     1
  3
ACAD_XREC_ROUNDTRIP
360
544
  0
DICTIONARY
  5
545
330
35
100
AcDbDictionary
280
     1
281
     1
  3
ACAD_XREC_ROUNDTRIP
360
546
  0
DICTIONARY
  5
54D
330
39
100
AcDbDictionary
280
     1
281
     1
  3
ACAD_XREC_ROUNDTRIP
360
54E
  0
DICTIONARY
  5
531
330
2B
100
AcDbDictionary
280
     1
281
     1
  3
ACAD_XREC_ROUNDTRIP
360
532
  0
DICTIONARY
  5
533
330
2C
100
AcDbDictionary
280
     1
281
     1
  3
ACAD_XREC_ROUNDTRIP
360
534
  0
DICTIONARY
  5
535
330
2D
100
AcDbDictionary
280
     1
281
     1
  3
ACAD_XREC_ROUNDTRIP
360
536
  0
DICTIONARY
  5
537
330
2E
100
AcDbDictionary
280
     1
281
     1
  3
ACAD_XREC_ROUNDTRIP
360
538
  0
DICTIONARY
  5
54B
330
38
100
AcDbDictionary
280
     1
281
     1
  3
ACAD_XREC_ROUNDTRIP
360
54C
  0
DICTIONARY
  5
541
330
33
100
AcDbDictionary
280
     1
281
     1
  3
ACAD_XREC_ROUNDTRIP
360
542
  0
DICTIONARY
  5
549
330
37
100
AcDbDictionary
280
     1
281
     1
  3
ACAD_XREC_ROUNDTRIP
360
54A
  0
XRECORD
  5
554
102
{ACAD_REACTORS
330
553
102
}
330
553
100
AcDbXrecord
280
     1
102
MATERIAL
148
0.0
149
0.0
149
0.0
 93
        0
 94
      127
282
     0
 72
     1
 77
     1
171
     1
175
     1
179
     1
273
     0
  0
XRECORD
  5
552
102
{ACAD_REACTORS
330
551
102
}
330
551
100
AcDbXrecord
280
     1
102
MATERIAL
148
0.0
149
0.0
149
0.0
 93
        0
 94
      127
282
     0
 72
     1
 77
     1
171
     1
175
     1
179
     1
273
     0
  0
XRECORD
  5
556
102
{ACAD_REACTORS
330
555
102
}
330
555
100
AcDbXrecord
280
     1
102
MATERIAL
148
0.0
149
0.0
149
0.0
 93
        0
 94
      127
282
     0
 72
     1
 77
     1
171
     1
175
     1
179
     1
273
     0
  0
XRECORD
  5
53A
102
{ACAD_REACTORS
330
539
102
}
330
539
100
AcDbXrecord
280
     1
102
RTVSPropertyOp0
 70
     1
102
RTVSPropertyOp1
 70
     1
102
RTVSPropertyOp2
 70
     1
102
RTVSPropertyOp3
 70
     1
102
RTVSPropertyOp4
 70
     1
102
RTVSPropertyOp5
 70
     1
102
RTVSPropertyOp6
 70
     1
102
RTVSPropertyOp7
 70
     1
102
RTVSPropertyOp8
 70
     1
102
RTVSPropertyOp9
 70
     1
102
RTVSPropertyOp10
 70
     1
102
RTVSPropertyOp11
 70
     1
102
RTVSPropertyOp12
 70
     1
102
RTVSPropertyOp13
 70
     1
102
RTVSPropertyOp14
 70
     1
102
RTVSPropertyOp15
 70
     1
102
RTVSPropertyOp16
 70
     1
102
RTVSPropertyOp17
 70
     1
102
RTVSPropertyOp18
 70
     1
102
RTVSPropertyOp19
 70
     1
102
RTVSPropertyOp20
 70
     1
102
RTVSPropertyOp21
 70
     1
102
RTVSPropertyOp22
 70
     1
102
RTVSPropertyOp23
 70
     1
102
RTVSPropertyOp24
 70
     1
102
RTVSPropertyOp25
 70
     1
102
RTVSPropertyOp26
 70
     1
102
RTVSPropertyOp27
 70
     1
102
RTVSPropertyOp28
 70
     1
102
RTVSPropertyOp29
 70
     1
102
RTVSPropertyOp30
 70
     1
102
RTVSPropertyOp31
 70
     1
102
RTVSPropertyOp32
 70
     1
102
RTVSPropertyOp33
 70
     1
102
RTVSPropertyOp34
 70
     1
102
RTVSPropertyOp35
 70
     1
102
RTVSPropertyOp36
 70
     1
102
RTVSPropertyOp37
 70
     1
102
RTVSPropertyOp38
 70
     1
102
RTVSPropertyOp39
 70
     1
102
RTVSPropertyOp40
 70
     1
102
RTVSPropertyOp41
 70
     1
102
RTVSPropertyOp42
 70
     1
102
RTVSPropertyOp43
 70
     1
102
RTVSPropertyOp44
 70
     1
102
RTVSPropertyOp45
 70
     1
102
RTVSPropertyOp46
 70
     1
102
RTVSPropertyOp47
 70
     1
102
RTVSPropertyOp48
 70
     1
102
RTVSPropertyOp49
 70
     1
102
RTVSPropertyOp50
 70
     1
102
RTVSPropertyOp51
 70
     0
102
RTVSPropertyOp52
 70
     0
102
RTVSPropertyOp53
 70
     1
102
RTVSPropertyOp54
 70
     1
102
RTVSPropertyOp55
 70
     1
102
RTVSPropertyOp56
 70
     1
102
RTVSPropertyOp57
 70
     1
102
RTVSPost2010Prop28
280
     1
102
RTVSPost2010PropOp28
 70
     1
102
RTVSPost2010Prop29
280
     1
102
RTVSPost2010PropOp29
 70
     1
102
RTVSPost2010Prop30
280
     0
102
RTVSPost2010PropOp30
 70
     1
102
RTVSPost2010Prop31
280
     0
102
RTVSPost2010PropOp31
 70
     1
102
RTVSPost2010Prop32
280
     0
102
RTVSPost2010PropOp32
 70
     1
102
RTVSPost2010Prop33
280
     0
102
RTVSPost2010PropOp33
 70
     1
102
RTVSPost2010Prop34
280
     0
102
RTVSPost2010PropOp34
 70
     1
102
RTVSPost2010Prop35
280
     0
102
RTVSPost2010PropOp35
 70
     1
102
RTVSPost2010Prop36
280
     0
102
RTVSPost2010PropOp36
 70
     1
102
RTVSPost2010Prop37
 90
       50
102
RTVSPost2010PropOp37
 70
     1
102
RTVSPost2010Prop38
140
0.0
102
RTVSPost2010PropOp38
 70
     1
102
RTVSPost2010Prop39
140
1.0
102
RTVSPost2010PropOp39
 70
     1
102
RTVSPost2010Prop40
 90
        0
102
RTVSPost2010PropOp40
 70
     1
102
RTVSPost2010Prop41ColorIndex
 90
       18
102
RTVSPost2010Prop41ColorRGB
 90
        0
102
RTVSPost2010PropOp41
 70
     1
102
RTVSPost2010Prop42
 90
       50
102
RTVSPost2010PropOp42
 70
     1
102
RTVSPost2010Prop43
 90
        3
102
RTVSPost2010PropOp43
 70
     1
102
RTVSPost2010Prop44ColorIndex
 90
        5
102
RTVSPost2010Prop44ColorRGB
 90
      255
102
RTVSPost2010PropOp44
 70
     1
102
RTVSPost2010Prop45
280
     0
102
RTVSPost2010PropOp45
 70
     1
102
RTVSPost2010Prop46
 90
       50
102
RTVSPost2010PropOp46
 70
     1
102
RTVSPost2010Prop47
 90
       50
102
RTVSPost2010PropOp47
 70
     1
102
RTVSPost2010Prop48
 90
       50
102
RTVSPost2010PropOp48
 70
     1
102
RTVSPost2010Prop49
280
     0
102
RTVSPost2010PropOp49
 70
     1
102
RTVSPost2010Prop50
 90
       50
102
RTVSPost2010PropOp50
 70
     1
102
RTVSPost2010Prop51ColorIndex
 90
      256
102
RTVSPost2010Prop51ColorRGB
 90
-16777216
102
RTVSPost2010PropOp51
 70
     0
102
RTVSPost2010Prop52
140
1.0
102
RTVSPost2010PropOp52
 70
     0
102
RTVSPost2010Prop53
 90
        2
102
RTVSPost2010PropOp53
 70
     1
102
RTVSPost2010Prop54
  1
strokes_ogs.tif
102
RTVSPost2010PropOp54
 70
     1
102
RTVSPost2010Prop55
280
     0
102
RTVSPost2010PropOp55
 70
     1
102
RTVSPost2010Prop56
140
1.0
102
RTVSPost2010PropOp56
 70
     1
102
RTVSPost2010Prop57
140
1.0
102
RTVSPost2010PropOp57
 70
     1
  0
XRECORD
  5
53E
102
{ACAD_REACTORS
330
53D
102
}
330
53D
100
AcDbXrecord
280
     1
102
RTVSPropertyOp0
 70
     1
102
RTVSPropertyOp1
 70
     1
102
RTVSPropertyOp2
 70
     1
102
RTVSPropertyOp3
 70
     1
102
RTVSPropertyOp4
 70
     1
102
RTVSPropertyOp5
 70
     1
102
RTVSPropertyOp6
 70
     1
102
RTVSPropertyOp7
 70
     1
102
RTVSPropertyOp8
 70
     1
102
RTVSPropertyOp9
 70
     1
102
RTVSPropertyOp10
 70
     1
102
RTVSPropertyOp11
 70
     1
102
RTVSPropertyOp12
 70
     1
102
RTVSPropertyOp13
 70
     1
102
RTVSPropertyOp14
 70
     1
102
RTVSPropertyOp15
 70
     1
102
RTVSPropertyOp16
 70
     1
102
RTVSPropertyOp17
 70
     1
102
RTVSPropertyOp18
 70
     1
102
RTVSPropertyOp19
 70
     1
102
RTVSPropertyOp20
 70
     1
102
RTVSPropertyOp21
 70
     1
102
RTVSPropertyOp22
 70
     1
102
RTVSPropertyOp23
 70
     1
102
RTVSPropertyOp24
 70
     1
102
RTVSPropertyOp25
 70
     1
102
RTVSPropertyOp26
 70
     1
102
RTVSPropertyOp27
 70
     1
102
RTVSPropertyOp28
 70
     1
102
RTVSPropertyOp29
 70
     1
102
RTVSPropertyOp30
 70
     1
102
RTVSPropertyOp31
 70
     1
102
RTVSPropertyOp32
 70
     1
102
RTVSPropertyOp33
 70
     1
102
RTVSPropertyOp34
 70
     1
102
RTVSPropertyOp35
 70
     1
102
RTVSPropertyOp36
 70
     1
102
RTVSPropertyOp37
 70
     1
102
RTVSPropertyOp38
 70
     1
102
RTVSPropertyOp39
 70
     1
102
RTVSPropertyOp40
 70
     1
102
RTVSPropertyOp41
 70
     1
102
RTVSPropertyOp42
 70
     1
102
RTVSPropertyOp43
 70
     1
102
RTVSPropertyOp44
 70
     1
102
RTVSPropertyOp45
 70
     1
102
RTVSPropertyOp46
 70
     1
102
RTVSPropertyOp47
 70
     1
102
RTVSPropertyOp48
 70
     1
102
RTVSPropertyOp49
 70
     1
102
RTVSPropertyOp50
 70
     1
102
RTVSPropertyOp51
 70
     0
102
RTVSPropertyOp52
 70
     0
102
RTVSPropertyOp53
 70
     1
102
RTVSPropertyOp54
 70
     1
102
RTVSPropertyOp55
 70
     1
102
RTVSPropertyOp56
 70
     1
102
RTVSPropertyOp57
 70
     1
102
RTVSPost2010Prop28
280
     0
102
RTVSPost2010PropOp28
 70
     1
102
RTVSPost2010Prop29
280
     1
102
RTVSPost2010PropOp29
 70
     1
102
RTVSPost2010Prop30
280
     1
102
RTVSPost2010PropOp30
 70
     1
102
RTVSPost2010Prop31
280
     0
102
RTVSPost2010PropOp31
 70
     1
102
RTVSPost2010Prop32
280
     0
102
RTVSPost2010PropOp32
 70
     1
102
RTVSPost2010Prop33
280
     0
102
RTVSPost2010PropOp33
 70
     1
102
RTVSPost2010Prop34
280
     0
102
RTVSPost2010PropOp34
 70
     1
102
RTVSPost2010Prop35
280
     0
102
RTVSPost2010PropOp35
 70
     1
102
RTVSPost2010Prop36
280
     0
102
RTVSPost2010PropOp36
 70
     1
102
RTVSPost2010Prop37
 90
       50
102
RTVSPost2010PropOp37
 70
     1
102
RTVSPost2010Prop38
140
0.0
102
RTVSPost2010PropOp38
 70
     1
102
RTVSPost2010Prop39
140
1.0
102
RTVSPost2010PropOp39
 70
     1
102
RTVSPost2010Prop40
 90
        0
102
RTVSPost2010PropOp40
 70
     1
102
RTVSPost2010Prop41ColorIndex
 90
       18
102
RTVSPost2010Prop41ColorRGB
 90
        0
102
RTVSPost2010PropOp41
 70
     1
102
RTVSPost2010Prop42
 90
       50
102
RTVSPost2010PropOp42
 70
     1
102
RTVSPost2010Prop43
 90
        3
102
RTVSPost2010PropOp43
 70
     1
102
RTVSPost2010Prop44ColorIndex
 90
        5
102
RTVSPost2010Prop44ColorRGB
 90
      255
102
RTVSPost2010PropOp44
 70
     1
102
RTVSPost2010Prop45
280
     0
102
RTVSPost2010PropOp45
 70
     1
102
RTVSPost2010Prop46
 90
       50
102
RTVSPost2010PropOp46
 70
     1
102
RTVSPost2010Prop47
 90
       50
102
RTVSPost2010PropOp47
 70
     1
102
RTVSPost2010Prop48
 90
       50
102
RTVSPost2010PropOp48
 70
     1
102
RTVSPost2010Prop49
280
     0
102
RTVSPost2010PropOp49
 70
     1
102
RTVSPost2010Prop50
 90
       50
102
RTVSPost2010PropOp50
 70
     1
102
RTVSPost2010Prop51ColorIndex
 90
      256
102
RTVSPost2010Prop51ColorRGB
 90
-16777216
102
RTVSPost2010PropOp51
 70
     0
102
RTVSPost2010Prop52
140
1.0
102
RTVSPost2010PropOp52
 70
     0
102
RTVSPost2010Prop53
 90
        2
102
RTVSPost2010PropOp53
 70
     1
102
RTVSPost2010Prop54
  1
strokes_ogs.tif
102
RTVSPost2010PropOp54
 70
     1
102
RTVSPost2010Prop55
280
     0
102
RTVSPost2010PropOp55
 70
     1
102
RTVSPost2010Prop56
140
1.0
102
RTVSPost2010PropOp56
 70
     1
102
RTVSPost2010Prop57
140
1.0
102
RTVSPost2010PropOp57
 70
     1
  0
XRECORD
  5
53C
102
{ACAD_REACTORS
330
53B
102
}
330
53B
100
AcDbXrecord
280
     1
102
RTVSPropertyOp0
 70
     1
102
RTVSPropertyOp1
 70
     1
102
RTVSPropertyOp2
 70
     1
102
RTVSPropertyOp3
 70
     1
102
RTVSPropertyOp4
 70
     1
102
RTVSPropertyOp5
 70
     1
102
RTVSPropertyOp6
 70
     1
102
RTVSPropertyOp7
 70
     1
102
RTVSPropertyOp8
 70
     1
102
RTVSPropertyOp9
 70
     1
102
RTVSPropertyOp10
 70
     1
102
RTVSPropertyOp11
 70
     1
102
RTVSPropertyOp12
 70
     1
102
RTVSPropertyOp13
 70
     1
102
RTVSPropertyOp14
 70
     1
102
RTVSPropertyOp15
 70
     1
102
RTVSPropertyOp16
 70
     1
102
RTVSPropertyOp17
 70
     1
102
RTVSPropertyOp18
 70
     1
102
RTVSPropertyOp19
 70
     1
102
RTVSPropertyOp20
 70
     1
102
RTVSPropertyOp21
 70
     1
102
RTVSPropertyOp22
 70
     1
102
RTVSPropertyOp23
 70
     1
102
RTVSPropertyOp24
 70
     1
102
RTVSPropertyOp25
 70
     1
102
RTVSPropertyOp26
 70
     1
102
RTVSPropertyOp27
 70
     1
102
RTVSPropertyOp28
 70
     1
102
RTVSPropertyOp29
 70
     1
102
RTVSPropertyOp30
 70
     1
102
RTVSPropertyOp31
 70
     1
102
RTVSPropertyOp32
 70
     1
102
RTVSPropertyOp33
 70
     1
102
RTVSPropertyOp34
 70
     1
102
RTVSPropertyOp35
 70
     1
102
RTVSPropertyOp36
 70
     1
102
RTVSPropertyOp37
 70
     1
102
RTVSPropertyOp38
 70
     1
102
RTVSPropertyOp39
 70
     1
102
RTVSPropertyOp40
 70
     1
102
RTVSPropertyOp41
 70
     1
102
RTVSPropertyOp42
 70
     1
102
RTVSPropertyOp43
 70
     1
102
RTVSPropertyOp44
 70
     1
102
RTVSPropertyOp45
 70
     1
102
RTVSPropertyOp46
 70
     1
102
RTVSPropertyOp47
 70
     1
102
RTVSPropertyOp48
 70
     1
102
RTVSPropertyOp49
 70
     1
102
RTVSPropertyOp50
 70
     1
102
RTVSPropertyOp51
 70
     0
102
RTVSPropertyOp52
 70
     0
102
RTVSPropertyOp53
 70
     1
102
RTVSPropertyOp54
 70
     1
102
RTVSPropertyOp55
 70
     1
102
RTVSPropertyOp56
 70
     1
102
RTVSPropertyOp57
 70
     1
102
RTVSPost2010Prop28
280
     0
102
RTVSPost2010PropOp28
 70
     1
102
RTVSPost2010Prop29
280
     1
102
RTVSPost2010PropOp29
 70
     1
102
RTVSPost2010Prop30
280
     1
102
RTVSPost2010PropOp30
 70
     1
102
RTVSPost2010Prop31
280
     0
102
RTVSPost2010PropOp31
 70
     1
102
RTVSPost2010Prop32
280
     0
102
RTVSPost2010PropOp32
 70
     1
102
RTVSPost2010Prop33
280
     0
102
RTVSPost2010PropOp33
 70
     1
102
RTVSPost2010Prop34
280
     0
102
RTVSPost2010PropOp34
 70
     1
102
RTVSPost2010Prop35
280
     0
102
RTVSPost2010PropOp35
 70
     1
102
RTVSPost2010Prop36
280
     0
102
RTVSPost2010PropOp36
 70
     1
102
RTVSPost2010Prop37
 90
       50
102
RTVSPost2010PropOp37
 70
     1
102
RTVSPost2010Prop38
140
0.0
102
RTVSPost2010PropOp38
 70
     1
102
RTVSPost2010Prop39
140
1.0
102
RTVSPost2010PropOp39
 70
     1
102
RTVSPost2010Prop40
 90
        0
102
RTVSPost2010PropOp40
 70
     1
102
RTVSPost2010Prop41ColorIndex
 90
       18
102
RTVSPost2010Prop41ColorRGB
 90
        0
102
RTVSPost2010PropOp41
 70
     1
102
RTVSPost2010Prop42
 90
       50
102
RTVSPost2010PropOp42
 70
     1
102
RTVSPost2010Prop43
 90
        3
102
RTVSPost2010PropOp43
 70
     1
102
RTVSPost2010Prop44ColorIndex
 90
        5
102
RTVSPost2010Prop44ColorRGB
 90
      255
102
RTVSPost2010PropOp44
 70
     1
102
RTVSPost2010Prop45
280
     0
102
RTVSPost2010PropOp45
 70
     1
102
RTVSPost2010Prop46
 90
       50
102
RTVSPost2010PropOp46
 70
     1
102
RTVSPost2010Prop47
 90
       50
102
RTVSPost2010PropOp47
 70
     1
102
RTVSPost2010Prop48
 90
       50
102
RTVSPost2010PropOp48
 70
     1
102
RTVSPost2010Prop49
280
     0
102
RTVSPost2010PropOp49
 70
     1
102
RTVSPost2010Prop50
 90
       50
102
RTVSPost2010PropOp50
 70
     1
102
RTVSPost2010Prop51ColorIndex
 90
      256
102
RTVSPost2010Prop51ColorRGB
 90
-16777216
102
RTVSPost2010PropOp51
 70
     0
102
RTVSPost2010Prop52
140
1.0
102
RTVSPost2010PropOp52
 70
     0
102
RTVSPost2010Prop53
 90
        2
102
RTVSPost2010PropOp53
 70
     1
102
RTVSPost2010Prop54
  1
strokes_ogs.tif
102
RTVSPost2010PropOp54
 70
     1
102
RTVSPost2010Prop55
280
     0
102
RTVSPost2010PropOp55
 70
     1
102
RTVSPost2010Prop56
140
1.0
102
RTVSPost2010PropOp56
 70
     1
102
RTVSPost2010Prop57
140
1.0
102
RTVSPost2010PropOp57
 70
     1
  0
XRECORD
  5
540
102
{ACAD_REACTORS
330
53F
102
}
330
53F
100
AcDbXrecord
280
     1
102
RTVSPropertyOp0
 70
     1
102
RTVSPropertyOp1
 70
     1
102
RTVSPropertyOp2
 70
     1
102
RTVSPropertyOp3
 70
     1
102
RTVSPropertyOp4
 70
     1
102
RTVSPropertyOp5
 70
     1
102
RTVSPropertyOp6
 70
     1
102
RTVSPropertyOp7
 70
     1
102
RTVSPropertyOp8
 70
     1
102
RTVSPropertyOp9
 70
     1
102
RTVSPropertyOp10
 70
     1
102
RTVSPropertyOp11
 70
     1
102
RTVSPropertyOp12
 70
     1
102
RTVSPropertyOp13
 70
     1
102
RTVSPropertyOp14
 70
     1
102
RTVSPropertyOp15
 70
     1
102
RTVSPropertyOp16
 70
     1
102
RTVSPropertyOp17
 70
     1
102
RTVSPropertyOp18
 70
     1
102
RTVSPropertyOp19
 70
     1
102
RTVSPropertyOp20
 70
     1
102
RTVSPropertyOp21
 70
     1
102
RTVSPropertyOp22
 70
     1
102
RTVSPropertyOp23
 70
     1
102
RTVSPropertyOp24
 70
     1
102
RTVSPropertyOp25
 70
     1
102
RTVSPropertyOp26
 70
     1
102
RTVSPropertyOp27
 70
     1
102
RTVSPropertyOp28
 70
     1
102
RTVSPropertyOp29
 70
     1
102
RTVSPropertyOp30
 70
     1
102
RTVSPropertyOp31
 70
     1
102
RTVSPropertyOp32
 70
     1
102
RTVSPropertyOp33
 70
     1
102
RTVSPropertyOp34
 70
     1
102
RTVSPropertyOp35
 70
     1
102
RTVSPropertyOp36
 70
     1
102
RTVSPropertyOp37
 70
     1
102
RTVSPropertyOp38
 70
     1
102
RTVSPropertyOp39
 70
     1
102
RTVSPropertyOp40
 70
     1
102
RTVSPropertyOp41
 70
     1
102
RTVSPropertyOp42
 70
     1
102
RTVSPropertyOp43
 70
     1
102
RTVSPropertyOp44
 70
     1
102
RTVSPropertyOp45
 70
     1
102
RTVSPropertyOp46
 70
     1
102
RTVSPropertyOp47
 70
     1
102
RTVSPropertyOp48
 70
     1
102
RTVSPropertyOp49
 70
     1
102
RTVSPropertyOp50
 70
     1
102
RTVSPropertyOp51
 70
     0
102
RTVSPropertyOp52
 70
     0
102
RTVSPropertyOp53
 70
     1
102
RTVSPropertyOp54
 70
     1
102
RTVSPropertyOp55
 70
     1
102
RTVSPropertyOp56
 70
     1
102
RTVSPropertyOp57
 70
     1
102
RTVSPost2010Prop28
280
     0
102
RTVSPost2010PropOp28
 70
     1
102
RTVSPost2010Prop29
280
     1
102
RTVSPost2010PropOp29
 70
     1
102
RTVSPost2010Prop30
280
     1
102
RTVSPost2010PropOp30
 70
     1
102
RTVSPost2010Prop31
280
     0
102
RTVSPost2010PropOp31
 70
     1
102
RTVSPost2010Prop32
280
     0
102
RTVSPost2010PropOp32
 70
     1
102
RTVSPost2010Prop33
280
     0
102
RTVSPost2010PropOp33
 70
     1
102
RTVSPost2010Prop34
280
     0
102
RTVSPost2010PropOp34
 70
     1
102
RTVSPost2010Prop35
280
     0
102
RTVSPost2010PropOp35
 70
     1
102
RTVSPost2010Prop36
280
     0
102
RTVSPost2010PropOp36
 70
     1
102
RTVSPost2010Prop37
 90
       50
102
RTVSPost2010PropOp37
 70
     1
102
RTVSPost2010Prop38
140
0.0
102
RTVSPost2010PropOp38
 70
     1
102
RTVSPost2010Prop39
140
1.0
102
RTVSPost2010PropOp39
 70
     1
102
RTVSPost2010Prop40
 90
        0
102
RTVSPost2010PropOp40
 70
     1
102
RTVSPost2010Prop41ColorIndex
 90
       18
102
RTVSPost2010Prop41ColorRGB
 90
        0
102
RTVSPost2010PropOp41
 70
     1
102
RTVSPost2010Prop42
 90
       50
102
RTVSPost2010PropOp42
 70
     1
102
RTVSPost2010Prop43
 90
        3
102
RTVSPost2010PropOp43
 70
     1
102
RTVSPost2010Prop44ColorIndex
 90
        5
102
RTVSPost2010Prop44ColorRGB
 90
      255
102
RTVSPost2010PropOp44
 70
     1
102
RTVSPost2010Prop45
280
     0
102
RTVSPost2010PropOp45
 70
     1
102
RTVSPost2010Prop46
 90
       50
102
RTVSPost2010PropOp46
 70
     1
102
RTVSPost2010Prop47
 90
       50
102
RTVSPost2010PropOp47
 70
     1
102
RTVSPost2010Prop48
 90
       50
102
RTVSPost2010PropOp48
 70
     1
102
RTVSPost2010Prop49
280
     0
102
RTVSPost2010PropOp49
 70
     1
102
RTVSPost2010Prop50
 90
       50
102
RTVSPost2010PropOp50
 70
     1
102
RTVSPost2010Prop51ColorIndex
 90
      256
102
RTVSPost2010Prop51ColorRGB
 90
-16777216
102
RTVSPost2010PropOp51
 70
     0
102
RTVSPost2010Prop52
140
1.0
102
RTVSPost2010PropOp52
 70
     0
102
RTVSPost2010Prop53
 90
        2
102
RTVSPost2010PropOp53
 70
     1
102
RTVSPost2010Prop54
  1
strokes_ogs.tif
102
RTVSPost2010PropOp54
 70
     1
102
RTVSPost2010Prop55
280
     0
102
RTVSPost2010PropOp55
 70
     1
102
RTVSPost2010Prop56
140
1.0
102
RTVSPost2010PropOp56
 70
     1
102
RTVSPost2010Prop57
140
1.0
102
RTVSPost2010PropOp57
 70
     1
  0
XRECORD
  5
548
102
{ACAD_REACTORS
330
547
102
}
330
547
100
AcDbXrecord
280
     1
102
RTVSPropertyOp0
 70
     1
102
RTVSPropertyOp1
 70
     1
102
RTVSPropertyOp2
 70
     1
102
RTVSPropertyOp3
 70
     1
102
RTVSPropertyOp4
 70
     1
102
RTVSPropertyOp5
 70
     1
102
RTVSPropertyOp6
 70
     1
102
RTVSPropertyOp7
 70
     1
102
RTVSPropertyOp8
 70
     1
102
RTVSPropertyOp9
 70
     1
102
RTVSPropertyOp10
 70
     1
102
RTVSPropertyOp11
 70
     1
102
RTVSPropertyOp12
 70
     1
102
RTVSPropertyOp13
 70
     1
102
RTVSPropertyOp14
 70
     1
102
RTVSPropertyOp15
 70
     1
102
RTVSPropertyOp16
 70
     1
102
RTVSPropertyOp17
 70
     1
102
RTVSPropertyOp18
 70
     1
102
RTVSPropertyOp19
 70
     1
102
RTVSPropertyOp20
 70
     1
102
RTVSPropertyOp21
 70
     1
102
RTVSPropertyOp22
 70
     1
102
RTVSPropertyOp23
 70
     1
102
RTVSPropertyOp24
 70
     1
102
RTVSPropertyOp25
 70
     1
102
RTVSPropertyOp26
 70
     1
102
RTVSPropertyOp27
 70
     1
102
RTVSPropertyOp28
 70
     1
102
RTVSPropertyOp29
 70
     1
102
RTVSPropertyOp30
 70
     1
102
RTVSPropertyOp31
 70
     1
102
RTVSPropertyOp32
 70
     1
102
RTVSPropertyOp33
 70
     1
102
RTVSPropertyOp34
 70
     1
102
RTVSPropertyOp35
 70
     1
102
RTVSPropertyOp36
 70
     1
102
RTVSPropertyOp37
 70
     1
102
RTVSPropertyOp38
 70
     1
102
RTVSPropertyOp39
 70
     1
102
RTVSPropertyOp40
 70
     1
102
RTVSPropertyOp41
 70
     1
102
RTVSPropertyOp42
 70
     1
102
RTVSPropertyOp43
 70
     1
102
RTVSPropertyOp44
 70
     1
102
RTVSPropertyOp45
 70
     1
102
RTVSPropertyOp46
 70
     1
102
RTVSPropertyOp47
 70
     1
102
RTVSPropertyOp48
 70
     1
102
RTVSPropertyOp49
 70
     1
102
RTVSPropertyOp50
 70
     1
102
RTVSPropertyOp51
 70
     0
102
RTVSPropertyOp52
 70
     0
102
RTVSPropertyOp53
 70
     1
102
RTVSPropertyOp54
 70
     1
102
RTVSPropertyOp55
 70
     1
102
RTVSPropertyOp56
 70
     1
102
RTVSPropertyOp57
 70
     1
102
RTVSPost2010Prop28
280
     0
102
RTVSPost2010PropOp28
 70
     1
102
RTVSPost2010Prop29
280
     1
102
RTVSPost2010PropOp29
 70
     1
102
RTVSPost2010Prop30
280
     1
102
RTVSPost2010PropOp30
 70
     1
102
RTVSPost2010Prop31
280
     0
102
RTVSPost2010PropOp31
 70
     1
102
RTVSPost2010Prop32
280
     0
102
RTVSPost2010PropOp32
 70
     1
102
RTVSPost2010Prop33
280
     0
102
RTVSPost2010PropOp33
 70
     1
102
RTVSPost2010Prop34
280
     0
102
RTVSPost2010PropOp34
 70
     1
102
RTVSPost2010Prop35
280
     0
102
RTVSPost2010PropOp35
 70
     1
102
RTVSPost2010Prop36
280
     0
102
RTVSPost2010PropOp36
 70
     1
102
RTVSPost2010Prop37
 90
       50
102
RTVSPost2010PropOp37
 70
     1
102
RTVSPost2010Prop38
140
0.0
102
RTVSPost2010PropOp38
 70
     1
102
RTVSPost2010Prop39
140
1.0
102
RTVSPost2010PropOp39
 70
     1
102
RTVSPost2010Prop40
 90
        0
102
RTVSPost2010PropOp40
 70
     1
102
RTVSPost2010Prop41ColorIndex
 90
       18
102
RTVSPost2010Prop41ColorRGB
 90
        0
102
RTVSPost2010PropOp41
 70
     1
102
RTVSPost2010Prop42
 90
       50
102
RTVSPost2010PropOp42
 70
     1
102
RTVSPost2010Prop43
 90
        3
102
RTVSPost2010PropOp43
 70
     1
102
RTVSPost2010Prop44ColorIndex
 90
        5
102
RTVSPost2010Prop44ColorRGB
 90
      255
102
RTVSPost2010PropOp44
 70
     1
102
RTVSPost2010Prop45
280
     0
102
RTVSPost2010PropOp45
 70
     1
102
RTVSPost2010Prop46
 90
       50
102
RTVSPost2010PropOp46
 70
     1
102
RTVSPost2010Prop47
 90
       50
102
RTVSPost2010PropOp47
 70
     1
102
RTVSPost2010Prop48
 90
       50
102
RTVSPost2010PropOp48
 70
     1
102
RTVSPost2010Prop49
280
     0
102
RTVSPost2010PropOp49
 70
     1
102
RTVSPost2010Prop50
 90
       50
102
RTVSPost2010PropOp50
 70
     1
102
RTVSPost2010Prop51ColorIndex
 90
      256
102
RTVSPost2010Prop51ColorRGB
 90
-16777216
102
RTVSPost2010PropOp51
 70
     0
102
RTVSPost2010Prop52
140
1.0
102
RTVSPost2010PropOp52
 70
     0
102
RTVSPost2010Prop53
 90
        2
102
RTVSPost2010PropOp53
 70
     1
102
RTVSPost2010Prop54
  1
strokes_ogs.tif
102
RTVSPost2010PropOp54
 70
     1
102
RTVSPost2010Prop55
280
     0
102
RTVSPost2010PropOp55
 70
     1
102
RTVSPost2010Prop56
140
1.0
102
RTVSPost2010PropOp56
 70
     1
102
RTVSPost2010Prop57
140
1.0
102
RTVSPost2010PropOp57
 70
     1
  0
XRECORD
  5
550
102
{ACAD_REACTORS
330
54F
102
}
330
54F
100
AcDbXrecord
280
     1
102
RTVSPropertyOp0
 70
     1
102
RTVSPropertyOp1
 70
     1
102
RTVSPropertyOp2
 70
     1
102
RTVSPropertyOp3
 70
     1
102
RTVSPropertyOp4
 70
     1
102
RTVSPropertyOp5
 70
     1
102
RTVSPropertyOp6
 70
     1
102
RTVSPropertyOp7
 70
     1
102
RTVSPropertyOp8
 70
     1
102
RTVSPropertyOp9
 70
     1
102
RTVSPropertyOp10
 70
     1
102
RTVSPropertyOp11
 70
     1
102
RTVSPropertyOp12
 70
     1
102
RTVSPropertyOp13
 70
     1
102
RTVSPropertyOp14
 70
     1
102
RTVSPropertyOp15
 70
     1
102
RTVSPropertyOp16
 70
     1
102
RTVSPropertyOp17
 70
     1
102
RTVSPropertyOp18
 70
     1
102
RTVSPropertyOp19
 70
     1
102
RTVSPropertyOp20
 70
     1
102
RTVSPropertyOp21
 70
     1
102
RTVSPropertyOp22
 70
     1
102
RTVSPropertyOp23
 70
     1
102
RTVSPropertyOp24
 70
     1
102
RTVSPropertyOp25
 70
     1
102
RTVSPropertyOp26
 70
     1
102
RTVSPropertyOp27
 70
     1
102
RTVSPropertyOp28
 70
     1
102
RTVSPropertyOp29
 70
     1
102
RTVSPropertyOp30
 70
     1
102
RTVSPropertyOp31
 70
     1
102
RTVSPropertyOp32
 70
     1
102
RTVSPropertyOp33
 70
     1
102
RTVSPropertyOp34
 70
     1
102
RTVSPropertyOp35
 70
     1
102
RTVSPropertyOp36
 70
     1
102
RTVSPropertyOp37
 70
     1
102
RTVSPropertyOp38
 70
     1
102
RTVSPropertyOp39
 70
     1
102
RTVSPropertyOp40
 70
     1
102
RTVSPropertyOp41
 70
     1
102
RTVSPropertyOp42
 70
     1
102
RTVSPropertyOp43
 70
     1
102
RTVSPropertyOp44
 70
     1
102
RTVSPropertyOp45
 70
     1
102
RTVSPropertyOp46
 70
     1
102
RTVSPropertyOp47
 70
     1
102
RTVSPropertyOp48
 70
     1
102
RTVSPropertyOp49
 70
     1
102
RTVSPropertyOp50
 70
     1
102
RTVSPropertyOp51
 70
     0
102
RTVSPropertyOp52
 70
     0
102
RTVSPropertyOp53
 70
     1
102
RTVSPropertyOp54
 70
     1
102
RTVSPropertyOp55
 70
     1
102
RTVSPropertyOp56
 70
     1
102
RTVSPropertyOp57
 70
     1
102
RTVSPost2010Prop28
280
     0
102
RTVSPost2010PropOp28
 70
     1
102
RTVSPost2010Prop29
280
     1
102
RTVSPost2010PropOp29
 70
     1
102
RTVSPost2010Prop30
280
     1
102
RTVSPost2010PropOp30
 70
     1
102
RTVSPost2010Prop31
280
     0
102
RTVSPost2010PropOp31
 70
     1
102
RTVSPost2010Prop32
280
     0
102
RTVSPost2010PropOp32
 70
     1
102
RTVSPost2010Prop33
280
     0
102
RTVSPost2010PropOp33
 70
     1
102
RTVSPost2010Prop34
280
     0
102
RTVSPost2010PropOp34
 70
     1
102
RTVSPost2010Prop35
280
     0
102
RTVSPost2010PropOp35
 70
     1
102
RTVSPost2010Prop36
280
     0
102
RTVSPost2010PropOp36
 70
     1
102
RTVSPost2010Prop37
 90
       50
102
RTVSPost2010PropOp37
 70
     1
102
RTVSPost2010Prop38
140
0.0
102
RTVSPost2010PropOp38
 70
     1
102
RTVSPost2010Prop39
140
1.0
102
RTVSPost2010PropOp39
 70
     1
102
RTVSPost2010Prop40
 90
        0
102
RTVSPost2010PropOp40
 70
     1
102
RTVSPost2010Prop41ColorIndex
 90
       18
102
RTVSPost2010Prop41ColorRGB
 90
        0
102
RTVSPost2010PropOp41
 70
     1
102
RTVSPost2010Prop42
 90
       50
102
RTVSPost2010PropOp42
 70
     1
102
RTVSPost2010Prop43
 90
        3
102
RTVSPost2010PropOp43
 70
     1
102
RTVSPost2010Prop44ColorIndex
 90
        5
102
RTVSPost2010Prop44ColorRGB
 90
      255
102
RTVSPost2010PropOp44
 70
     1
102
RTVSPost2010Prop45
280
     0
102
RTVSPost2010PropOp45
 70
     1
102
RTVSPost2010Prop46
 90
       50
102
RTVSPost2010PropOp46
 70
     1
102
RTVSPost2010Prop47
 90
       50
102
RTVSPost2010PropOp47
 70
     1
102
RTVSPost2010Prop48
 90
       50
102
RTVSPost2010PropOp48
 70
     1
102
RTVSPost2010Prop49
280
     0
102
RTVSPost2010PropOp49
 70
     1
102
RTVSPost2010Prop50
 90
       50
102
RTVSPost2010PropOp50
 70
     1
102
RTVSPost2010Prop51ColorIndex
 90
      256
102
RTVSPost2010Prop51ColorRGB
 90
-16777216
102
RTVSPost2010PropOp51
 70
     0
102
RTVSPost2010Prop52
140
1.0
102
RTVSPost2010PropOp52
 70
     0
102
RTVSPost2010Prop53
 90
        2
102
RTVSPost2010PropOp53
 70
     1
102
RTVSPost2010Prop54
  1
strokes_ogs.tif
102
RTVSPost2010PropOp54
 70
     1
102
RTVSPost2010Prop55
280
     0
102
RTVSPost2010PropOp55
 70
     1
102
RTVSPost2010Prop56
140
1.0
102
RTVSPost2010PropOp56
 70
     1
102
RTVSPost2010Prop57
140
1.0
102
RTVSPost2010PropOp57
 70
     1
  0
XRECORD
  5
544
102
{ACAD_REACTORS
330
543
102
}
330
543
100
AcDbXrecord
280
     1
102
RTVSPropertyOp0
 70
     1
102
RTVSPropertyOp1
 70
     1
102
RTVSPropertyOp2
 70
     1
102
RTVSPropertyOp3
 70
     1
102
RTVSPropertyOp4
 70
     1
102
RTVSPropertyOp5
 70
     1
102
RTVSPropertyOp6
 70
     1
102
RTVSPropertyOp7
 70
     1
102
RTVSPropertyOp8
 70
     1
102
RTVSPropertyOp9
 70
     1
102
RTVSPropertyOp10
 70
     1
102
RTVSPropertyOp11
 70
     1
102
RTVSPropertyOp12
 70
     1
102
RTVSPropertyOp13
 70
     1
102
RTVSPropertyOp14
 70
     1
102
RTVSPropertyOp15
 70
     1
102
RTVSPropertyOp16
 70
     1
102
RTVSPropertyOp17
 70
     1
102
RTVSPropertyOp18
 70
     1
102
RTVSPropertyOp19
 70
     1
102
RTVSPropertyOp20
 70
     1
102
RTVSPropertyOp21
 70
     1
102
RTVSPropertyOp22
 70
     1
102
RTVSPropertyOp23
 70
     1
102
RTVSPropertyOp24
 70
     1
102
RTVSPropertyOp25
 70
     1
102
RTVSPropertyOp26
 70
     1
102
RTVSPropertyOp27
 70
     1
102
RTVSPropertyOp28
 70
     1
102
RTVSPropertyOp29
 70
     1
102
RTVSPropertyOp30
 70
     1
102
RTVSPropertyOp31
 70
     1
102
RTVSPropertyOp32
 70
     1
102
RTVSPropertyOp33
 70
     1
102
RTVSPropertyOp34
 70
     1
102
RTVSPropertyOp35
 70
     1
102
RTVSPropertyOp36
 70
     1
102
RTVSPropertyOp37
 70
     1
102
RTVSPropertyOp38
 70
     1
102
RTVSPropertyOp39
 70
     1
102
RTVSPropertyOp40
 70
     1
102
RTVSPropertyOp41
 70
     1
102
RTVSPropertyOp42
 70
     1
102
RTVSPropertyOp43
 70
     1
102
RTVSPropertyOp44
 70
     1
102
RTVSPropertyOp45
 70
     1
102
RTVSPropertyOp46
 70
     1
102
RTVSPropertyOp47
 70
     1
102
RTVSPropertyOp48
 70
     1
102
RTVSPropertyOp49
 70
     1
102
RTVSPropertyOp50
 70
     1
102
RTVSPropertyOp51
 70
     0
102
RTVSPropertyOp52
 70
     0
102
RTVSPropertyOp53
 70
     1
102
RTVSPropertyOp54
 70
     1
102
RTVSPropertyOp55
 70
     1
102
RTVSPropertyOp56
 70
     1
102
RTVSPropertyOp57
 70
     1
102
RTVSPost2010Prop28
280
     0
102
RTVSPost2010PropOp28
 70
     1
102
RTVSPost2010Prop29
280
     1
102
RTVSPost2010PropOp29
 70
     1
102
RTVSPost2010Prop30
280
     1
102
RTVSPost2010PropOp30
 70
     1
102
RTVSPost2010Prop31
280
     0
102
RTVSPost2010PropOp31
 70
     1
102
RTVSPost2010Prop32
280
     0
102
RTVSPost2010PropOp32
 70
     1
102
RTVSPost2010Prop33
280
     0
102
RTVSPost2010PropOp33
 70
     1
102
RTVSPost2010Prop34
280
     0
102
RTVSPost2010PropOp34
 70
     1
102
RTVSPost2010Prop35
280
     0
102
RTVSPost2010PropOp35
 70
     1
102
RTVSPost2010Prop36
280
     0
102
RTVSPost2010PropOp36
 70
     1
102
RTVSPost2010Prop37
 90
       50
102
RTVSPost2010PropOp37
 70
     1
102
RTVSPost2010Prop38
140
0.0
102
RTVSPost2010PropOp38
 70
     1
102
RTVSPost2010Prop39
140
1.0
102
RTVSPost2010PropOp39
 70
     1
102
RTVSPost2010Prop40
 90
        0
102
RTVSPost2010PropOp40
 70
     1
102
RTVSPost2010Prop41ColorIndex
 90
       18
102
RTVSPost2010Prop41ColorRGB
 90
        0
102
RTVSPost2010PropOp41
 70
     1
102
RTVSPost2010Prop42
 90
       50
102
RTVSPost2010PropOp42
 70
     1
102
RTVSPost2010Prop43
 90
        3
102
RTVSPost2010PropOp43
 70
     1
102
RTVSPost2010Prop44ColorIndex
 90
        5
102
RTVSPost2010Prop44ColorRGB
 90
      255
102
RTVSPost2010PropOp44
 70
     1
102
RTVSPost2010Prop45
280
     0
102
RTVSPost2010PropOp45
 70
     1
102
RTVSPost2010Prop46
 90
       50
102
RTVSPost2010PropOp46
 70
     1
102
RTVSPost2010Prop47
 90
       50
102
RTVSPost2010PropOp47
 70
     1
102
RTVSPost2010Prop48
 90
       50
102
RTVSPost2010PropOp48
 70
     1
102
RTVSPost2010Prop49
280
     0
102
RTVSPost2010PropOp49
 70
     1
102
RTVSPost2010Prop50
 90
       50
102
RTVSPost2010PropOp50
 70
     1
102
RTVSPost2010Prop51ColorIndex
 90
      256
102
RTVSPost2010Prop51ColorRGB
 90
-16777216
102
RTVSPost2010PropOp51
 70
     0
102
RTVSPost2010Prop52
140
1.0
102
RTVSPost2010PropOp52
 70
     0
102
RTVSPost2010Prop53
 90
        2
102
RTVSPost2010PropOp53
 70
     1
102
RTVSPost2010Prop54
  1
strokes_ogs.tif
102
RTVSPost2010PropOp54
 70
     1
102
RTVSPost2010Prop55
280
     0
102
RTVSPost2010PropOp55
 70
     1
102
RTVSPost2010Prop56
140
1.0
102
RTVSPost2010PropOp56
 70
     1
102
RTVSPost2010Prop57
140
1.0
102
RTVSPost2010PropOp57
 70
     1
  0
XRECORD
  5
546
102
{ACAD_REACTORS
330
545
102
}
330
545
100
AcDbXrecord
280
     1
102
RTVSPropertyOp0
 70
     1
102
RTVSPropertyOp1
 70
     1
102
RTVSPropertyOp2
 70
     1
102
RTVSPropertyOp3
 70
     1
102
RTVSPropertyOp4
 70
     1
102
RTVSPropertyOp5
 70
     1
102
RTVSPropertyOp6
 70
     1
102
RTVSPropertyOp7
 70
     1
102
RTVSPropertyOp8
 70
     1
102
RTVSPropertyOp9
 70
     1
102
RTVSPropertyOp10
 70
     1
102
RTVSPropertyOp11
 70
     1
102
RTVSPropertyOp12
 70
     1
102
RTVSPropertyOp13
 70
     1
102
RTVSPropertyOp14
 70
     1
102
RTVSPropertyOp15
 70
     1
102
RTVSPropertyOp16
 70
     1
102
RTVSPropertyOp17
 70
     1
102
RTVSPropertyOp18
 70
     1
102
RTVSPropertyOp19
 70
     1
102
RTVSPropertyOp20
 70
     1
102
RTVSPropertyOp21
 70
     1
102
RTVSPropertyOp22
 70
     1
102
RTVSPropertyOp23
 70
     1
102
RTVSPropertyOp24
 70
     1
102
RTVSPropertyOp25
 70
     1
102
RTVSPropertyOp26
 70
     1
102
RTVSPropertyOp27
 70
     1
102
RTVSPropertyOp28
 70
     1
102
RTVSPropertyOp29
 70
     1
102
RTVSPropertyOp30
 70
     1
102
RTVSPropertyOp31
 70
     1
102
RTVSPropertyOp32
 70
     1
102
RTVSPropertyOp33
 70
     1
102
RTVSPropertyOp34
 70
     1
102
RTVSPropertyOp35
 70
     1
102
RTVSPropertyOp36
 70
     1
102
RTVSPropertyOp37
 70
     1
102
RTVSPropertyOp38
 70
     1
102
RTVSPropertyOp39
 70
     1
102
RTVSPropertyOp40
 70
     1
102
RTVSPropertyOp41
 70
     1
102
RTVSPropertyOp42
 70
     1
102
RTVSPropertyOp43
 70
     1
102
RTVSPropertyOp44
 70
     1
102
RTVSPropertyOp45
 70
     1
102
RTVSPropertyOp46
 70
     1
102
RTVSPropertyOp47
 70
     1
102
RTVSPropertyOp48
 70
     1
102
RTVSPropertyOp49
 70
     1
102
RTVSPropertyOp50
 70
     1
102
RTVSPropertyOp51
 70
     0
102
RTVSPropertyOp52
 70
     0
102
RTVSPropertyOp53
 70
     1
102
RTVSPropertyOp54
 70
     1
102
RTVSPropertyOp55
 70
     1
102
RTVSPropertyOp56
 70
     1
102
RTVSPropertyOp57
 70
     1
102
RTVSPost2010Prop28
280
     0
102
RTVSPost2010PropOp28
 70
     1
102
RTVSPost2010Prop29
280
     1
102
RTVSPost2010PropOp29
 70
     1
102
RTVSPost2010Prop30
280
     1
102
RTVSPost2010PropOp30
 70
     1
102
RTVSPost2010Prop31
280
     0
102
RTVSPost2010PropOp31
 70
     1
102
RTVSPost2010Prop32
280
     0
102
RTVSPost2010PropOp32
 70
     1
102
RTVSPost2010Prop33
280
     0
102
RTVSPost2010PropOp33
 70
     1
102
RTVSPost2010Prop34
280
     0
102
RTVSPost2010PropOp34
 70
     1
102
RTVSPost2010Prop35
280
     0
102
RTVSPost2010PropOp35
 70
     1
102
RTVSPost2010Prop36
280
     0
102
RTVSPost2010PropOp36
 70
     1
102
RTVSPost2010Prop37
 90
       50
102
RTVSPost2010PropOp37
 70
     1
102
RTVSPost2010Prop38
140
0.0
102
RTVSPost2010PropOp38
 70
     1
102
RTVSPost2010Prop39
140
1.0
102
RTVSPost2010PropOp39
 70
     1
102
RTVSPost2010Prop40
 90
        0
102
RTVSPost2010PropOp40
 70
     1
102
RTVSPost2010Prop41ColorIndex
 90
       18
102
RTVSPost2010Prop41ColorRGB
 90
        0
102
RTVSPost2010PropOp41
 70
     1
102
RTVSPost2010Prop42
 90
       50
102
RTVSPost2010PropOp42
 70
     1
102
RTVSPost2010Prop43
 90
        3
102
RTVSPost2010PropOp43
 70
     1
102
RTVSPost2010Prop44ColorIndex
 90
        5
102
RTVSPost2010Prop44ColorRGB
 90
      255
102
RTVSPost2010PropOp44
 70
     1
102
RTVSPost2010Prop45
280
     0
102
RTVSPost2010PropOp45
 70
     1
102
RTVSPost2010Prop46
 90
       50
102
RTVSPost2010PropOp46
 70
     1
102
RTVSPost2010Prop47
 90
       50
102
RTVSPost2010PropOp47
 70
     1
102
RTVSPost2010Prop48
 90
       50
102
RTVSPost2010PropOp48
 70
     1
102
RTVSPost2010Prop49
280
     0
102
RTVSPost2010PropOp49
 70
     1
102
RTVSPost2010Prop50
 90
       50
102
RTVSPost2010PropOp50
 70
     1
102
RTVSPost2010Prop51ColorIndex
 90
      256
102
RTVSPost2010Prop51ColorRGB
 90
-16777216
102
RTVSPost2010PropOp51
 70
     0
102
RTVSPost2010Prop52
140
1.0
102
RTVSPost2010PropOp52
 70
     0
102
RTVSPost2010Prop53
 90
        2
102
RTVSPost2010PropOp53
 70
     1
102
RTVSPost2010Prop54
  1
strokes_ogs.tif
102
RTVSPost2010PropOp54
 70
     1
102
RTVSPost2010Prop55
280
     0
102
RTVSPost2010PropOp55
 70
     1
102
RTVSPost2010Prop56
140
1.0
102
RTVSPost2010PropOp56
 70
     1
102
RTVSPost2010Prop57
140
1.0
102
RTVSPost2010PropOp57
 70
     1
  0
XRECORD
  5
54E
102
{ACAD_REACTORS
330
54D
102
}
330
54D
100
AcDbXrecord
280
     1
102
RTVSPropertyOp0
 70
     1
102
RTVSPropertyOp1
 70
     1
102
RTVSPropertyOp2
 70
     1
102
RTVSPropertyOp3
 70
     1
102
RTVSPropertyOp4
 70
     1
102
RTVSPropertyOp5
 70
     1
102
RTVSPropertyOp6
 70
     1
102
RTVSPropertyOp7
 70
     1
102
RTVSPropertyOp8
 70
     1
102
RTVSPropertyOp9
 70
     1
102
RTVSPropertyOp10
 70
     1
102
RTVSPropertyOp11
 70
     1
102
RTVSPropertyOp12
 70
     1
102
RTVSPropertyOp13
 70
     1
102
RTVSPropertyOp14
 70
     1
102
RTVSPropertyOp15
 70
     1
102
RTVSPropertyOp16
 70
     1
102
RTVSPropertyOp17
 70
     1
102
RTVSPropertyOp18
 70
     1
102
RTVSPropertyOp19
 70
     1
102
RTVSPropertyOp20
 70
     1
102
RTVSPropertyOp21
 70
     1
102
RTVSPropertyOp22
 70
     1
102
RTVSPropertyOp23
 70
     1
102
RTVSPropertyOp24
 70
     1
102
RTVSPropertyOp25
 70
     1
102
RTVSPropertyOp26
 70
     1
102
RTVSPropertyOp27
 70
     1
102
RTVSPropertyOp28
 70
     1
102
RTVSPropertyOp29
 70
     1
102
RTVSPropertyOp30
 70
     1
102
RTVSPropertyOp31
 70
     1
102
RTVSPropertyOp32
 70
     1
102
RTVSPropertyOp33
 70
     1
102
RTVSPropertyOp34
 70
     1
102
RTVSPropertyOp35
 70
     1
102
RTVSPropertyOp36
 70
     1
102
RTVSPropertyOp37
 70
     1
102
RTVSPropertyOp38
 70
     1
102
RTVSPropertyOp39
 70
     1
102
RTVSPropertyOp40
 70
     1
102
RTVSPropertyOp41
 70
     1
102
RTVSPropertyOp42
 70
     1
102
RTVSPropertyOp43
 70
     1
102
RTVSPropertyOp44
 70
     1
102
RTVSPropertyOp45
 70
     1
102
RTVSPropertyOp46
 70
     1
102
RTVSPropertyOp47
 70
     1
102
RTVSPropertyOp48
 70
     1
102
RTVSPropertyOp49
 70
     1
102
RTVSPropertyOp50
 70
     1
102
RTVSPropertyOp51
 70
     0
102
RTVSPropertyOp52
 70
     0
102
RTVSPropertyOp53
 70
     1
102
RTVSPropertyOp54
 70
     1
102
RTVSPropertyOp55
 70
     1
102
RTVSPropertyOp56
 70
     1
102
RTVSPropertyOp57
 70
     1
102
RTVSPost2010Prop28
280
     0
102
RTVSPost2010PropOp28
 70
     1
102
RTVSPost2010Prop29
280
     1
102
RTVSPost2010PropOp29
 70
     1
102
RTVSPost2010Prop30
280
     1
102
RTVSPost2010PropOp30
 70
     1
102
RTVSPost2010Prop31
280
     0
102
RTVSPost2010PropOp31
 70
     1
102
RTVSPost2010Prop32
280
     0
102
RTVSPost2010PropOp32
 70
     1
102
RTVSPost2010Prop33
280
     0
102
RTVSPost2010PropOp33
 70
     1
102
RTVSPost2010Prop34
280
     0
102
RTVSPost2010PropOp34
 70
     1
102
RTVSPost2010Prop35
280
     0
102
RTVSPost2010PropOp35
 70
     1
102
RTVSPost2010Prop36
280
     0
102
RTVSPost2010PropOp36
 70
     1
102
RTVSPost2010Prop37
 90
       50
102
RTVSPost2010PropOp37
 70
     1
102
RTVSPost2010Prop38
140
0.0
102
RTVSPost2010PropOp38
 70
     1
102
RTVSPost2010Prop39
140
1.0
102
RTVSPost2010PropOp39
 70
     1
102
RTVSPost2010Prop40
 90
        0
102
RTVSPost2010PropOp40
 70
     1
102
RTVSPost2010Prop41ColorIndex
 90
       18
102
RTVSPost2010Prop41ColorRGB
 90
        0
102
RTVSPost2010PropOp41
 70
     1
102
RTVSPost2010Prop42
 90
       50
102
RTVSPost2010PropOp42
 70
     1
102
RTVSPost2010Prop43
 90
        3
102
RTVSPost2010PropOp43
 70
     1
102
RTVSPost2010Prop44ColorIndex
 90
        5
102
RTVSPost2010Prop44ColorRGB
 90
      255
102
RTVSPost2010PropOp44
 70
     1
102
RTVSPost2010Prop45
280
     0
102
RTVSPost2010PropOp45
 70
     1
102
RTVSPost2010Prop46
 90
       50
102
RTVSPost2010PropOp46
 70
     1
102
RTVSPost2010Prop47
 90
       50
102
RTVSPost2010PropOp47
 70
     1
102
RTVSPost2010Prop48
 90
       50
102
RTVSPost2010PropOp48
 70
     1
102
RTVSPost2010Prop49
280
     0
102
RTVSPost2010PropOp49
 70
     1
102
RTVSPost2010Prop50
 90
       50
102
RTVSPost2010PropOp50
 70
     1
102
RTVSPost2010Prop51ColorIndex
 90
      256
102
RTVSPost2010Prop51ColorRGB
 90
-16777216
102
RTVSPost2010PropOp51
 70
     0
102
RTVSPost2010Prop52
140
1.0
102
RTVSPost2010PropOp52
 70
     0
102
RTVSPost2010Prop53
 90
        2
102
RTVSPost2010PropOp53
 70
     1
102
RTVSPost2010Prop54
  1
strokes_ogs.tif
102
RTVSPost2010PropOp54
 70
     1
102
RTVSPost2010Prop55
280
     0
102
RTVSPost2010PropOp55
 70
     1
102
RTVSPost2010Prop56
140
1.0
102
RTVSPost2010PropOp56
 70
     1
102
RTVSPost2010Prop57
140
1.0
102
RTVSPost2010PropOp57
 70
     1
  0
XRECORD
  5
532
102
{ACAD_REACTORS
330
531
102
}
330
531
100
AcDbXrecord
280
     1
102
RTVSPropertyOp0
 70
     1
102
RTVSPropertyOp1
 70
     1
102
RTVSPropertyOp2
 70
     1
102
RTVSPropertyOp3
 70
     1
102
RTVSPropertyOp4
 70
     1
102
RTVSPropertyOp5
 70
     1
102
RTVSPropertyOp6
 70
     1
102
RTVSPropertyOp7
 70
     1
102
RTVSPropertyOp8
 70
     1
102
RTVSPropertyOp9
 70
     1
102
RTVSPropertyOp10
 70
     1
102
RTVSPropertyOp11
 70
     1
102
RTVSPropertyOp12
 70
     1
102
RTVSPropertyOp13
 70
     1
102
RTVSPropertyOp14
 70
     1
102
RTVSPropertyOp15
 70
     1
102
RTVSPropertyOp16
 70
     1
102
RTVSPropertyOp17
 70
     1
102
RTVSPropertyOp18
 70
     1
102
RTVSPropertyOp19
 70
     1
102
RTVSPropertyOp20
 70
     1
102
RTVSPropertyOp21
 70
     1
102
RTVSPropertyOp22
 70
     1
102
RTVSPropertyOp23
 70
     1
102
RTVSPropertyOp24
 70
     1
102
RTVSPropertyOp25
 70
     1
102
RTVSPropertyOp26
 70
     1
102
RTVSPropertyOp27
 70
     1
102
RTVSPropertyOp28
 70
     1
102
RTVSPropertyOp29
 70
     1
102
RTVSPropertyOp30
 70
     1
102
RTVSPropertyOp31
 70
     1
102
RTVSPropertyOp32
 70
     1
102
RTVSPropertyOp33
 70
     1
102
RTVSPropertyOp34
 70
     1
102
RTVSPropertyOp35
 70
     1
102
RTVSPropertyOp36
 70
     1
102
RTVSPropertyOp37
 70
     1
102
RTVSPropertyOp38
 70
     1
102
RTVSPropertyOp39
 70
     1
102
RTVSPropertyOp40
 70
     1
102
RTVSPropertyOp41
 70
     1
102
RTVSPropertyOp42
 70
     1
102
RTVSPropertyOp43
 70
     1
102
RTVSPropertyOp44
 70
     1
102
RTVSPropertyOp45
 70
     1
102
RTVSPropertyOp46
 70
     1
102
RTVSPropertyOp47
 70
     1
102
RTVSPropertyOp48
 70
     1
102
RTVSPropertyOp49
 70
     1
102
RTVSPropertyOp50
 70
     1
102
RTVSPropertyOp51
 70
     0
102
RTVSPropertyOp52
 70
     0
102
RTVSPropertyOp53
 70
     1
102
RTVSPropertyOp54
 70
     1
102
RTVSPropertyOp55
 70
     1
102
RTVSPropertyOp56
 70
     1
102
RTVSPropertyOp57
 70
     1
102
RTVSPost2010Prop28
280
     0
102
RTVSPost2010PropOp28
 70
     1
102
RTVSPost2010Prop29
280
     1
102
RTVSPost2010PropOp29
 70
     1
102
RTVSPost2010Prop30
280
     1
102
RTVSPost2010PropOp30
 70
     1
102
RTVSPost2010Prop31
280
     0
102
RTVSPost2010PropOp31
 70
     1
102
RTVSPost2010Prop32
280
     0
102
RTVSPost2010PropOp32
 70
     1
102
RTVSPost2010Prop33
280
     0
102
RTVSPost2010PropOp33
 70
     1
102
RTVSPost2010Prop34
280
     0
102
RTVSPost2010PropOp34
 70
     1
102
RTVSPost2010Prop35
280
     0
102
RTVSPost2010PropOp35
 70
     1
102
RTVSPost2010Prop36
280
     0
102
RTVSPost2010PropOp36
 70
     1
102
RTVSPost2010Prop37
 90
       50
102
RTVSPost2010PropOp37
 70
     1
102
RTVSPost2010Prop38
140
0.0
102
RTVSPost2010PropOp38
 70
     1
102
RTVSPost2010Prop39
140
1.0
102
RTVSPost2010PropOp39
 70
     1
102
RTVSPost2010Prop40
 90
        0
102
RTVSPost2010PropOp40
 70
     1
102
RTVSPost2010Prop41ColorIndex
 90
       18
102
RTVSPost2010Prop41ColorRGB
 90
        0
102
RTVSPost2010PropOp41
 70
     1
102
RTVSPost2010Prop42
 90
       50
102
RTVSPost2010PropOp42
 70
     1
102
RTVSPost2010Prop43
 90
        3
102
RTVSPost2010PropOp43
 70
     1
102
RTVSPost2010Prop44ColorIndex
 90
        5
102
RTVSPost2010Prop44ColorRGB
 90
      255
102
RTVSPost2010PropOp44
 70
     1
102
RTVSPost2010Prop45
280
     0
102
RTVSPost2010PropOp45
 70
     1
102
RTVSPost2010Prop46
 90
       50
102
RTVSPost2010PropOp46
 70
     1
102
RTVSPost2010Prop47
 90
       50
102
RTVSPost2010PropOp47
 70
     1
102
RTVSPost2010Prop48
 90
       50
102
RTVSPost2010PropOp48
 70
     1
102
RTVSPost2010Prop49
280
     0
102
RTVSPost2010PropOp49
 70
     1
102
RTVSPost2010Prop50
 90
       50
102
RTVSPost2010PropOp50
 70
     1
102
RTVSPost2010Prop51ColorIndex
 90
      256
102
RTVSPost2010Prop51ColorRGB
 90
-16777216
102
RTVSPost2010PropOp51
 70
     0
102
RTVSPost2010Prop52
140
1.0
102
RTVSPost2010PropOp52
 70
     0
102
RTVSPost2010Prop53
 90
        2
102
RTVSPost2010PropOp53
 70
     1
102
RTVSPost2010Prop54
  1
strokes_ogs.tif
102
RTVSPost2010PropOp54
 70
     1
102
RTVSPost2010Prop55
280
     0
102
RTVSPost2010PropOp55
 70
     1
102
RTVSPost2010Prop56
140
1.0
102
RTVSPost2010PropOp56
 70
     1
102
RTVSPost2010Prop57
140
1.0
102
RTVSPost2010PropOp57
 70
     1
  0
XRECORD
  5
534
102
{ACAD_REACTORS
330
533
102
}
330
533
100
AcDbXrecord
280
     1
102
RTVSPropertyOp0
 70
     1
102
RTVSPropertyOp1
 70
     1
102
RTVSPropertyOp2
 70
     1
102
RTVSPropertyOp3
 70
     1
102
RTVSPropertyOp4
 70
     1
102
RTVSPropertyOp5
 70
     1
102
RTVSPropertyOp6
 70
     1
102
RTVSPropertyOp7
 70
     1
102
RTVSPropertyOp8
 70
     1
102
RTVSPropertyOp9
 70
     1
102
RTVSPropertyOp10
 70
     1
102
RTVSPropertyOp11
 70
     1
102
RTVSPropertyOp12
 70
     1
102
RTVSPropertyOp13
 70
     1
102
RTVSPropertyOp14
 70
     1
102
RTVSPropertyOp15
 70
     1
102
RTVSPropertyOp16
 70
     1
102
RTVSPropertyOp17
 70
     1
102
RTVSPropertyOp18
 70
     1
102
RTVSPropertyOp19
 70
     1
102
RTVSPropertyOp20
 70
     1
102
RTVSPropertyOp21
 70
     1
102
RTVSPropertyOp22
 70
     1
102
RTVSPropertyOp23
 70
     1
102
RTVSPropertyOp24
 70
     1
102
RTVSPropertyOp25
 70
     1
102
RTVSPropertyOp26
 70
     1
102
RTVSPropertyOp27
 70
     1
102
RTVSPropertyOp28
 70
     1
102
RTVSPropertyOp29
 70
     1
102
RTVSPropertyOp30
 70
     1
102
RTVSPropertyOp31
 70
     1
102
RTVSPropertyOp32
 70
     1
102
RTVSPropertyOp33
 70
     1
102
RTVSPropertyOp34
 70
     1
102
RTVSPropertyOp35
 70
     1
102
RTVSPropertyOp36
 70
     1
102
RTVSPropertyOp37
 70
     1
102
RTVSPropertyOp38
 70
     1
102
RTVSPropertyOp39
 70
     1
102
RTVSPropertyOp40
 70
     1
102
RTVSPropertyOp41
 70
     1
102
RTVSPropertyOp42
 70
     1
102
RTVSPropertyOp43
 70
     1
102
RTVSPropertyOp44
 70
     1
102
RTVSPropertyOp45
 70
     1
102
RTVSPropertyOp46
 70
     1
102
RTVSPropertyOp47
 70
     1
102
RTVSPropertyOp48
 70
     1
102
RTVSPropertyOp49
 70
     1
102
RTVSPropertyOp50
 70
     1
102
RTVSPropertyOp51
 70
     0
102
RTVSPropertyOp52
 70
     0
102
RTVSPropertyOp53
 70
     1
102
RTVSPropertyOp54
 70
     1
102
RTVSPropertyOp55
 70
     1
102
RTVSPropertyOp56
 70
     1
102
RTVSPropertyOp57
 70
     1
102
RTVSPost2010Prop28
280
     0
102
RTVSPost2010PropOp28
 70
     1
102
RTVSPost2010Prop29
280
     1
102
RTVSPost2010PropOp29
 70
     1
102
RTVSPost2010Prop30
280
     1
102
RTVSPost2010PropOp30
 70
     1
102
RTVSPost2010Prop31
280
     0
102
RTVSPost2010PropOp31
 70
     1
102
RTVSPost2010Prop32
280
     0
102
RTVSPost2010PropOp32
 70
     1
102
RTVSPost2010Prop33
280
     0
102
RTVSPost2010PropOp33
 70
     1
102
RTVSPost2010Prop34
280
     0
102
RTVSPost2010PropOp34
 70
     1
102
RTVSPost2010Prop35
280
     0
102
RTVSPost2010PropOp35
 70
     1
102
RTVSPost2010Prop36
280
     0
102
RTVSPost2010PropOp36
 70
     1
102
RTVSPost2010Prop37
 90
       50
102
RTVSPost2010PropOp37
 70
     1
102
RTVSPost2010Prop38
140
0.0
102
RTVSPost2010PropOp38
 70
     1
102
RTVSPost2010Prop39
140
1.0
102
RTVSPost2010PropOp39
 70
     1
102
RTVSPost2010Prop40
 90
        0
102
RTVSPost2010PropOp40
 70
     1
102
RTVSPost2010Prop41ColorIndex
 90
       18
102
RTVSPost2010Prop41ColorRGB
 90
        0
102
RTVSPost2010PropOp41
 70
     1
102
RTVSPost2010Prop42
 90
       50
102
RTVSPost2010PropOp42
 70
     1
102
RTVSPost2010Prop43
 90
        3
102
RTVSPost2010PropOp43
 70
     1
102
RTVSPost2010Prop44ColorIndex
 90
        5
102
RTVSPost2010Prop44ColorRGB
 90
      255
102
RTVSPost2010PropOp44
 70
     1
102
RTVSPost2010Prop45
280
     0
102
RTVSPost2010PropOp45
 70
     1
102
RTVSPost2010Prop46
 90
       50
102
RTVSPost2010PropOp46
 70
     1
102
RTVSPost2010Prop47
 90
       50
102
RTVSPost2010PropOp47
 70
     1
102
RTVSPost2010Prop48
 90
       50
102
RTVSPost2010PropOp48
 70
     1
102
RTVSPost2010Prop49
280
     0
102
RTVSPost2010PropOp49
 70
     1
102
RTVSPost2010Prop50
 90
       50
102
RTVSPost2010PropOp50
 70
     1
102
RTVSPost2010Prop51ColorIndex
 90
      256
102
RTVSPost2010Prop51ColorRGB
 90
-16777216
102
RTVSPost2010PropOp51
 70
     0
102
RTVSPost2010Prop52
140
1.0
102
RTVSPost2010PropOp52
 70
     0
102
RTVSPost2010Prop53
 90
        2
102
RTVSPost2010PropOp53
 70
     1
102
RTVSPost2010Prop54
  1
strokes_ogs.tif
102
RTVSPost2010PropOp54
 70
     1
102
RTVSPost2010Prop55
280
     0
102
RTVSPost2010PropOp55
 70
     1
102
RTVSPost2010Prop56
140
1.0
102
RTVSPost2010PropOp56
 70
     1
102
RTVSPost2010Prop57
140
1.0
102
RTVSPost2010PropOp57
 70
     1
  0
XRECORD
  5
536
102
{ACAD_REACTORS
330
535
102
}
330
535
100
AcDbXrecord
280
     1
102
RTVSPropertyOp0
 70
     1
102
RTVSPropertyOp1
 70
     1
102
RTVSPropertyOp2
 70
     1
102
RTVSPropertyOp3
 70
     1
102
RTVSPropertyOp4
 70
     1
102
RTVSPropertyOp5
 70
     1
102
RTVSPropertyOp6
 70
     1
102
RTVSPropertyOp7
 70
     1
102
RTVSPropertyOp8
 70
     1
102
RTVSPropertyOp9
 70
     1
102
RTVSPropertyOp10
 70
     1
102
RTVSPropertyOp11
 70
     1
102
RTVSPropertyOp12
 70
     1
102
RTVSPropertyOp13
 70
     1
102
RTVSPropertyOp14
 70
     1
102
RTVSPropertyOp15
 70
     1
102
RTVSPropertyOp16
 70
     1
102
RTVSPropertyOp17
 70
     1
102
RTVSPropertyOp18
 70
     1
102
RTVSPropertyOp19
 70
     1
102
RTVSPropertyOp20
 70
     1
102
RTVSPropertyOp21
 70
     1
102
RTVSPropertyOp22
 70
     1
102
RTVSPropertyOp23
 70
     1
102
RTVSPropertyOp24
 70
     1
102
RTVSPropertyOp25
 70
     1
102
RTVSPropertyOp26
 70
     1
102
RTVSPropertyOp27
 70
     1
102
RTVSPropertyOp28
 70
     1
102
RTVSPropertyOp29
 70
     1
102
RTVSPropertyOp30
 70
     1
102
RTVSPropertyOp31
 70
     1
102
RTVSPropertyOp32
 70
     1
102
RTVSPropertyOp33
 70
     1
102
RTVSPropertyOp34
 70
     1
102
RTVSPropertyOp35
 70
     1
102
RTVSPropertyOp36
 70
     1
102
RTVSPropertyOp37
 70
     1
102
RTVSPropertyOp38
 70
     1
102
RTVSPropertyOp39
 70
     1
102
RTVSPropertyOp40
 70
     1
102
RTVSPropertyOp41
 70
     1
102
RTVSPropertyOp42
 70
     1
102
RTVSPropertyOp43
 70
     1
102
RTVSPropertyOp44
 70
     1
102
RTVSPropertyOp45
 70
     1
102
RTVSPropertyOp46
 70
     1
102
RTVSPropertyOp47
 70
     1
102
RTVSPropertyOp48
 70
     1
102
RTVSPropertyOp49
 70
     1
102
RTVSPropertyOp50
 70
     1
102
RTVSPropertyOp51
 70
     0
102
RTVSPropertyOp52
 70
     0
102
RTVSPropertyOp53
 70
     1
102
RTVSPropertyOp54
 70
     1
102
RTVSPropertyOp55
 70
     1
102
RTVSPropertyOp56
 70
     1
102
RTVSPropertyOp57
 70
     1
102
RTVSPost2010Prop28
280
     0
102
RTVSPost2010PropOp28
 70
     1
102
RTVSPost2010Prop29
280
     1
102
RTVSPost2010PropOp29
 70
     1
102
RTVSPost2010Prop30
280
     1
102
RTVSPost2010PropOp30
 70
     1
102
RTVSPost2010Prop31
280
     0
102
RTVSPost2010PropOp31
 70
     1
102
RTVSPost2010Prop32
280
     0
102
RTVSPost2010PropOp32
 70
     1
102
RTVSPost2010Prop33
280
     0
102
RTVSPost2010PropOp33
 70
     1
102
RTVSPost2010Prop34
280
     0
102
RTVSPost2010PropOp34
 70
     1
102
RTVSPost2010Prop35
280
     0
102
RTVSPost2010PropOp35
 70
     1
102
RTVSPost2010Prop36
280
     0
102
RTVSPost2010PropOp36
 70
     1
102
RTVSPost2010Prop37
 90
       50
102
RTVSPost2010PropOp37
 70
     1
102
RTVSPost2010Prop38
140
0.0
102
RTVSPost2010PropOp38
 70
     1
102
RTVSPost2010Prop39
140
1.0
102
RTVSPost2010PropOp39
 70
     1
102
RTVSPost2010Prop40
 90
        0
102
RTVSPost2010PropOp40
 70
     1
102
RTVSPost2010Prop41ColorIndex
 90
       18
102
RTVSPost2010Prop41ColorRGB
 90
        0
102
RTVSPost2010PropOp41
 70
     1
102
RTVSPost2010Prop42
 90
       50
102
RTVSPost2010PropOp42
 70
     1
102
RTVSPost2010Prop43
 90
        3
102
RTVSPost2010PropOp43
 70
     1
102
RTVSPost2010Prop44ColorIndex
 90
        5
102
RTVSPost2010Prop44ColorRGB
 90
      255
102
RTVSPost2010PropOp44
 70
     1
102
RTVSPost2010Prop45
280
     0
102
RTVSPost2010PropOp45
 70
     1
102
RTVSPost2010Prop46
 90
       50
102
RTVSPost2010PropOp46
 70
     1
102
RTVSPost2010Prop47
 90
       50
102
RTVSPost2010PropOp47
 70
     1
102
RTVSPost2010Prop48
 90
       50
102
RTVSPost2010PropOp48
 70
     1
102
RTVSPost2010Prop49
280
     0
102
RTVSPost2010PropOp49
 70
     1
102
RTVSPost2010Prop50
 90
       50
102
RTVSPost2010PropOp50
 70
     1
102
RTVSPost2010Prop51ColorIndex
 90
      256
102
RTVSPost2010Prop51ColorRGB
 90
-16777216
102
RTVSPost2010PropOp51
 70
     0
102
RTVSPost2010Prop52
140
1.0
102
RTVSPost2010PropOp52
 70
     0
102
RTVSPost2010Prop53
 90
        2
102
RTVSPost2010PropOp53
 70
     1
102
RTVSPost2010Prop54
  1
strokes_ogs.tif
102
RTVSPost2010PropOp54
 70
     1
102
RTVSPost2010Prop55
280
     0
102
RTVSPost2010PropOp55
 70
     1
102
RTVSPost2010Prop56
140
1.0
102
RTVSPost2010PropOp56
 70
     1
102
RTVSPost2010Prop57
140
1.0
102
RTVSPost2010PropOp57
 70
     1
  0
XRECORD
  5
538
102
{ACAD_REACTORS
330
537
102
}
330
537
100
AcDbXrecord
280
     1
102
RTVSPropertyOp0
 70
     1
102
RTVSPropertyOp1
 70
     1
102
RTVSPropertyOp2
 70
     1
102
RTVSPropertyOp3
 70
     1
102
RTVSPropertyOp4
 70
     1
102
RTVSPropertyOp5
 70
     1
102
RTVSPropertyOp6
 70
     1
102
RTVSPropertyOp7
 70
     1
102
RTVSPropertyOp8
 70
     1
102
RTVSPropertyOp9
 70
     1
102
RTVSPropertyOp10
 70
     1
102
RTVSPropertyOp11
 70
     1
102
RTVSPropertyOp12
 70
     1
102
RTVSPropertyOp13
 70
     1
102
RTVSPropertyOp14
 70
     1
102
RTVSPropertyOp15
 70
     1
102
RTVSPropertyOp16
 70
     1
102
RTVSPropertyOp17
 70
     1
102
RTVSPropertyOp18
 70
     1
102
RTVSPropertyOp19
 70
     1
102
RTVSPropertyOp20
 70
     1
102
RTVSPropertyOp21
 70
     1
102
RTVSPropertyOp22
 70
     1
102
RTVSPropertyOp23
 70
     1
102
RTVSPropertyOp24
 70
     1
102
RTVSPropertyOp25
 70
     1
102
RTVSPropertyOp26
 70
     1
102
RTVSPropertyOp27
 70
     1
102
RTVSPropertyOp28
 70
     1
102
RTVSPropertyOp29
 70
     1
102
RTVSPropertyOp30
 70
     1
102
RTVSPropertyOp31
 70
     1
102
RTVSPropertyOp32
 70
     1
102
RTVSPropertyOp33
 70
     1
102
RTVSPropertyOp34
 70
     1
102
RTVSPropertyOp35
 70
     1
102
RTVSPropertyOp36
 70
     1
102
RTVSPropertyOp37
 70
     1
102
RTVSPropertyOp38
 70
     1
102
RTVSPropertyOp39
 70
     1
102
RTVSPropertyOp40
 70
     1
102
RTVSPropertyOp41
 70
     1
102
RTVSPropertyOp42
 70
     1
102
RTVSPropertyOp43
 70
     1
102
RTVSPropertyOp44
 70
     1
102
RTVSPropertyOp45
 70
     1
102
RTVSPropertyOp46
 70
     1
102
RTVSPropertyOp47
 70
     1
102
RTVSPropertyOp48
 70
     1
102
RTVSPropertyOp49
 70
     1
102
RTVSPropertyOp50
 70
     1
102
RTVSPropertyOp51
 70
     0
102
RTVSPropertyOp52
 70
     0
102
RTVSPropertyOp53
 70
     1
102
RTVSPropertyOp54
 70
     1
102
RTVSPropertyOp55
 70
     1
102
RTVSPropertyOp56
 70
     1
102
RTVSPropertyOp57
 70
     1
102
RTVSPost2010Prop28
280
     0
102
RTVSPost2010PropOp28
 70
     1
102
RTVSPost2010Prop29
280
     1
102
RTVSPost2010PropOp29
 70
     1
102
RTVSPost2010Prop30
280
     1
102
RTVSPost2010PropOp30
 70
     1
102
RTVSPost2010Prop31
280
     0
102
RTVSPost2010PropOp31
 70
     1
102
RTVSPost2010Prop32
280
     0
102
RTVSPost2010PropOp32
 70
     1
102
RTVSPost2010Prop33
280
     0
102
RTVSPost2010PropOp33
 70
     1
102
RTVSPost2010Prop34
280
     0
102
RTVSPost2010PropOp34
 70
     1
102
RTVSPost2010Prop35
280
     0
102
RTVSPost2010PropOp35
 70
     1
102
RTVSPost2010Prop36
280
     0
102
RTVSPost2010PropOp36
 70
     1
102
RTVSPost2010Prop37
 90
       50
102
RTVSPost2010PropOp37
 70
     1
102
RTVSPost2010Prop38
140
0.0
102
RTVSPost2010PropOp38
 70
     1
102
RTVSPost2010Prop39
140
1.0
102
RTVSPost2010PropOp39
 70
     1
102
RTVSPost2010Prop40
 90
        0
102
RTVSPost2010PropOp40
 70
     1
102
RTVSPost2010Prop41ColorIndex
 90
       18
102
RTVSPost2010Prop41ColorRGB
 90
        0
102
RTVSPost2010PropOp41
 70
     1
102
RTVSPost2010Prop42
 90
       50
102
RTVSPost2010PropOp42
 70
     1
102
RTVSPost2010Prop43
 90
        3
102
RTVSPost2010PropOp43
 70
     1
102
RTVSPost2010Prop44ColorIndex
 90
        5
102
RTVSPost2010Prop44ColorRGB
 90
      255
102
RTVSPost2010PropOp44
 70
     1
102
RTVSPost2010Prop45
280
     0
102
RTVSPost2010PropOp45
 70
     1
102
RTVSPost2010Prop46
 90
       50
102
RTVSPost2010PropOp46
 70
     1
102
RTVSPost2010Prop47
 90
       50
102
RTVSPost2010PropOp47
 70
     1
102
RTVSPost2010Prop48
 90
       50
102
RTVSPost2010PropOp48
 70
     1
102
RTVSPost2010Prop49
280
     0
102
RTVSPost2010PropOp49
 70
     1
102
RTVSPost2010Prop50
 90
       50
102
RTVSPost2010PropOp50
 70
     1
102
RTVSPost2010Prop51ColorIndex
 90
      256
102
RTVSPost2010Prop51ColorRGB
 90
-16777216
102
RTVSPost2010PropOp51
 70
     0
102
RTVSPost2010Prop52
140
1.0
102
RTVSPost2010PropOp52
 70
     0
102
RTVSPost2010Prop53
 90
        2
102
RTVSPost2010PropOp53
 70
     1
102
RTVSPost2010Prop54
  1
strokes_ogs.tif
102
RTVSPost2010PropOp54
 70
     1
102
RTVSPost2010Prop55
280
     0
102
RTVSPost2010PropOp55
 70
     1
102
RTVSPost2010Prop56
140
1.0
102
RTVSPost2010PropOp56
 70
     1
102
RTVSPost2010Prop57
140
1.0
102
RTVSPost2010PropOp57
 70
     1
  0
XRECORD
  5
54C
102
{ACAD_REACTORS
330
54B
102
}
330
54B
100
AcDbXrecord
280
     1
102
RTVSPropertyOp0
 70
     1
102
RTVSPropertyOp1
 70
     1
102
RTVSPropertyOp2
 70
     1
102
RTVSPropertyOp3
 70
     1
102
RTVSPropertyOp4
 70
     1
102
RTVSPropertyOp5
 70
     1
102
RTVSPropertyOp6
 70
     1
102
RTVSPropertyOp7
 70
     1
102
RTVSPropertyOp8
 70
     1
102
RTVSPropertyOp9
 70
     1
102
RTVSPropertyOp10
 70
     1
102
RTVSPropertyOp11
 70
     1
102
RTVSPropertyOp12
 70
     1
102
RTVSPropertyOp13
 70
     1
102
RTVSPropertyOp14
 70
     1
102
RTVSPropertyOp15
 70
     1
102
RTVSPropertyOp16
 70
     1
102
RTVSPropertyOp17
 70
     1
102
RTVSPropertyOp18
 70
     1
102
RTVSPropertyOp19
 70
     1
102
RTVSPropertyOp20
 70
     1
102
RTVSPropertyOp21
 70
     1
102
RTVSPropertyOp22
 70
     1
102
RTVSPropertyOp23
 70
     1
102
RTVSPropertyOp24
 70
     1
102
RTVSPropertyOp25
 70
     1
102
RTVSPropertyOp26
 70
     1
102
RTVSPropertyOp27
 70
     1
102
RTVSPropertyOp28
 70
     1
102
RTVSPropertyOp29
 70
     1
102
RTVSPropertyOp30
 70
     1
102
RTVSPropertyOp31
 70
     1
102
RTVSPropertyOp32
 70
     1
102
RTVSPropertyOp33
 70
     1
102
RTVSPropertyOp34
 70
     1
102
RTVSPropertyOp35
 70
     1
102
RTVSPropertyOp36
 70
     1
102
RTVSPropertyOp37
 70
     1
102
RTVSPropertyOp38
 70
     1
102
RTVSPropertyOp39
 70
     1
102
RTVSPropertyOp40
 70
     1
102
RTVSPropertyOp41
 70
     1
102
RTVSPropertyOp42
 70
     1
102
RTVSPropertyOp43
 70
     1
102
RTVSPropertyOp44
 70
     1
102
RTVSPropertyOp45
 70
     1
102
RTVSPropertyOp46
 70
     1
102
RTVSPropertyOp47
 70
     1
102
RTVSPropertyOp48
 70
     1
102
RTVSPropertyOp49
 70
     1
102
RTVSPropertyOp50
 70
     1
102
RTVSPropertyOp51
 70
     0
102
RTVSPropertyOp52
 70
     0
102
RTVSPropertyOp53
 70
     1
102
RTVSPropertyOp54
 70
     1
102
RTVSPropertyOp55
 70
     1
102
RTVSPropertyOp56
 70
     1
102
RTVSPropertyOp57
 70
     1
102
RTVSPost2010Prop28
280
     0
102
RTVSPost2010PropOp28
 70
     1
102
RTVSPost2010Prop29
280
     1
102
RTVSPost2010PropOp29
 70
     1
102
RTVSPost2010Prop30
280
     1
102
RTVSPost2010PropOp30
 70
     1
102
RTVSPost2010Prop31
280
     0
102
RTVSPost2010PropOp31
 70
     1
102
RTVSPost2010Prop32
280
     0
102
RTVSPost2010PropOp32
 70
     1
102
RTVSPost2010Prop33
280
     0
102
RTVSPost2010PropOp33
 70
     1
102
RTVSPost2010Prop34
280
     0
102
RTVSPost2010PropOp34
 70
     1
102
RTVSPost2010Prop35
280
     0
102
RTVSPost2010PropOp35
 70
     1
102
RTVSPost2010Prop36
280
     0
102
RTVSPost2010PropOp36
 70
     1
102
RTVSPost2010Prop37
 90
       50
102
RTVSPost2010PropOp37
 70
     1
102
RTVSPost2010Prop38
140
0.0
102
RTVSPost2010PropOp38
 70
     1
102
RTVSPost2010Prop39
140
1.0
102
RTVSPost2010PropOp39
 70
     1
102
RTVSPost2010Prop40
 90
        0
102
RTVSPost2010PropOp40
 70
     1
102
RTVSPost2010Prop41ColorIndex
 90
       18
102
RTVSPost2010Prop41ColorRGB
 90
        0
102
RTVSPost2010PropOp41
 70
     1
102
RTVSPost2010Prop42
 90
       50
102
RTVSPost2010PropOp42
 70
     1
102
RTVSPost2010Prop43
 90
        3
102
RTVSPost2010PropOp43
 70
     1
102
RTVSPost2010Prop44ColorIndex
 90
        5
102
RTVSPost2010Prop44ColorRGB
 90
      255
102
RTVSPost2010PropOp44
 70
     1
102
RTVSPost2010Prop45
280
     0
102
RTVSPost2010PropOp45
 70
     1
102
RTVSPost2010Prop46
 90
       50
102
RTVSPost2010PropOp46
 70
     1
102
RTVSPost2010Prop47
 90
       50
102
RTVSPost2010PropOp47
 70
     1
102
RTVSPost2010Prop48
 90
       50
102
RTVSPost2010PropOp48
 70
     1
102
RTVSPost2010Prop49
280
     0
102
RTVSPost2010PropOp49
 70
     1
102
RTVSPost2010Prop50
 90
       50
102
RTVSPost2010PropOp50
 70
     1
102
RTVSPost2010Prop51ColorIndex
 90
      256
102
RTVSPost2010Prop51ColorRGB
 90
-16777216
102
RTVSPost2010PropOp51
 70
     0
102
RTVSPost2010Prop52
140
1.0
102
RTVSPost2010PropOp52
 70
     0
102
RTVSPost2010Prop53
 90
        2
102
RTVSPost2010PropOp53
 70
     1
102
RTVSPost2010Prop54
  1
strokes_ogs.tif
102
RTVSPost2010PropOp54
 70
     1
102
RTVSPost2010Prop55
280
     0
102
RTVSPost2010PropOp55
 70
     1
102
RTVSPost2010Prop56
140
1.0
102
RTVSPost2010PropOp56
 70
     1
102
RTVSPost2010Prop57
140
1.0
102
RTVSPost2010PropOp57
 70
     1
  0
XRECORD
  5
542
102
{ACAD_REACTORS
330
541
102
}
330
541
100
AcDbXrecord
280
     1
102
RTVSPropertyOp0
 70
     1
102
RTVSPropertyOp1
 70
     1
102
RTVSPropertyOp2
 70
     1
102
RTVSPropertyOp3
 70
     1
102
RTVSPropertyOp4
 70
     1
102
RTVSPropertyOp5
 70
     1
102
RTVSPropertyOp6
 70
     1
102
RTVSPropertyOp7
 70
     1
102
RTVSPropertyOp8
 70
     1
102
RTVSPropertyOp9
 70
     1
102
RTVSPropertyOp10
 70
     1
102
RTVSPropertyOp11
 70
     1
102
RTVSPropertyOp12
 70
     1
102
RTVSPropertyOp13
 70
     1
102
RTVSPropertyOp14
 70
     1
102
RTVSPropertyOp15
 70
     1
102
RTVSPropertyOp16
 70
     1
102
RTVSPropertyOp17
 70
     1
102
RTVSPropertyOp18
 70
     1
102
RTVSPropertyOp19
 70
     1
102
RTVSPropertyOp20
 70
     1
102
RTVSPropertyOp21
 70
     1
102
RTVSPropertyOp22
 70
     1
102
RTVSPropertyOp23
 70
     1
102
RTVSPropertyOp24
 70
     1
102
RTVSPropertyOp25
 70
     1
102
RTVSPropertyOp26
 70
     1
102
RTVSPropertyOp27
 70
     1
102
RTVSPropertyOp28
 70
     1
102
RTVSPropertyOp29
 70
     1
102
RTVSPropertyOp30
 70
     1
102
RTVSPropertyOp31
 70
     1
102
RTVSPropertyOp32
 70
     1
102
RTVSPropertyOp33
 70
     1
102
RTVSPropertyOp34
 70
     1
102
RTVSPropertyOp35
 70
     1
102
RTVSPropertyOp36
 70
     1
102
RTVSPropertyOp37
 70
     1
102
RTVSPropertyOp38
 70
     1
102
RTVSPropertyOp39
 70
     1
102
RTVSPropertyOp40
 70
     1
102
RTVSPropertyOp41
 70
     1
102
RTVSPropertyOp42
 70
     1
102
RTVSPropertyOp43
 70
     1
102
RTVSPropertyOp44
 70
     1
102
RTVSPropertyOp45
 70
     1
102
RTVSPropertyOp46
 70
     1
102
RTVSPropertyOp47
 70
     1
102
RTVSPropertyOp48
 70
     1
102
RTVSPropertyOp49
 70
     1
102
RTVSPropertyOp50
 70
     1
102
RTVSPropertyOp51
 70
     0
102
RTVSPropertyOp52
 70
     0
102
RTVSPropertyOp53
 70
     1
102
RTVSPropertyOp54
 70
     1
102
RTVSPropertyOp55
 70
     1
102
RTVSPropertyOp56
 70
     1
102
RTVSPropertyOp57
 70
     1
102
RTVSPost2010Prop28
280
     0
102
RTVSPost2010PropOp28
 70
     1
102
RTVSPost2010Prop29
280
     1
102
RTVSPost2010PropOp29
 70
     1
102
RTVSPost2010Prop30
280
     1
102
RTVSPost2010PropOp30
 70
     1
102
RTVSPost2010Prop31
280
     0
102
RTVSPost2010PropOp31
 70
     1
102
RTVSPost2010Prop32
280
     0
102
RTVSPost2010PropOp32
 70
     1
102
RTVSPost2010Prop33
280
     0
102
RTVSPost2010PropOp33
 70
     1
102
RTVSPost2010Prop34
280
     0
102
RTVSPost2010PropOp34
 70
     1
102
RTVSPost2010Prop35
280
     0
102
RTVSPost2010PropOp35
 70
     1
102
RTVSPost2010Prop36
280
     0
102
RTVSPost2010PropOp36
 70
     1
102
RTVSPost2010Prop37
 90
       50
102
RTVSPost2010PropOp37
 70
     1
102
RTVSPost2010Prop38
140
0.0
102
RTVSPost2010PropOp38
 70
     1
102
RTVSPost2010Prop39
140
1.0
102
RTVSPost2010PropOp39
 70
     1
102
RTVSPost2010Prop40
 90
        0
102
RTVSPost2010PropOp40
 70
     1
102
RTVSPost2010Prop41ColorIndex
 90
       18
102
RTVSPost2010Prop41ColorRGB
 90
        0
102
RTVSPost2010PropOp41
 70
     1
102
RTVSPost2010Prop42
 90
       50
102
RTVSPost2010PropOp42
 70
     1
102
RTVSPost2010Prop43
 90
        3
102
RTVSPost2010PropOp43
 70
     1
102
RTVSPost2010Prop44ColorIndex
 90
        5
102
RTVSPost2010Prop44ColorRGB
 90
      255
102
RTVSPost2010PropOp44
 70
     1
102
RTVSPost2010Prop45
280
     0
102
RTVSPost2010PropOp45
 70
     1
102
RTVSPost2010Prop46
 90
       50
102
RTVSPost2010PropOp46
 70
     1
102
RTVSPost2010Prop47
 90
       50
102
RTVSPost2010PropOp47
 70
     1
102
RTVSPost2010Prop48
 90
       50
102
RTVSPost2010PropOp48
 70
     1
102
RTVSPost2010Prop49
280
     0
102
RTVSPost2010PropOp49
 70
     1
102
RTVSPost2010Prop50
 90
       50
102
RTVSPost2010PropOp50
 70
     1
102
RTVSPost2010Prop51ColorIndex
 90
      256
102
RTVSPost2010Prop51ColorRGB
 90
-16777216
102
RTVSPost2010PropOp51
 70
     0
102
RTVSPost2010Prop52
140
1.0
102
RTVSPost2010PropOp52
 70
     0
102
RTVSPost2010Prop53
 90
        2
102
RTVSPost2010PropOp53
 70
     1
102
RTVSPost2010Prop54
  1
strokes_ogs.tif
102
RTVSPost2010PropOp54
 70
     1
102
RTVSPost2010Prop55
280
     0
102
RTVSPost2010PropOp55
 70
     1
102
RTVSPost2010Prop56
140
1.0
102
RTVSPost2010PropOp56
 70
     1
102
RTVSPost2010Prop57
140
1.0
102
RTVSPost2010PropOp57
 70
     1
  0
XRECORD
  5
54A
102
{ACAD_REACTORS
330
549
102
}
330
549
100
AcDbXrecord
280
     1
102
RTVSPropertyOp0
 70
     1
102
RTVSPropertyOp1
 70
     1
102
RTVSPropertyOp2
 70
     1
102
RTVSPropertyOp3
 70
     1
102
RTVSPropertyOp4
 70
     1
102
RTVSPropertyOp5
 70
     1
102
RTVSPropertyOp6
 70
     1
102
RTVSPropertyOp7
 70
     1
102
RTVSPropertyOp8
 70
     1
102
RTVSPropertyOp9
 70
     1
102
RTVSPropertyOp10
 70
     1
102
RTVSPropertyOp11
 70
     1
102
RTVSPropertyOp12
 70
     1
102
RTVSPropertyOp13
 70
     1
102
RTVSPropertyOp14
 70
     1
102
RTVSPropertyOp15
 70
     1
102
RTVSPropertyOp16
 70
     1
102
RTVSPropertyOp17
 70
     1
102
RTVSPropertyOp18
 70
     1
102
RTVSPropertyOp19
 70
     1
102
RTVSPropertyOp20
 70
     1
102
RTVSPropertyOp21
 70
     1
102
RTVSPropertyOp22
 70
     1
102
RTVSPropertyOp23
 70
     1
102
RTVSPropertyOp24
 70
     1
102
RTVSPropertyOp25
 70
     1
102
RTVSPropertyOp26
 70
     1
102
RTVSPropertyOp27
 70
     1
102
RTVSPropertyOp28
 70
     1
102
RTVSPropertyOp29
 70
     1
102
RTVSPropertyOp30
 70
     1
102
RTVSPropertyOp31
 70
     1
102
RTVSPropertyOp32
 70
     1
102
RTVSPropertyOp33
 70
     1
102
RTVSPropertyOp34
 70
     1
102
RTVSPropertyOp35
 70
     1
102
RTVSPropertyOp36
 70
     1
102
RTVSPropertyOp37
 70
     1
102
RTVSPropertyOp38
 70
     1
102
RTVSPropertyOp39
 70
     1
102
RTVSPropertyOp40
 70
     1
102
RTVSPropertyOp41
 70
     1
102
RTVSPropertyOp42
 70
     1
102
RTVSPropertyOp43
 70
     1
102
RTVSPropertyOp44
 70
     1
102
RTVSPropertyOp45
 70
     1
102
RTVSPropertyOp46
 70
     1
102
RTVSPropertyOp47
 70
     1
102
RTVSPropertyOp48
 70
     1
102
RTVSPropertyOp49
 70
     1
102
RTVSPropertyOp50
 70
     1
102
RTVSPropertyOp51
 70
     0
102
RTVSPropertyOp52
 70
     0
102
RTVSPropertyOp53
 70
     1
102
RTVSPropertyOp54
 70
     1
102
RTVSPropertyOp55
 70
     1
102
RTVSPropertyOp56
 70
     1
102
RTVSPropertyOp57
 70
     1
102
RTVSPost2010Prop28
280
     0
102
RTVSPost2010PropOp28
 70
     1
102
RTVSPost2010Prop29
280
     1
102
RTVSPost2010PropOp29
 70
     1
102
RTVSPost2010Prop30
280
     1
102
RTVSPost2010PropOp30
 70
     1
102
RTVSPost2010Prop31
280
     0
102
RTVSPost2010PropOp31
 70
     1
102
RTVSPost2010Prop32
280
     0
102
RTVSPost2010PropOp32
 70
     1
102
RTVSPost2010Prop33
280
     0
102
RTVSPost2010PropOp33
 70
     1
102
RTVSPost2010Prop34
280
     0
102
RTVSPost2010PropOp34
 70
     1
102
RTVSPost2010Prop35
280
     0
102
RTVSPost2010PropOp35
 70
     1
102
RTVSPost2010Prop36
280
     0
102
RTVSPost2010PropOp36
 70
     1
102
RTVSPost2010Prop37
 90
       50
102
RTVSPost2010PropOp37
 70
     1
102
RTVSPost2010Prop38
140
0.0
102
RTVSPost2010PropOp38
 70
     1
102
RTVSPost2010Prop39
140
1.0
102
RTVSPost2010PropOp39
 70
     1
102
RTVSPost2010Prop40
 90
        0
102
RTVSPost2010PropOp40
 70
     1
102
RTVSPost2010Prop41ColorIndex
 90
       18
102
RTVSPost2010Prop41ColorRGB
 90
        0
102
RTVSPost2010PropOp41
 70
     1
102
RTVSPost2010Prop42
 90
       50
102
RTVSPost2010PropOp42
 70
     1
102
RTVSPost2010Prop43
 90
        3
102
RTVSPost2010PropOp43
 70
     1
102
RTVSPost2010Prop44ColorIndex
 90
        5
102
RTVSPost2010Prop44ColorRGB
 90
      255
102
RTVSPost2010PropOp44
 70
     1
102
RTVSPost2010Prop45
280
     0
102
RTVSPost2010PropOp45
 70
     1
102
RTVSPost2010Prop46
 90
       50
102
RTVSPost2010PropOp46
 70
     1
102
RTVSPost2010Prop47
 90
       50
102
RTVSPost2010PropOp47
 70
     1
102
RTVSPost2010Prop48
 90
       50
102
RTVSPost2010PropOp48
 70
     1
102
RTVSPost2010Prop49
280
     0
102
RTVSPost2010PropOp49
 70
     1
102
RTVSPost2010Prop50
 90
       50
102
RTVSPost2010PropOp50
 70
     1
102
RTVSPost2010Prop51ColorIndex
 90
      256
102
RTVSPost2010Prop51ColorRGB
 90
-16777216
102
RTVSPost2010PropOp51
 70
     0
102
RTVSPost2010Prop52
140
1.0
102
RTVSPost2010PropOp52
 70
     0
102
RTVSPost2010Prop53
 90
        2
102
RTVSPost2010PropOp53
 70
     1
102
RTVSPost2010Prop54
  1
strokes_ogs.tif
102
RTVSPost2010PropOp54
 70
     1
102
RTVSPost2010Prop55
280
     0
102
RTVSPost2010PropOp55
 70
     1
102
RTVSPost2010Prop56
140
1.0
102
RTVSPost2010PropOp56
 70
     1
102
RTVSPost2010Prop57
140
1.0
102
RTVSPost2010PropOp57
 70
     1
  0
ENDSEC
  0
EOF
