  0
SECTION
  2
HEADER
  9
$ACADVER
  1
AC1018
  9
$ACADMAINTVER
 70
     0
  9
$DWGCODEPAGE
  3
ANSI_936
  9
$INSBASE
 10
0.0
 20
0.0
 30
0.0
  9
$EXTMIN
 10
1471.6005859375
 20
2044.000000252454
 30
0.0
  9
$EXTMAX
 10
2641.60058670299
 20
2532.000000312344
 30
0.0
  9
$LIMMIN
 10
0.0
 20
0.0
  9
$LIMMAX
 10
12.0
 20
9.0
  9
$ORTHOMODE
 70
     0
  9
$REGENMODE
 70
     1
  9
$FILLMODE
 70
     1
  9
$QTEXTMODE
 70
     0
  9
$MIRRTEXT
 70
     1
  9
$LTSCALE
 40
1.0
  9
$ATTMODE
 70
     1
  9
$TEXTSIZE
 40
0.2
  9
$TRACEWID
 40
0.05
  9
$TEXTSTYLE
  7
Standard
  9
$CLAYER
  8
0
  9
$CELTYPE
  6
ByLayer
  9
$CECOLOR
 62
   256
  9
$CELTSCALE
 40
1.0
  9
$DISPSILH
 70
     0
  9
$DIMSCALE
 40
1.0
  9
$DIMASZ
 40
0.18
  9
$DIMEXO
 40
0.0625
  9
$DIMDLI
 40
0.38
  9
$DIMRND
 40
0.0
  9
$DIMDLE
 40
0.0
  9
$DIMEXE
 40
0.18
  9
$DIMTP
 40
0.0
  9
$DIMTM
 40
0.0
  9
$DIMTXT
 40
0.18
  9
$DIMCEN
 40
0.09
  9
$DIMTSZ
 40
0.0
  9
$DIMTOL
 70
     0
  9
$DIMLIM
 70
     0
  9
$DIMTIH
 70
     1
  9
$DIMTOH
 70
     1
  9
$DIMSE1
 70
     0
  9
$DIMSE2
 70
     0
  9
$DIMTAD
 70
     0
  9
$DIMZIN
 70
     0
  9
$DIMBLK
  1

  9
$DIMASO
 70
     1
  9
$DIMSHO
 70
     1
  9
$DIMPOST
  1

  9
$DIMAPOST
  1

  9
$DIMALT
 70
     0
  9
$DIMALTD
 70
     2
  9
$DIMALTF
 40
25.4
  9
$DIMLFAC
 40
1.0
  9
$DIMTOFL
 70
     0
  9
$DIMTVP
 40
0.0
  9
$DIMTIX
 70
     0
  9
$DIMSOXD
 70
     0
  9
$DIMSAH
 70
     0
  9
$DIMBLK1
  1

  9
$DIMBLK2
  1

  9
$DIMSTYLE
  2
Standard
  9
$DIMCLRD
 70
     0
  9
$DIMCLRE
 70
     0
  9
$DIMCLRT
 70
     0
  9
$DIMTFAC
 40
1.0
  9
$DIMGAP
 40
0.09
  9
$DIMJUST
 70
     0
  9
$DIMSD1
 70
     0
  9
$DIMSD2
 70
     0
  9
$DIMTOLJ
 70
     1
  9
$DIMTZIN
 70
     0
  9
$DIMALTZ
 70
     0
  9
$DIMALTTZ
 70
     0
  9
$DIMUPT
 70
     0
  9
$DIMDEC
 70
     4
  9
$DIMTDEC
 70
     4
  9
$DIMALTU
 70
     2
  9
$DIMALTTD
 70
     2
  9
$DIMTXSTY
  7
Standard
  9
$DIMAUNIT
 70
     0
  9
$DIMADEC
 70
     0
  9
$DIMALTRND
 40
0.0
  9
$DIMAZIN
 70
     0
  9
$DIMDSEP
 70
    46
  9
$DIMATFIT
 70
     3
  9
$DIMFRAC
 70
     0
  9
$DIMLDRBLK
  1

  9
$DIMLUNIT
 70
     2
  9
$DIMLWD
 70
    -2
  9
$DIMLWE
 70
    -2
  9
$DIMTMOVE
 70
     2
  9
$LUNITS
 70
     2
  9
$LUPREC
 70
     4
  9
$SKETCHINC
 40
0.1
  9
$FILLETRAD
 40
0.5
  9
$AUNITS
 70
     0
  9
$AUPREC
 70
     0
  9
$MENU
  1
.
  9
$ELEVATION
 40
0.0
  9
$PELEVATION
 40
0.0
  9
$THICKNESS
 40
0.0
  9
$LIMCHECK
 70
     0
  9
$CHAMFERA
 40
0.5
  9
$CHAMFERB
 40
0.5
  9
$CHAMFERC
 40
1.0
  9
$CHAMFERD
 40
0.0
  9
$SKPOLY
 70
     0
  9
$TDCREATE
 40
2456469.7280611
  9
$TDUCREATE
 40
2456469.644727766
  9
$TDUPDATE
 40
2456469.728061111
  9
$TDUUPDATE
 40
2456469.644727778
  9
$TDINDWG
 40
0.0000000116
  9
$TDUSRTIMER
 40
0.0000000116
  9
$USRTIMER
 70
     1
  9
$ANGBASE
 50
0.0
  9
$ANGDIR
 70
     0
  9
$PDMODE
 70
     0
  9
$PDSIZE
 40
0.0
  9
$PLINEWID
 40
0.0
  9
$SPLFRAME
 70
     0
  9
$SPLINETYPE
 70
     6
  9
$SPLINESEGS
 70
     8
  9
$HANDSEED
  5
B3
  9
$SURFTAB1
 70
     6
  9
$SURFTAB2
 70
     6
  9
$SURFTYPE
 70
     6
  9
$SURFU
 70
     6
  9
$SURFV
 70
     6
  9
$UCSBASE
  2

  9
$UCSNAME
  2

  9
$UCSORG
 10
0.0
 20
0.0
 30
0.0
  9
$UCSXDIR
 10
1.0
 20
0.0
 30
0.0
  9
$UCSYDIR
 10
0.0
 20
1.0
 30
0.0
  9
$UCSORTHOREF
  2

  9
$UCSORTHOVIEW
 70
     0
  9
$UCSORGTOP
 10
0.0
 20
0.0
 30
0.0
  9
$UCSORGBOTTOM
 10
0.0
 20
0.0
 30
0.0
  9
$UCSORGLEFT
 10
0.0
 20
0.0
 30
0.0
  9
$UCSORGRIGHT
 10
0.0
 20
0.0
 30
0.0
  9
$UCSORGFRONT
 10
0.0
 20
0.0
 30
0.0
  9
$UCSORGBACK
 10
0.0
 20
0.0
 30
0.0
  9
$PUCSBASE
  2

  9
$PUCSNAME
  2

  9
$PUCSORG
 10
0.0
 20
0.0
 30
0.0
  9
$PUCSXDIR
 10
1.0
 20
0.0
 30
0.0
  9
$PUCSYDIR
 10
0.0
 20
1.0
 30
0.0
  9
$PUCSORTHOREF
  2

  9
$PUCSORTHOVIEW
 70
     0
  9
$PUCSORGTOP
 10
0.0
 20
0.0
 30
0.0
  9
$PUCSORGBOTTOM
 10
0.0
 20
0.0
 30
0.0
  9
$PUCSORGLEFT
 10
0.0
 20
0.0
 30
0.0
  9
$PUCSORGRIGHT
 10
0.0
 20
0.0
 30
0.0
  9
$PUCSORGFRONT
 10
0.0
 20
0.0
 30
0.0
  9
$PUCSORGBACK
 10
0.0
 20
0.0
 30
0.0
  9
$USERI1
 70
     0
  9
$USERI2
 70
     0
  9
$USERI3
 70
     0
  9
$USERI4
 70
     0
  9
$USERI5
 70
     0
  9
$USERR1
 40
0.0
  9
$USERR2
 40
0.0
  9
$USERR3
 40
0.0
  9
$USERR4
 40
0.0
  9
$USERR5
 40
0.0
  9
$WORLDVIEW
 70
     1
  9
$SHADEDGE
 70
     3
  9
$SHADEDIF
 70
    70
  9
$TILEMODE
 70
     1
  9
$MAXACTVP
 70
    64
  9
$PINSBASE
 10
0.0
 20
0.0
 30
0.0
  9
$PLIMCHECK
 70
     0
  9
$PEXTMIN
 10
1.000000000000000E+20
 20
1.000000000000000E+20
 30
1.000000000000000E+20
  9
$PEXTMAX
 10
-1.000000000000000E+20
 20
-1.000000000000000E+20
 30
-1.000000000000000E+20
  9
$PLIMMIN
 10
0.0
 20
0.0
  9
$PLIMMAX
 10
12.0
 20
9.0
  9
$UNITMODE
 70
     0
  9
$VISRETAIN
 70
     1
  9
$PLINEGEN
 70
     0
  9
$PSLTSCALE
 70
     1
  9
$TREEDEPTH
 70
  3020
  9
$CMLSTYLE
  2
Standard
  9
$CMLJUST
 70
     0
  9
$CMLSCALE
 40
1.0
  9
$PROXYGRAPHICS
 70
     1
  9
$MEASUREMENT
 70
     0
  9
$CELWEIGHT
370
    -1
  9
$ENDCAPS
280
     0
  9
$JOINSTYLE
280
     0
  9
$LWDISPLAY
290
     0
  9
$INSUNITS
 70
     4
  9
$HYPERLINKBASE
  1

  9
$STYLESHEET
  1

  9
$XEDIT
290
     1
  9
$CEPSNTYPE
380
     0
  9
$PSTYLEMODE
290
     1
  9
$FINGERPRINTGUID
  2
{A018932A-DD42-4587-9BEC-958B3D8A2A12}
  9
$VERSIONGUID
  2
{FAEB1C32-E019-11D5-929B-00C0DF256EC4}
  9
$EXTNAMES
290
     1
  9
$PSVPSCALE
 40
0.0
  9
$OLESTARTUP
290
     0
  9
$SORTENTS
280
   127
  9
$INDEXCTL
280
     0
  9
$HIDETEXT
280
     1
  9
$XCLIPFRAME
290
     0
  9
$HALOGAP
280
     0
  9
$OBSCOLOR
 70
   257
  9
$OBSLTYPE
280
     0
  9
$INTERSECTIONDISPLAY
280
     0
  9
$INTERSECTIONCOLOR
 70
   257
  9
$DIMASSOC
280
     2
  9
$PROJECTNAME
  1

  0
ENDSEC
  0
SECTION
  2
CLASSES
  0
CLASS
  1
ACDBDICTIONARYWDFLT
  2
AcDbDictionaryWithDefault
  3
ObjectDBX Classes
 90
        0
 91
        4
280
     0
281
     0
  0
CLASS
  1
VISUALSTYLE
  2
AcDbVisualStyle
  3
ObjectDBX Classes
 90
     4095
 91
        4
280
     0
281
     0
  0
ENDSEC
  0
SECTION
  2
TABLES
  0
TABLE
  2
VPORT
  5
8
330
0
100
AcDbSymbolTable
 70
     1
  0
VPORT
  5
29
330
8
100
AcDbSymbolTableRecord
100
AcDbViewportTableRecord
  2
*Active
 70
     0
 10
0.0
 20
0.0
 11
1.0
 21
1.0
 12
2056.600586320245
 22
2288.000000282399
 13
0.0
 23
0.0
 14
0.5
 24
0.5
 15
0.5
 25
0.5
 16
0.0
 26
0.0
 36
1.0
 17
0.0
 27
0.0
 37
0.0
 40
497.7600000610878
 41
2.397540984880946
 42
50.0
 43
0.0
 44
0.0
 50
0.0
 51
0.0
 71
     0
 72
   100
 73
     1
 74
     3
 75
     0
 76
     0
 77
     0
 78
     0
281
     0
 65
     1
110
0.0
120
0.0
130
0.0
111
1.0
121
0.0
131
0.0
112
0.0
122
1.0
132
0.0
 79
     0
146
0.0
  0
ENDTAB
  0
TABLE
  2
LTYPE
  5
5
330
0
100
AcDbSymbolTable
 70
     1
  0
LTYPE
  5
14
330
5
100
AcDbSymbolTableRecord
100
AcDbLinetypeTableRecord
  2
ByBlock
 70
     0
  3

 72
    65
 73
     0
 40
0.0
  0
LTYPE
  5
15
330
5
100
AcDbSymbolTableRecord
100
AcDbLinetypeTableRecord
  2
ByLayer
 70
     0
  3

 72
    65
 73
     0
 40
0.0
  0
LTYPE
  5
16
330
5
100
AcDbSymbolTableRecord
100
AcDbLinetypeTableRecord
  2
Continuous
 70
     0
  3
Solid line
 72
    65
 73
     0
 40
0.0
  0
ENDTAB
  0
TABLE
  2
LAYER
  5
2
330
0
100
AcDbSymbolTable
 70
     2
  0
LAYER
  5
10
330
2
100
AcDbSymbolTableRecord
100
AcDbLayerTableRecord
  2
0
 70
     0
 62
     7
  6
Continuous
370
    -3
390
F
  0
LAYER
  5
3B
330
2
100
AcDbSymbolTableRecord
100
AcDbLayerTableRecord
  2
MAKE2D VISIBLE LINES
 70
     0
 62
     7
  6
Continuous
370
    -3
390
F
  0
ENDTAB
  0
TABLE
  2
STYLE
  5
3
330
0
100
AcDbSymbolTable
 70
     1
  0
STYLE
  5
11
330
3
100
AcDbSymbolTableRecord
100
AcDbTextStyleTableRecord
  2
Standard
 70
     0
 40
0.0
 41
1.0
 50
0.0
 71
     0
 42
0.2
  3
txt
  4

  0
ENDTAB
  0
TABLE
  2
VIEW
  5
6
330
0
100
AcDbSymbolTable
 70
     0
  0
ENDTAB
  0
TABLE
  2
UCS
  5
7
330
0
100
AcDbSymbolTable
 70
     0
  0
ENDTAB
  0
TABLE
  2
APPID
  5
9
330
0
100
AcDbSymbolTable
 70
     1
  0
APPID
  5
12
330
9
100
AcDbSymbolTableRecord
100
AcDbRegAppTableRecord
  2
ACAD
 70
     0
  0
ENDTAB
  0
TABLE
  2
DIMSTYLE
  5
A
330
0
100
AcDbSymbolTable
 70
     1
100
AcDbDimStyleTable
  0
DIMSTYLE
105
27
330
A
100
AcDbSymbolTableRecord
100
AcDbDimStyleTableRecord
  2
Standard
 70
     0
340
11
  0
ENDTAB
  0
TABLE
  2
BLOCK_RECORD
  5
1
330
0
100
AcDbSymbolTable
 70
     1
  0
BLOCK_RECORD
  5
1F
330
1
100
AcDbSymbolTableRecord
100
AcDbBlockTableRecord
  2
*Model_Space
340
22
  0
BLOCK_RECORD
  5
1B
330
1
100
AcDbSymbolTableRecord
100
AcDbBlockTableRecord
  2
*Paper_Space
340
1E
  0
BLOCK_RECORD
  5
23
330
1
100
AcDbSymbolTableRecord
100
AcDbBlockTableRecord
  2
*Paper_Space0
340
26
  0
ENDTAB
  0
ENDSEC
  0
SECTION
  2
BLOCKS
  0
BLOCK
  5
20
330
1F
100
AcDbEntity
  8
0
100
AcDbBlockBegin
  2
*Model_Space
 70
     0
 10
0.0
 20
0.0
 30
0.0
  3
*Model_Space
  1

  0
ENDBLK
  5
21
330
1F
100
AcDbEntity
  8
0
100
AcDbBlockEnd
  0
BLOCK
  5
1C
330
1B
100
AcDbEntity
 67
     1
  8
0
100
AcDbBlockBegin
  2
*Paper_Space
 70
     0
 10
0.0
 20
0.0
 30
0.0
  3
*Paper_Space
  1

  0
ENDBLK
  5
1D
330
1B
100
AcDbEntity
 67
     1
  8
0
100
AcDbBlockEnd
  0
BLOCK
  5
24
330
23
100
AcDbEntity
  8
0
100
AcDbBlockBegin
  2
*Paper_Space0
 70
     0
 10
0.0
 20
0.0
 30
0.0
  3
*Paper_Space0
  1

  0
ENDBLK
  5
25
330
23
100
AcDbEntity
  8
0
100
AcDbBlockEnd
  0
ENDSEC
  0
SECTION
  2
ENTITIES
  0
LINE
  5
3C
330
1F
100
AcDbEntity
  8
MAKE2D VISIBLE LINES
100
AcDbLine
 10
1666.100586402836
 20
2044.000000312344
 30
0.0
 11
1665.100586402837
 21
2044.000000312344
 31
0.0
  0
LINE
  5
3D
330
1F
100
AcDbEntity
  8
MAKE2D VISIBLE LINES
100
AcDbLine
 10
1664.100586402836
 20
2045.000000312344
 30
0.0
 11
1664.100586402837
 21
2061.000000312344
 31
0.0
  0
LINE
  5
3E
330
1F
100
AcDbEntity
  8
MAKE2D VISIBLE LINES
100
AcDbLine
 10
1667.100586402837
 20
2045.000000312344
 30
0.0
 11
1667.100586402837
 21
2061.000000312344
 31
0.0
  0
LINE
  5
3F
330
1F
100
AcDbEntity
  8
MAKE2D VISIBLE LINES
100
AcDbLine
 10
1764.100586402839
 20
2061.051703058227
 30
0.0
 11
1764.100586402839
 21
2061.044580556506
 31
0.0
  0
LINE
  5
40
330
1F
100
AcDbEntity
  8
MAKE2D VISIBLE LINES
100
AcDbLine
 10
1665.100586402837
 20
2062.000000312344
 30
0.0
 11
1666.100586402836
 21
2062.000000312344
 31
0.0
  0
LINE
  5
41
330
1F
100
AcDbEntity
  8
MAKE2D VISIBLE LINES
100
AcDbLine
 10
1764.098563857145
 20
2044.455073093395
 30
0.0
 11
1764.100091277365
 21
2044.477754406554
 31
0.0
  0
LINE
  5
42
330
1F
100
AcDbEntity
  8
MAKE2D VISIBLE LINES
100
AcDbLine
 10
1764.09905309778
 20
2061.539127720052
 30
0.0
 11
1764.100091277365
 21
2061.522246218136
 31
0.0
  0
LINE
  5
43
330
1F
100
AcDbEntity
  8
MAKE2D VISIBLE LINES
100
AcDbLine
 10
2627.60058670299
 20
2062.000000312344
 30
0.0
 11
2640.60058670299
 21
2062.000000312344
 31
0.0
  0
LINE
  5
44
330
1F
100
AcDbEntity
  8
MAKE2D VISIBLE LINES
100
AcDbLine
 10
2641.60058670299
 20
2063.000000312344
 30
0.0
 11
2641.60058670299
 21
2531.000000312344
 31
0.0
  0
LINE
  5
45
330
1F
100
AcDbEntity
  8
MAKE2D VISIBLE LINES
100
AcDbLine
 10
2640.600586702991
 20
2532.000000312344
 30
0.0
 11
2627.600586702989
 21
2532.000000312344
 31
0.0
  0
LINE
  5
46
330
1F
100
AcDbEntity
  8
MAKE2D VISIBLE LINES
100
AcDbLine
 10
2626.600586702989
 20
2531.000000312344
 30
0.0
 11
2626.60058670299
 21
2063.000000312344
 31
0.0
  0
LINE
  5
47
330
1F
100
AcDbEntity
  8
MAKE2D VISIBLE LINES
100
AcDbLine
 10
1471.6005859375
 20
2061.500000312344
 30
0.0
 11
1471.600585937504
 21
2061.000000312342
 31
0.0
  0
LINE
  5
48
330
1F
100
AcDbEntity
  8
MAKE2D VISIBLE LINES
100
AcDbLine
 10
1763.600586402839
 20
2044.000000312344
 30
0.0
 11
1666.141251642972
 21
2044.000000312344
 31
0.0
  0
ARC
  5
49
330
1F
100
AcDbEntity
  8
MAKE2D VISIBLE LINES
100
AcDbCircle
 10
2056.1005817157
 20
2061.499995577933
 30
0.0
 40
0.5000049874348169
100
AcDbArc
 50
0.002010058422167
 51
87.44521343279713
  0
ARC
  5
4A
330
1F
100
AcDbEntity
  8
MAKE2D VISIBLE LINES
100
AcDbCircle
 10
2348.600646454921
 20
2044.499940196687
 30
0.0
 40
0.4999399442321398
100
AcDbArc
 50
269.9931177115828
 51
359.9999289492808
  0
ARC
  5
4B
330
1F
100
AcDbEntity
  8
MAKE2D VISIBLE LINES
100
AcDbCircle
 10
1763.600646389819
 20
2044.49994025443
 30
0.0
 40
0.4999400019672141
100
AcDbArc
 50
269.9931251734485
 51
359.9928906657338
  0
ARC
  5
4C
330
1F
100
AcDbEntity
  8
MAKE2D VISIBLE LINES
100
AcDbCircle
 10
1472.100589692782
 20
2061.499997378761
 30
0.0
 40
0.500002989874834
100
AcDbArc
 50
90.00034260268824
 51
179.9981963529363
  0
ARC
  5
4D
330
1F
100
AcDbEntity
  8
MAKE2D VISIBLE LINES
100
AcDbCircle
 10
2057.100587071511
 20
2061.500000026761
 30
0.0
 40
0.5000003685200456
100
AcDbArc
 50
92.55416792138087
 51
179.9999171219542
  0
ARC
  5
4E
330
1F
100
AcDbEntity
  8
MAKE2D VISIBLE LINES
100
AcDbCircle
 10
2057.100587772874
 20
2047.500001069899
 30
0.0
 40
0.5000010699000164
100
AcDbArc
 50
180.0011517241407
 51
269.9998774007325
  0
ARC
  5
4F
330
1F
100
AcDbEntity
  8
MAKE2D VISIBLE LINES
100
AcDbCircle
 10
1472.100587772872
 20
2047.500001069897
 30
0.0
 40
0.5000010698984247
100
AcDbArc
 50
180.0011516339381
 51
269.9998774009931
  0
ARC
  5
50
330
1F
100
AcDbEntity
  8
MAKE2D VISIBLE LINES
100
AcDbCircle
 10
1764.600587371974
 20
2061.500000026403
 30
0.0
 40
0.5000003688375222
100
AcDbArc
 50
92.55460623197739
 51
179.9989396489316
  0
LINE
  5
51
330
1F
100
AcDbEntity
  8
MAKE2D VISIBLE LINES
100
AcDbLine
 10
1472.600586702992
 20
2062.000000312344
 30
0.0
 11
1485.600586702992
 21
2062.000000312344
 31
0.0
  0
ARC
  5
52
330
1F
100
AcDbEntity
  8
MAKE2D VISIBLE LINES
100
AcDbCircle
 10
2640.600586702988
 20
2531.000000312342
 30
0.0
 40
1.000000000001364
100
AcDbArc
 50
0.0000000001042204
 51
89.99999999986973
  0
ARC
  5
53
330
1F
100
AcDbEntity
  8
MAKE2D VISIBLE LINES
100
AcDbCircle
 10
2627.600586702988
 20
2531.000000312345
 30
0.0
 40
0.9999999999995453
100
AcDbArc
 50
89.99999999997395
 51
180.0000000000521
  0
LINE
  5
54
330
1F
100
AcDbEntity
  8
MAKE2D VISIBLE LINES
100
AcDbLine
 10
1485.600586702992
 20
2532.000000312344
 30
0.0
 11
1472.600586702992
 21
2532.000000312344
 31
0.0
  0
ARC
  5
55
330
1F
100
AcDbEntity
  8
MAKE2D VISIBLE LINES
100
AcDbCircle
 10
1485.600586702992
 20
2531.000000312345
 30
0.0
 40
0.9999999999990905
100
AcDbArc
 50
359.999999999974
 51
90.00000000003908
  0
ARC
  5
56
330
1F
100
AcDbEntity
  8
MAKE2D VISIBLE LINES
100
AcDbCircle
 10
1472.600586702991
 20
2531.000000312344
 30
0.0
 40
1.000000000000227
100
AcDbArc
 50
89.99999999996092
 51
180.0000000000261
  0
LINE
  5
57
330
1F
100
AcDbEntity
  8
MAKE2D VISIBLE LINES
100
AcDbLine
 10
1665.006583966172
 20
2062.000000312344
 30
0.0
 11
1665.055014997702
 21
2062.000000312344
 31
0.0
  0
LINE
  5
58
330
1F
100
AcDbEntity
  8
MAKE2D VISIBLE LINES
100
AcDbLine
 10
1666.139528185731
 20
2062.000000312344
 30
0.0
 11
1666.146268957003
 21
2062.000000312344
 31
0.0
  0
LINE
  5
59
330
1F
100
AcDbEntity
  8
MAKE2D VISIBLE LINES
100
AcDbLine
 10
1862.054904449051
 20
2062.000000312344
 30
0.0
 11
1862.061645220391
 21
2062.000000312344
 31
0.0
  0
LINE
  5
5A
330
1F
100
AcDbEntity
  8
MAKE2D VISIBLE LINES
100
AcDbLine
 10
1863.146158383367
 20
2062.000000312344
 30
0.0
 11
1863.194589439151
 21
2062.000000312344
 31
0.0
  0
LINE
  5
5B
330
1F
100
AcDbEntity
  8
MAKE2D VISIBLE LINES
100
AcDbLine
 10
1486.600586702992
 20
2063.000000312344
 30
0.0
 11
1486.600586702992
 21
2531.000000312344
 31
0.0
  0
LINE
  5
5C
330
1F
100
AcDbEntity
  8
MAKE2D VISIBLE LINES
100
AcDbLine
 10
1471.600586702991
 20
2531.000000312344
 30
0.0
 11
1471.600586702992
 21
2063.000000312344
 31
0.0
  0
ARC
  5
5D
330
1F
100
AcDbEntity
  8
MAKE2D VISIBLE LINES
100
AcDbCircle
 10
1472.600586702991
 20
2063.000000312344
 30
0.0
 40
1.0
100
AcDbArc
 50
179.9999999999739
 51
270.000000000013
  0
ARC
  5
5E
330
1F
100
AcDbEntity
  8
MAKE2D VISIBLE LINES
100
AcDbCircle
 10
1485.600586702991
 20
2063.000000312345
 30
0.0
 40
1.000000000000227
100
AcDbArc
 50
270.000000000013
 51
359.9999999999479
  0
ARC
  5
5F
330
1F
100
AcDbEntity
  8
MAKE2D VISIBLE LINES
100
AcDbCircle
 10
2627.60058670299
 20
2063.000000312343
 30
0.0
 40
0.9999999999995453
100
AcDbArc
 50
179.9999999999739
 51
270.0
  0
ARC
  5
60
330
1F
100
AcDbEntity
  8
MAKE2D VISIBLE LINES
100
AcDbCircle
 10
2640.60058670299
 20
2063.000000312343
 30
0.0
 40
0.9999999999995453
100
AcDbArc
 50
269.999999999974
 51
0.0000000000260551
  0
LINE
  5
61
330
1F
100
AcDbEntity
  8
MAKE2D VISIBLE LINES
100
AcDbLine
 10
2056.600091576331
 20
2047.477754379924
 30
0.0
 11
2056.599604380624
 21
2047.468673687743
 31
0.0
  0
LINE
  5
62
330
1F
100
AcDbEntity
  8
MAKE2D VISIBLE LINES
100
AcDbLine
 10
1764.600587003143
 20
2044.000000312344
 30
0.0
 11
1862.05992176301
 21
2044.000000312344
 31
0.0
  0
LINE
  5
63
330
1F
100
AcDbEntity
  8
MAKE2D VISIBLE LINES
100
AcDbLine
 10
1861.100587003145
 20
2045.000000312344
 30
0.0
 11
1861.100587003145
 21
2061.000000312344
 31
0.0
  0
LINE
  5
64
330
1F
100
AcDbEntity
  8
MAKE2D VISIBLE LINES
100
AcDbLine
 10
1864.100587003145
 20
2045.000000312344
 30
0.0
 11
1864.100587003145
 21
2061.000000312344
 31
0.0
  0
LINE
  5
65
330
1F
100
AcDbEntity
  8
MAKE2D VISIBLE LINES
100
AcDbLine
 10
2056.599053398294
 20
2061.53912771543
 30
0.0
 11
2056.60009157633
 21
2061.522246244764
 31
0.0
  0
LINE
  5
66
330
1F
100
AcDbEntity
  8
MAKE2D VISIBLE LINES
100
AcDbLine
 10
1862.100587003146
 20
2044.000000312344
 30
0.0
 11
1863.100587003145
 21
2044.000000312344
 31
0.0
  0
LINE
  5
67
330
1F
100
AcDbEntity
  8
MAKE2D VISIBLE LINES
100
AcDbLine
 10
1764.1005859375
 20
2061.500000312344
 30
0.0
 11
1764.100585937505
 21
2061.051703058227
 31
0.0
  0
LINE
  5
68
330
1F
100
AcDbEntity
  8
MAKE2D VISIBLE LINES
100
AcDbLine
 10
1764.100587003142
 20
2061.044580556506
 30
0.0
 11
1764.100587003143
 21
2061.000000312341
 31
0.0
  0
LINE
  5
69
330
1F
100
AcDbEntity
  8
MAKE2D VISIBLE LINES
100
AcDbLine
 10
1764.100587003143
 20
2045.000000312346
 30
0.0
 11
1764.100587003143
 21
2061.000000312341
 31
0.0
  0
LINE
  5
6A
330
1F
100
AcDbEntity
  8
MAKE2D VISIBLE LINES
100
AcDbLine
 10
1764.100587844849
 20
2044.500000312344
 30
0.0
 11
1764.100587844858
 21
2045.000000312346
 31
0.0
  0
LINE
  5
6B
330
1F
100
AcDbEntity
  8
MAKE2D VISIBLE LINES
100
AcDbLine
 10
1863.100587003145
 20
2062.000000312344
 30
0.0
 11
1862.100587003145
 21
2062.000000312344
 31
0.0
  0
ARC
  5
6C
330
1F
100
AcDbEntity
  8
MAKE2D VISIBLE LINES
100
AcDbCircle
 10
1663.100586402835
 20
2061.000000312343
 30
0.0
 40
1.000000000001592
100
AcDbArc
 50
0.0000000000521102
 51
87.44588126763274
  0
ARC
  5
6D
330
1F
100
AcDbEntity
  8
MAKE2D VISIBLE LINES
100
AcDbCircle
 10
1663.100586402836
 20
2048.000000312345
 30
0.0
 40
1.000000000000682
100
AcDbArc
 50
270.000000000026
 51
357.4448933478145
  0
LINE
  5
6E
330
1F
100
AcDbEntity
  8
MAKE2D VISIBLE LINES
100
AcDbLine
 10
1472.100586702992
 20
2047.000000312344
 30
0.0
 11
1663.100586402837
 21
2047.000000312344
 31
0.0
  0
LINE
  5
6F
330
1F
100
AcDbEntity
  8
MAKE2D VISIBLE LINES
100
AcDbLine
 10
1663.145166647142
 20
2047.000000312344
 30
0.0
 11
1664.100586402163
 21
2047.000000312344
 31
0.0
  0
LINE
  5
70
330
1F
100
AcDbEntity
  8
MAKE2D VISIBLE LINES
100
AcDbLine
 10
1487.600586703038
 20
2062.000000312344
 30
0.0
 11
1485.645166947181
 21
2062.000000312344
 31
0.0
  0
LINE
  5
71
330
1F
100
AcDbEntity
  8
MAKE2D VISIBLE LINES
100
AcDbLine
 10
1472.556006458845
 20
2062.000000312344
 30
0.0
 11
1472.100586702992
 21
2062.000000312344
 31
0.0
  0
LINE
  5
72
330
1F
100
AcDbEntity
  8
MAKE2D VISIBLE LINES
100
AcDbLine
 10
1471.600586702992
 20
2048.000000312344
 30
0.0
 11
1471.600586702991
 21
2047.500000312342
 31
0.0
  0
LINE
  5
73
330
1F
100
AcDbEntity
  8
MAKE2D VISIBLE LINES
100
AcDbLine
 10
1471.600586702992
 20
2048.000000312344
 30
0.0
 11
1471.600586702992
 21
2061.000000312342
 31
0.0
  0
ARC
  5
74
330
1F
100
AcDbEntity
  8
MAKE2D VISIBLE LINES
100
AcDbCircle
 10
1865.100587003146
 20
2061.000000312343
 30
0.0
 40
1.000000000000682
100
AcDbArc
 50
92.5542107379073
 51
179.9999999999739
  0
LINE
  5
75
330
1F
100
AcDbEntity
  8
MAKE2D VISIBLE LINES
100
AcDbLine
 10
2349.102120308201
 20
2044.460872904636
 30
0.0
 11
2349.101082128616
 21
2044.477754406554
 31
0.0
  0
LINE
  5
76
330
1F
100
AcDbEntity
  8
MAKE2D VISIBLE LINES
100
AcDbLine
 10
2349.101568997849
 20
2061.531321717032
 30
0.0
 11
2349.101082128617
 21
2061.522246218136
 31
0.0
  0
ARC
  5
77
330
1F
100
AcDbEntity
  8
MAKE2D VISIBLE LINES
100
AcDbCircle
 10
1865.100587003145
 20
2048.000000312344
 30
0.0
 40
0.9999999999997726
100
AcDbArc
 50
182.5551066521352
 51
270.000000000013
  0
LINE
  5
78
330
1F
100
AcDbEntity
  8
MAKE2D VISIBLE LINES
100
AcDbLine
 10
2056.10058670299
 20
2047.000000312344
 30
0.0
 11
1865.100587003145
 21
2047.000000312344
 31
0.0
  0
LINE
  5
79
330
1F
100
AcDbEntity
  8
MAKE2D VISIBLE LINES
100
AcDbLine
 10
1865.05600675884
 20
2047.000000312344
 30
0.0
 11
1864.100587003818
 21
2047.000000312344
 31
0.0
  0
LINE
  5
7A
330
1F
100
AcDbEntity
  8
MAKE2D VISIBLE LINES
100
AcDbLine
 10
2448.100587003145
 20
2062.000000312344
 30
0.0
 11
2447.100587003145
 21
2062.000000312344
 31
0.0
  0
LINE
  5
7B
330
1F
100
AcDbEntity
  8
MAKE2D VISIBLE LINES
100
AcDbLine
 10
2349.1005859375
 20
2044.500000312344
 30
0.0
 11
2349.100585937494
 21
2045.000000312346
 31
0.0
  0
LINE
  5
7C
330
1F
100
AcDbEntity
  8
MAKE2D VISIBLE LINES
100
AcDbLine
 10
2250.100586402837
 20
2062.000000312344
 30
0.0
 11
2251.100586402836
 21
2062.000000312344
 31
0.0
  0
ARC
  5
7D
330
1F
100
AcDbEntity
  8
MAKE2D VISIBLE LINES
100
AcDbCircle
 10
2450.100587003144
 20
2061.000000312345
 30
0.0
 40
0.9999999999995453
100
AcDbArc
 50
92.55411497824454
 51
180.0000000000521
  0
ARC
  5
7E
330
1F
100
AcDbEntity
  8
MAKE2D VISIBLE LINES
100
AcDbCircle
 10
2450.100587003144
 20
2048.000000312343
 30
0.0
 40
0.9999999999993179
100
AcDbArc
 50
182.5551066521103
 51
270.000000000026
  0
LINE
  5
7F
330
1F
100
AcDbEntity
  8
MAKE2D VISIBLE LINES
100
AcDbLine
 10
2450.05600675884
 20
2047.000000312344
 30
0.0
 11
2449.100587003818
 21
2047.000000312344
 31
0.0
  0
LINE
  5
80
330
1F
100
AcDbEntity
  8
MAKE2D VISIBLE LINES
100
AcDbLine
 10
2641.10058670299
 20
2047.000000312344
 30
0.0
 11
2450.100587003145
 21
2047.000000312344
 31
0.0
  0
LINE
  5
81
330
1F
100
AcDbEntity
  8
MAKE2D VISIBLE LINES
100
AcDbLine
 10
2625.600586702945
 20
2062.000000312344
 30
0.0
 11
2627.556006458801
 21
2062.000000312344
 31
0.0
  0
LINE
  5
82
330
1F
100
AcDbEntity
  8
MAKE2D VISIBLE LINES
100
AcDbLine
 10
2640.645166947136
 20
2062.000000312344
 30
0.0
 11
2641.10058670299
 21
2062.000000312344
 31
0.0
  0
LINE
  5
83
330
1F
100
AcDbEntity
  8
MAKE2D VISIBLE LINES
100
AcDbLine
 10
2641.60058670299
 20
2048.000000312344
 30
0.0
 11
2641.60058670299
 21
2047.500000312342
 31
0.0
  0
LINE
  5
84
330
1F
100
AcDbEntity
  8
MAKE2D VISIBLE LINES
100
AcDbLine
 10
2641.60058670299
 20
2048.000000312344
 30
0.0
 11
2641.600586702989
 21
2061.000000312342
 31
0.0
  0
LINE
  5
85
330
1F
100
AcDbEntity
  8
MAKE2D VISIBLE LINES
100
AcDbLine
 10
2641.6005859375
 20
2061.500000312344
 30
0.0
 11
2641.600585937494
 21
2061.000000312342
 31
0.0
  0
LINE
  5
86
330
1F
100
AcDbEntity
  8
MAKE2D VISIBLE LINES
100
AcDbLine
 10
2447.100587003146
 20
2044.000000312344
 30
0.0
 11
2448.100587003145
 21
2044.000000312344
 31
0.0
  0
LINE
  5
87
330
1F
100
AcDbEntity
  8
MAKE2D VISIBLE LINES
100
AcDbLine
 10
2349.600587003143
 20
2044.000000312344
 30
0.0
 11
2447.05992176301
 21
2044.000000312344
 31
0.0
  0
LINE
  5
88
330
1F
100
AcDbEntity
  8
MAKE2D VISIBLE LINES
100
AcDbLine
 10
2449.100587003145
 20
2045.000000312344
 30
0.0
 11
2449.100587003145
 21
2061.000000312344
 31
0.0
  0
LINE
  5
89
330
1F
100
AcDbEntity
  8
MAKE2D VISIBLE LINES
100
AcDbLine
 10
2446.100587003145
 20
2045.000000312344
 30
0.0
 11
2446.100587003145
 21
2061.000000312344
 31
0.0
  0
LINE
  5
8A
330
1F
100
AcDbEntity
  8
MAKE2D VISIBLE LINES
100
AcDbLine
 10
2349.100587003143
 20
2061.051703058227
 30
0.0
 11
2349.100587003143
 21
2061.044580556506
 31
0.0
  0
LINE
  5
8B
330
1F
100
AcDbEntity
  8
MAKE2D VISIBLE LINES
100
AcDbLine
 10
2349.1005859375
 20
2061.500000312344
 30
0.0
 11
2349.100585937495
 21
2061.051703058227
 31
0.0
  0
LINE
  5
8C
330
1F
100
AcDbEntity
  8
MAKE2D VISIBLE LINES
100
AcDbLine
 10
2349.100586402839
 20
2061.044580556506
 30
0.0
 11
2349.100586402838
 21
2061.000000312341
 31
0.0
  0
LINE
  5
8D
330
1F
100
AcDbEntity
  8
MAKE2D VISIBLE LINES
100
AcDbLine
 10
2349.100586402838
 20
2045.000000312346
 30
0.0
 11
2349.100586402838
 21
2061.000000312341
 31
0.0
  0
LINE
  5
8E
330
1F
100
AcDbEntity
  8
MAKE2D VISIBLE LINES
100
AcDbLine
 10
2251.100586402836
 20
2044.000000312344
 30
0.0
 11
2250.100586402837
 21
2044.000000312344
 31
0.0
  0
LINE
  5
8F
330
1F
100
AcDbEntity
  8
MAKE2D VISIBLE LINES
100
AcDbLine
 10
2252.100586402837
 20
2045.000000312344
 30
0.0
 11
2252.100586402837
 21
2061.000000312344
 31
0.0
  0
LINE
  5
90
330
1F
100
AcDbEntity
  8
MAKE2D VISIBLE LINES
100
AcDbLine
 10
2056.6005859375
 20
2061.500000312344
 30
0.0
 11
2056.600585937502
 21
2061.000000312342
 31
0.0
  0
LINE
  5
91
330
1F
100
AcDbEntity
  8
MAKE2D VISIBLE LINES
100
AcDbLine
 10
2348.600586402839
 20
2044.000000312344
 30
0.0
 11
2251.141251642972
 21
2044.000000312344
 31
0.0
  0
LINE
  5
92
330
1F
100
AcDbEntity
  8
MAKE2D VISIBLE LINES
100
AcDbLine
 10
2249.100586402836
 20
2045.000000312344
 30
0.0
 11
2249.100586402837
 21
2061.000000312344
 31
0.0
  0
ARC
  5
93
330
1F
100
AcDbEntity
  8
MAKE2D VISIBLE LINES
100
AcDbCircle
 10
2056.100583652819
 20
2047.500003050209
 30
0.0
 40
0.5000030502181717
100
AcDbArc
 50
270.0003495217199
 51
359.9989052786875
  0
ARC
  5
94
330
1F
100
AcDbEntity
  8
MAKE2D VISIBLE LINES
100
AcDbCircle
 10
2349.600588008896
 20
2044.500001261831
 30
0.0
 40
0.5000010057705023
100
AcDbArc
 50
180.0011365743963
 51
269.9998847493878
  0
ARC
  5
95
330
1F
100
AcDbEntity
  8
MAKE2D VISIBLE LINES
100
AcDbCircle
 10
2641.100585697679
 20
2061.499999363291
 30
0.0
 40
0.5000010053364451
100
AcDbArc
 50
0.001576518632974
 51
89.99988480019503
  0
ARC
  5
96
330
1F
100
AcDbEntity
  8
MAKE2D VISIBLE LINES
100
AcDbCircle
 10
2248.100586402836
 20
2061.000000312343
 30
0.0
 40
1.000000000000909
100
AcDbArc
 50
0.0000000000260551
 51
87.44588213143429
  0
ARC
  5
97
330
1F
100
AcDbEntity
  8
MAKE2D VISIBLE LINES
100
AcDbCircle
 10
2248.100586402836
 20
2048.000000312344
 30
0.0
 40
0.9999999999997726
100
AcDbArc
 50
270.000000000026
 51
357.4448933478648
  0
LINE
  5
98
330
1F
100
AcDbEntity
  8
MAKE2D VISIBLE LINES
100
AcDbLine
 10
2057.100586702992
 20
2047.000000312344
 30
0.0
 11
2248.100586402837
 21
2047.000000312344
 31
0.0
  0
LINE
  5
99
330
1F
100
AcDbEntity
  8
MAKE2D VISIBLE LINES
100
AcDbLine
 10
2248.145166647142
 20
2047.000000312344
 30
0.0
 11
2249.100586402164
 21
2047.000000312344
 31
0.0
  0
LINE
  5
9A
330
1F
100
AcDbEntity
  8
MAKE2D VISIBLE LINES
100
AcDbLine
 10
2056.600586702992
 20
2048.000000312344
 30
0.0
 11
2056.600586702991
 21
2047.500000312342
 31
0.0
  0
LINE
  5
9B
330
1F
100
AcDbEntity
  8
MAKE2D VISIBLE LINES
100
AcDbLine
 10
2056.600586702992
 20
2048.000000312344
 30
0.0
 11
2056.600586702992
 21
2061.000000312342
 31
0.0
  0
ARC
  5
9C
330
1F
100
AcDbEntity
  8
MAKE2D VISIBLE LINES
100
AcDbCircle
 10
1487.600586702992
 20
2066.000000312344
 30
0.0
 40
1.000000000000419
100
AcDbArc
 50
90.00000000002605
 51
177.4461580628666
  0
ARC
  5
9D
330
1F
100
AcDbEntity
  8
MAKE2D VISIBLE LINES
100
AcDbCircle
 10
1487.600586702992
 20
2518.000000312344
 30
0.0
 40
1.000000000000455
100
AcDbArc
 50
182.5551066521731
 51
269.9999999999479
  0
ARC
  5
9E
330
1F
100
AcDbEntity
  8
MAKE2D VISIBLE LINES
100
AcDbCircle
 10
1487.600586702992
 20
2531.000000312343
 30
0.0
 40
1.000000000000227
100
AcDbArc
 50
90.00000000003908
 51
179.9999999999739
  0
ARC
  5
9F
330
1F
100
AcDbEntity
  8
MAKE2D VISIBLE LINES
100
AcDbCircle
 10
2625.600586702991
 20
2531.000000312343
 30
0.0
 40
1.000000000000455
100
AcDbArc
 50
0.0000000000260551
 51
90.0
  0
ARC
  5
A0
330
1F
100
AcDbEntity
  8
MAKE2D VISIBLE LINES
100
AcDbCircle
 10
2625.600586702994
 20
2518.000000312342
 30
0.0
 40
0.9999999999979846
100
AcDbArc
 50
269.9999999998958
 51
357.4448933479512
  0
LINE
  5
A1
330
1F
100
AcDbEntity
  8
MAKE2D VISIBLE LINES
100
AcDbLine
 10
1487.600586702992
 20
2062.000000312344
 30
0.0
 11
1665.056006240913
 21
2062.000000312344
 31
0.0
  0
LINE
  5
A2
330
1F
100
AcDbEntity
  8
MAKE2D VISIBLE LINES
100
AcDbLine
 10
1666.122156485594
 20
2062.000000312344
 30
0.0
 11
1862.079016913296
 21
2062.000000312344
 31
0.0
  0
LINE
  5
A3
330
1F
100
AcDbEntity
  8
MAKE2D VISIBLE LINES
100
AcDbLine
 10
1863.145167154813
 20
2062.000000312344
 30
0.0
 11
2250.05600624087
 21
2062.000000312344
 31
0.0
  0
LINE
  5
A4
330
1F
100
AcDbEntity
  8
MAKE2D VISIBLE LINES
100
AcDbLine
 10
2251.122156485605
 20
2062.000000312344
 30
0.0
 11
2447.079016920655
 21
2062.000000312344
 31
0.0
  0
LINE
  5
A5
330
1F
100
AcDbEntity
  8
MAKE2D VISIBLE LINES
100
AcDbLine
 10
2448.145167165463
 20
2062.000000312344
 30
0.0
 11
2625.600586702991
 21
2062.000000312344
 31
0.0
  0
LINE
  5
A6
330
1F
100
AcDbEntity
  8
MAKE2D VISIBLE LINES
100
AcDbLine
 10
2625.600586702992
 20
2067.000000312344
 30
0.0
 11
1487.600586702992
 21
2067.000000312344
 31
0.0
  0
LINE
  5
A7
330
1F
100
AcDbEntity
  8
MAKE2D VISIBLE LINES
100
AcDbLine
 10
2625.600586702991
 20
2532.000000312344
 30
0.0
 11
1487.600586702991
 21
2532.000000312344
 31
0.0
  0
LINE
  5
A8
330
1F
100
AcDbEntity
  8
MAKE2D VISIBLE LINES
100
AcDbLine
 10
1487.600586702991
 20
2517.000000312344
 30
0.0
 11
2625.600586702992
 21
2517.000000312344
 31
0.0
  0
ARC
  5
A9
330
1F
100
AcDbEntity
  8
MAKE2D VISIBLE LINES
100
AcDbCircle
 10
2349.600587371955
 20
2061.50000002642
 30
0.0
 40
0.5000003688170761
100
AcDbArc
 50
92.55462911112075
 51
179.9989395404382
  0
ARC
  5
AA
330
1F
100
AcDbEntity
  8
MAKE2D VISIBLE LINES
100
AcDbCircle
 10
2348.600581414195
 20
2061.499995576753
 30
0.0
 40
0.5000049887510011
100
AcDbArc
 50
0.0015704066863751
 51
87.44498184370481
  0
ARC
  5
AB
330
1F
100
AcDbEntity
  8
MAKE2D VISIBLE LINES
100
AcDbCircle
 10
1763.600581414258
 20
2061.49999557684
 30
0.0
 40
0.5000049887065294
100
AcDbArc
 50
0.001790213792283
 51
87.44484785747099
  0
ARC
  5
AC
330
1F
100
AcDbEntity
  8
MAKE2D VISIBLE LINES
100
AcDbCircle
 10
2641.100583649698
 20
2047.500003053344
 30
0.0
 40
0.500003053352631
100
AcDbArc
 50
270.0003498792958
 51
359.9986210386831
  0
ARC
  5
AD
330
1F
100
AcDbEntity
  8
MAKE2D VISIBLE LINES
100
AcDbCircle
 10
1487.600586702992
 20
2063.000000312344
 30
0.0
 40
1.0
100
AcDbArc
 50
180.0000000000261
 51
269.999999999987
  0
ARC
  5
AE
330
1F
100
AcDbEntity
  8
MAKE2D VISIBLE LINES
100
AcDbCircle
 10
2625.600586702991
 20
2063.000000312345
 30
0.0
 40
1.000000000001364
100
AcDbArc
 50
270.000000000026
 51
359.9999999999218
  0
ARC
  5
AF
330
1F
100
AcDbEntity
  8
MAKE2D VISIBLE LINES
100
AcDbCircle
 10
2625.600586702993
 20
2066.000000312345
 30
0.0
 40
0.9999999999990905
100
AcDbArc
 50
2.553841937110252
 51
90.00000000007816
  0
ARC
  5
B0
330
1F
100
AcDbEntity
  8
MAKE2D VISIBLE LINES
100
AcDbCircle
 10
1764.600588008896
 20
2044.500001261831
 30
0.0
 40
0.5000010057707297
100
AcDbArc
 50
180.0011364333603
 51
269.9998847493878
  0
ENDSEC
  0
SECTION
  2
OBJECTS
  0
DICTIONARY
  5
C
330
0
100
AcDbDictionary
281
     1
  3
ACAD_GROUP
350
D
  3
ACAD_LAYOUT
350
1A
  3
ACAD_MLEADERSTYLE
350
B2
  3
ACAD_MLINESTYLE
350
17
  3
ACAD_PLOTSETTINGS
350
19
  3
ACAD_PLOTSTYLENAME
350
E
  3
ACAD_TABLESTYLE
350
B1
  3
ACAD_VISUALSTYLE
350
2A
  0
DICTIONARY
  5
D
102
{ACAD_REACTORS
330
C
102
}
330
C
100
AcDbDictionary
281
     1
  0
DICTIONARY
  5
1A
102
{ACAD_REACTORS
330
C
102
}
330
C
100
AcDbDictionary
281
     1
  3
Layout1
350
1E
  3
Layout2
350
26
  3
Model
350
22
  0
DICTIONARY
  5
B2
102
{ACAD_REACTORS
330
C
102
}
330
C
100
AcDbDictionary
281
     1
  0
DICTIONARY
  5
17
102
{ACAD_REACTORS
330
C
102
}
330
C
100
AcDbDictionary
281
     1
  3
Standard
350
18
  0
DICTIONARY
  5
19
102
{ACAD_REACTORS
330
C
102
}
330
C
100
AcDbDictionary
281
     1
  0
ACDBDICTIONARYWDFLT
  5
E
102
{ACAD_REACTORS
330
C
102
}
330
C
100
AcDbDictionary
281
     1
  3
Normal
350
F
100
AcDbDictionaryWithDefault
340
F
  0
DICTIONARY
  5
B1
102
{ACAD_REACTORS
330
C
102
}
330
C
100
AcDbDictionary
281
     1
  0
DICTIONARY
  5
2A
102
{ACAD_REACTORS
330
C
102
}
330
C
100
AcDbDictionary
281
     1
  3
2dWireframe
350
2F
  3
3D Hidden
350
31
  3
3dWireframe
350
30
  3
Basic
350
32
  3
Brighten
350
36
  3
ColorChange
350
3A
  3
Conceptual
350
34
  3
Dim
350
35
  3
Facepattern
350
39
  3
Flat
350
2B
  3
FlatWithEdges
350
2C
  3
Gouraud
350
2D
  3
GouraudWithEdges
350
2E
  3
Linepattern
350
38
  3
Realistic
350
33
  3
Thicken
350
37
  0
LAYOUT
  5
1E
102
{ACAD_REACTORS
330
1A
102
}
330
1A
100
AcDbPlotSettings
  1

  2
none_device
  4

  6

 40
0.0
 41
0.0
 42
0.0
 43
0.0
 44
0.0
 45
0.0
 46
0.0
 47
0.0
 48
0.0
 49
0.0
140
0.0
141
0.0
142
1.0
143
1.0
 70
   688
 72
     0
 73
     0
 74
     5
  7

 75
    16
 76
     0
 77
     2
 78
   300
147
1.0
148
0.0
149
0.0
100
AcDbLayout
  1
Layout1
 70
     1
 71
     1
 10
0.0
 20
0.0
 11
12.0
 21
9.0
 12
0.0
 22
0.0
 32
0.0
 14
1.000000000000000E+20
 24
1.000000000000000E+20
 34
1.000000000000000E+20
 15
-1.000000000000000E+20
 25
-1.000000000000000E+20
 35
-1.000000000000000E+20
146
0.0
 13
0.0
 23
0.0
 33
0.0
 16
1.0
 26
0.0
 36
0.0
 17
0.0
 27
1.0
 37
0.0
 76
     0
330
1B
  0
LAYOUT
  5
26
102
{ACAD_REACTORS
330
1A
102
}
330
1A
100
AcDbPlotSettings
  1

  2
none_device
  4

  6

 40
0.0
 41
0.0
 42
0.0
 43
0.0
 44
0.0
 45
0.0
 46
0.0
 47
0.0
 48
0.0
 49
0.0
140
0.0
141
0.0
142
1.0
143
1.0
 70
   688
 72
     0
 73
     0
 74
     5
  7

 75
    16
 76
     0
 77
     2
 78
   300
147
1.0
148
0.0
149
0.0
100
AcDbLayout
  1
Layout2
 70
     1
 71
     2
 10
0.0
 20
0.0
 11
0.0
 21
0.0
 12
0.0
 22
0.0
 32
0.0
 14
0.0
 24
0.0
 34
0.0
 15
0.0
 25
0.0
 35
0.0
146
0.0
 13
0.0
 23
0.0
 33
0.0
 16
1.0
 26
0.0
 36
0.0
 17
0.0
 27
1.0
 37
0.0
 76
     0
330
23
  0
LAYOUT
  5
22
102
{ACAD_REACTORS
330
1A
102
}
330
1A
100
AcDbPlotSettings
  1

  2
none_device
  4

  6

 40
0.0
 41
0.0
 42
0.0
 43
0.0
 44
0.0
 45
0.0
 46
0.0
 47
0.0
 48
0.0
 49
0.0
140
0.0
141
0.0
142
1.0
143
1.0
 70
  1712
 72
     0
 73
     0
 74
     0
  7

 75
     0
 76
     0
 77
     2
 78
   300
147
1.0
148
0.0
149
0.0
100
AcDbLayout
  1
Model
 70
     1
 71
     0
 10
0.0
 20
0.0
 11
12.0
 21
9.0
 12
0.0
 22
0.0
 32
0.0
 14
1471.6005859375
 24
2044.000000252454
 34
0.0
 15
2641.60058670299
 25
2532.000000312344
 35
0.0
146
0.0
 13
0.0
 23
0.0
 33
0.0
 16
1.0
 26
0.0
 36
0.0
 17
0.0
 27
1.0
 37
0.0
 76
     0
330
1F
331
29
  0
MLINESTYLE
  5
18
102
{ACAD_REACTORS
330
17
102
}
330
17
100
AcDbMlineStyle
  2
Standard
 70
     0
  3

 62
   256
 51
90.0
 52
90.0
 71
     2
 49
0.5
 62
   256
  6
BYLAYER
 49
-0.5
 62
   256
  6
BYLAYER
  0
ACDBPLACEHOLDER
  5
F
102
{ACAD_REACTORS
330
E
102
}
330
E
  0
VISUALSTYLE
  5
2F
102
{ACAD_REACTORS
330
2A
102
}
330
2A
100
AcDbVisualStyle
  2
2dWireframe
 70
     4
 71
     0
 72
     2
 73
     0
 90
        0
 40
-0.6
 41
-30.0
 62
     5
 63
     7
421
 16777215
 74
     1
 91
        4
 64
     7
 65
   257
 75
     1
175
     1
 42
1.0
 92
        0
 66
   257
 43
1.0
 76
     1
 77
     6
 78
     2
 67
     7
 79
     5
170
     0
171
     0
290
     0
174
     0
 93
        1
 44
0.0
173
     0
291
     0
 45
0.0
1001
ACAD
1000
AcDbSavedByObjectVersion
1070
     0
  0
VISUALSTYLE
  5
31
102
{ACAD_REACTORS
330
2A
102
}
330
2A
100
AcDbVisualStyle
  2
3D Hidden
 70
     6
 71
     1
 72
     2
 73
     2
 90
        0
 40
-0.6
 41
-30.0
 62
     5
 63
     7
421
 16777215
 74
     2
 91
        2
 64
     7
 65
   257
 75
     2
175
     1
 42
40.0
 92
        0
 66
   257
 43
1.0
 76
     1
 77
     6
 78
     2
 67
     7
 79
     3
170
     0
171
     0
290
     0
174
     0
 93
        1
 44
0.0
173
     0
291
     0
 45
0.0
1001
ACAD
1000
AcDbSavedByObjectVersion
1070
     0
  0
VISUALSTYLE
  5
30
102
{ACAD_REACTORS
330
2A
102
}
330
2A
100
AcDbVisualStyle
  2
3dWireframe
 70
     5
 71
     0
 72
     2
 73
     0
 90
        0
 40
-0.6
 41
-30.0
 62
     5
 63
     7
421
 16777215
 74
     1
 91
        4
 64
     7
 65
   257
 75
     1
175
     1
 42
1.0
 92
        0
 66
   257
 43
1.0
 76
     1
 77
     6
 78
     2
 67
     7
 79
     5
170
     0
171
     0
290
     0
174
     0
 93
        1
 44
0.0
173
     0
291
     0
 45
0.0
1001
ACAD
1000
AcDbSavedByObjectVersion
1070
     0
  0
VISUALSTYLE
  5
32
102
{ACAD_REACTORS
330
2A
102
}
330
2A
100
AcDbVisualStyle
  2
Basic
 70
     7
 71
     1
 72
     0
 73
     1
 90
        0
 40
-0.6
 41
-30.0
 62
     5
 63
     7
421
 16777215
 74
     0
 91
        4
 64
     7
 65
   257
 75
     1
175
     1
 42
1.0
 92
        8
 66
     7
 43
1.0
 76
     1
 77
     6
 78
     2
 67
     7
 79
     5
170
     0
171
     0
290
     0
174
     0
 93
        1
 44
0.0
173
     0
291
     1
 45
0.0
1001
ACAD
1000
AcDbSavedByObjectVersion
1070
     0
  0
VISUALSTYLE
  5
36
102
{ACAD_REACTORS
330
2A
102
}
330
2A
100
AcDbVisualStyle
  2
Brighten
 70
    12
 71
     2
 72
     2
 73
     0
 90
        0
 40
-0.6
 41
-30.0
 62
     5
 63
     7
421
 16777215
 74
     1
 91
        4
 64
     7
 65
   257
 75
     1
175
     1
 42
1.0
 92
        8
 66
     7
 43
1.0
 76
     1
 77
     6
 78
     2
 67
     7
 79
     5
170
     0
171
     0
290
     0
174
     0
 93
        1
 44
50.0
173
     0
291
     1
 45
0.0
1001
ACAD
1000
AcDbSavedByObjectVersion
1070
     0
  0
VISUALSTYLE
  5
3A
102
{ACAD_REACTORS
330
2A
102
}
330
2A
100
AcDbVisualStyle
  2
ColorChange
 70
    16
 71
     2
 72
     2
 73
     3
 90
        0
 40
-0.6
 41
-30.0
 62
     5
 63
     8
421
  8421504
 74
     1
 91
        4
 64
     7
 65
   257
 75
     1
175
     1
 42
1.0
 92
        8
 66
     8
424
  8421504
 43
1.0
 76
     1
 77
     6
 78
     2
 67
     7
 79
     5
170
     0
171
     0
290
     0
174
     0
 93
        1
 44
0.0
173
     0
291
     1
 45
0.0
1001
ACAD
1000
AcDbSavedByObjectVersion
1070
     0
  0
VISUALSTYLE
  5
34
102
{ACAD_REACTORS
330
2A
102
}
330
2A
100
AcDbVisualStyle
  2
Conceptual
 70
     9
 71
     3
 72
     2
 73
     0
 90
        0
 40
-0.6
 41
-30.0
 62
     5
 63
     7
421
 16777215
 74
     2
 91
        2
 64
     7
 65
   257
 75
     1
175
     1
 42
40.0
 92
        8
 66
     7
 43
1.0
 76
     1
 77
     6
 78
     2
 67
     7
 79
     3
170
     0
171
     0
290
     0
174
     0
 93
        1
 44
0.0
173
     0
291
     0
 45
0.0
1001
ACAD
1000
AcDbSavedByObjectVersion
1070
     0
  0
VISUALSTYLE
  5
35
102
{ACAD_REACTORS
330
2A
102
}
330
2A
100
AcDbVisualStyle
  2
Dim
 70
    11
 71
     2
 72
     2
 73
     0
 90
        0
 40
-0.6
 41
-30.0
 62
     5
 63
     7
421
 16777215
 74
     1
 91
        4
 64
     7
 65
   257
 75
     1
175
     1
 42
1.0
 92
        8
 66
     7
 43
1.0
 76
     1
 77
     6
 78
     2
 67
     7
 79
     5
170
     0
171
     0
290
     0
174
     0
 93
        1
 44
-50.0
173
     0
291
     1
 45
0.0
1001
ACAD
1000
AcDbSavedByObjectVersion
1070
     0
  0
VISUALSTYLE
  5
39
102
{ACAD_REACTORS
330
2A
102
}
330
2A
100
AcDbVisualStyle
  2
Facepattern
 70
    15
 71
     2
 72
     2
 73
     0
 90
        0
 40
-0.6
 41
-30.0
 62
     5
 63
     7
421
 16777215
 74
     1
 91
        4
 64
     7
 65
   257
 75
     1
175
     1
 42
1.0
 92
        8
 66
     7
 43
1.0
 76
     1
 77
     6
 78
     2
 67
     7
 79
     5
170
     0
171
     0
290
     0
174
     0
 93
        1
 44
0.0
173
     0
291
     1
 45
0.0
1001
ACAD
1000
AcDbSavedByObjectVersion
1070
     0
  0
VISUALSTYLE
  5
2B
102
{ACAD_REACTORS
330
2A
102
}
330
2A
100
AcDbVisualStyle
  2
Flat
 70
     0
 71
     2
 72
     1
 73
     1
 90
        2
 40
-0.6
 41
30.0
 62
     5
 63
     7
421
 16777215
 74
     0
 91
        4
 64
     7
 65
   257
 75
     1
175
     1
 42
1.0
 92
        8
 66
     7
 43
1.0
 76
     1
 77
     6
 78
     2
 67
     7
 79
     5
170
     0
171
     0
290
     0
174
     0
 93
       13
 44
0.0
173
     0
291
     1
 45
0.0
1001
ACAD
1000
AcDbSavedByObjectVersion
1070
     0
  0
VISUALSTYLE
  5
2C
102
{ACAD_REACTORS
330
2A
102
}
330
2A
100
AcDbVisualStyle
  2
FlatWithEdges
 70
     1
 71
     2
 72
     1
 73
     1
 90
        2
 40
-0.6
 41
30.0
 62
     5
 63
     7
421
 16777215
 74
     1
 91
        4
 64
     7
 65
   257
 75
     1
175
     1
 42
1.0
 92
        0
 66
   257
 43
1.0
 76
     1
 77
     6
 78
     2
 67
     7
 79
     5
170
     0
171
     0
290
     0
174
     0
 93
       13
 44
0.0
173
     0
291
     1
 45
0.0
1001
ACAD
1000
AcDbSavedByObjectVersion
1070
     0
  0
VISUALSTYLE
  5
2D
102
{ACAD_REACTORS
330
2A
102
}
330
2A
100
AcDbVisualStyle
  2
Gouraud
 70
     2
 71
     2
 72
     2
 73
     1
 90
        2
 40
-0.6
 41
30.0
 62
     5
 63
     7
421
 16777215
 74
     0
 91
        4
 64
     7
 65
   257
 75
     1
175
     1
 42
1.0
 92
        0
 66
     7
 43
1.0
 76
     1
 77
     6
 78
     2
 67
     7
 79
     5
170
     0
171
     0
290
     0
174
     0
 93
       13
 44
0.0
173
     0
291
     1
 45
0.0
1001
ACAD
1000
AcDbSavedByObjectVersion
1070
     0
  0
VISUALSTYLE
  5
2E
102
{ACAD_REACTORS
330
2A
102
}
330
2A
100
AcDbVisualStyle
  2
GouraudWithEdges
 70
     3
 71
     2
 72
     2
 73
     1
 90
        2
 40
-0.6
 41
30.0
 62
     5
 63
     7
421
 16777215
 74
     1
 91
        4
 64
     7
 65
   257
 75
     1
175
     1
 42
1.0
 92
        0
 66
   257
 43
1.0
 76
     1
 77
     6
 78
     2
 67
     7
 79
     5
170
     0
171
     0
290
     0
174
     0
 93
       13
 44
0.0
173
     0
291
     1
 45
0.0
1001
ACAD
1000
AcDbSavedByObjectVersion
1070
     0
  0
VISUALSTYLE
  5
38
102
{ACAD_REACTORS
330
2A
102
}
330
2A
100
AcDbVisualStyle
  2
Linepattern
 70
    14
 71
     2
 72
     2
 73
     0
 90
        0
 40
-0.6
 41
-30.0
 62
     5
 63
     7
421
 16777215
 74
     1
 91
        4
 64
     7
 65
   257
 75
     7
175
     7
 42
1.0
 92
        8
 66
     7
 43
1.0
 76
     1
 77
     6
 78
     2
 67
     7
 79
     5
170
     0
171
     0
290
     0
174
     0
 93
        1
 44
0.0
173
     0
291
     1
 45
0.0
1001
ACAD
1000
AcDbSavedByObjectVersion
1070
     0
  0
VISUALSTYLE
  5
33
102
{ACAD_REACTORS
330
2A
102
}
330
2A
100
AcDbVisualStyle
  2
Realistic
 70
     8
 71
     2
 72
     2
 73
     0
 90
        0
 40
-0.6
 41
-30.0
 62
     5
 63
     7
421
 16777215
 74
     1
 91
        0
 64
     7
 65
   257
 75
     1
175
     1
 42
1.0
 92
        8
 66
     8
424
  7895160
 43
1.0
 76
     1
 77
     6
 78
     2
 67
     7
 79
     5
170
     0
171
     0
290
     0
174
     0
 93
       13
 44
0.0
173
     0
291
     0
 45
0.0
1001
ACAD
1000
AcDbSavedByObjectVersion
1070
     0
  0
VISUALSTYLE
  5
37
102
{ACAD_REACTORS
330
2A
102
}
330
2A
100
AcDbVisualStyle
  2
Thicken
 70
    13
 71
     2
 72
     2
 73
     0
 90
        0
 40
-0.6
 41
-30.0
 62
     5
 63
     7
421
 16777215
 74
     1
 91
        4
 64
     7
 65
   257
 75
     1
175
     1
 42
1.0
 92
       12
 66
     7
 43
1.0
 76
     1
 77
     6
 78
     2
 67
     7
 79
     5
170
     0
171
     0
290
     0
174
     0
 93
        1
 44
0.0
173
     0
291
     1
 45
0.0
1001
ACAD
1000
AcDbSavedByObjectVersion
1070
     0
  0
ENDSEC
  0
EOF
