  0
SECTION
  2
HEADER
  9
$ACADVER
  1
AC1018
  9
$ACADMAINTVER
 70
     0
  9
$DWGCODEPAGE
  3
ANSI_936
  9
$INSBASE
 10
0.0
 20
0.0
 30
0.0
  9
$EXTMIN
 10
178176.880432427
 20
-39986.99964364597
 30
0.0
  9
$EXTMAX
 10
178541.9509068516
 20
-39485.84855614538
 30
0.0
  9
$LIMMIN
 10
0.0
 20
0.0
  9
$LIMMAX
 10
12.0
 20
9.0
  9
$ORTHOMODE
 70
     0
  9
$REGENMODE
 70
     1
  9
$FILLMODE
 70
     1
  9
$QTEXTMODE
 70
     0
  9
$MIRRTEXT
 70
     1
  9
$LTSCALE
 40
1.0
  9
$ATTMODE
 70
     1
  9
$TEXTSIZE
 40
0.2
  9
$TRACEWID
 40
0.05
  9
$TEXTSTYLE
  7
Standard
  9
$CLAYER
  8
0
  9
$CELTYPE
  6
ByLayer
  9
$CECOLOR
 62
   256
  9
$CELTSCALE
 40
1.0
  9
$DISPSILH
 70
     0
  9
$DIMSCALE
 40
1.0
  9
$DIMASZ
 40
0.18
  9
$DIMEXO
 40
0.0625
  9
$DIMDLI
 40
0.38
  9
$DIMRND
 40
0.0
  9
$DIMDLE
 40
0.0
  9
$DIMEXE
 40
0.18
  9
$DIMTP
 40
0.0
  9
$DIMTM
 40
0.0
  9
$DIMTXT
 40
0.18
  9
$DIMCEN
 40
0.09
  9
$DIMTSZ
 40
0.0
  9
$DIMTOL
 70
     0
  9
$DIMLIM
 70
     0
  9
$DIMTIH
 70
     1
  9
$DIMTOH
 70
     1
  9
$DIMSE1
 70
     0
  9
$DIMSE2
 70
     0
  9
$DIMTAD
 70
     0
  9
$DIMZIN
 70
     0
  9
$DIMBLK
  1

  9
$DIMASO
 70
     1
  9
$DIMSHO
 70
     1
  9
$DIMPOST
  1

  9
$DIMAPOST
  1

  9
$DIMALT
 70
     0
  9
$DIMALTD
 70
     2
  9
$DIMALTF
 40
25.4
  9
$DIMLFAC
 40
1.0
  9
$DIMTOFL
 70
     0
  9
$DIMTVP
 40
0.0
  9
$DIMTIX
 70
     0
  9
$DIMSOXD
 70
     0
  9
$DIMSAH
 70
     0
  9
$DIMBLK1
  1

  9
$DIMBLK2
  1

  9
$DIMSTYLE
  2
Standard
  9
$DIMCLRD
 70
     0
  9
$DIMCLRE
 70
     0
  9
$DIMCLRT
 70
     0
  9
$DIMTFAC
 40
1.0
  9
$DIMGAP
 40
0.09
  9
$DIMJUST
 70
     0
  9
$DIMSD1
 70
     0
  9
$DIMSD2
 70
     0
  9
$DIMTOLJ
 70
     1
  9
$DIMTZIN
 70
     0
  9
$DIMALTZ
 70
     0
  9
$DIMALTTZ
 70
     0
  9
$DIMUPT
 70
     0
  9
$DIMDEC
 70
     4
  9
$DIMTDEC
 70
     4
  9
$DIMALTU
 70
     2
  9
$DIMALTTD
 70
     2
  9
$DIMTXSTY
  7
Standard
  9
$DIMAUNIT
 70
     0
  9
$DIMADEC
 70
     0
  9
$DIMALTRND
 40
0.0
  9
$DIMAZIN
 70
     0
  9
$DIMDSEP
 70
    46
  9
$DIMATFIT
 70
     3
  9
$DIMFRAC
 70
     0
  9
$DIMLDRBLK
  1

  9
$DIMLUNIT
 70
     2
  9
$DIMLWD
 70
    -2
  9
$DIMLWE
 70
    -2
  9
$DIMTMOVE
 70
     2
  9
$LUNITS
 70
     2
  9
$LUPREC
 70
     2
  9
$SKETCHINC
 40
0.1
  9
$FILLETRAD
 40
0.5
  9
$AUNITS
 70
     0
  9
$AUPREC
 70
     0
  9
$MENU
  1
.
  9
$ELEVATION
 40
0.0
  9
$PELEVATION
 40
0.0
  9
$THICKNESS
 40
0.0
  9
$LIMCHECK
 70
     0
  9
$CHAMFERA
 40
0.5
  9
$CHAMFERB
 40
0.5
  9
$CHAMFERC
 40
1.0
  9
$CHAMFERD
 40
0.0
  9
$SKPOLY
 70
     0
  9
$TDCREATE
 40
2456489.971985486
  9
$TDUCREATE
 40
2456489.888652153
  9
$TDUPDATE
 40
2456489.971985498
  9
$TDUUPDATE
 40
2456489.888652164
  9
$TDINDWG
 40
0.0000000116
  9
$TDUSRTIMER
 40
0.0000000116
  9
$USRTIMER
 70
     1
  9
$ANGBASE
 50
0.0
  9
$ANGDIR
 70
     0
  9
$PDMODE
 70
     0
  9
$PDSIZE
 40
0.0
  9
$PLINEWID
 40
0.0
  9
$SPLFRAME
 70
     0
  9
$SPLINETYPE
 70
     6
  9
$SPLINESEGS
 70
     8
  9
$HANDSEED
  5
51
  9
$SURFTAB1
 70
     6
  9
$SURFTAB2
 70
     6
  9
$SURFTYPE
 70
     6
  9
$SURFU
 70
     6
  9
$SURFV
 70
     6
  9
$UCSBASE
  2

  9
$UCSNAME
  2

  9
$UCSORG
 10
0.0
 20
0.0
 30
0.0
  9
$UCSXDIR
 10
1.0
 20
0.0
 30
0.0
  9
$UCSYDIR
 10
0.0
 20
1.0
 30
0.0
  9
$UCSORTHOREF
  2

  9
$UCSORTHOVIEW
 70
     0
  9
$UCSORGTOP
 10
0.0
 20
0.0
 30
0.0
  9
$UCSORGBOTTOM
 10
0.0
 20
0.0
 30
0.0
  9
$UCSORGLEFT
 10
0.0
 20
0.0
 30
0.0
  9
$UCSORGRIGHT
 10
0.0
 20
0.0
 30
0.0
  9
$UCSORGFRONT
 10
0.0
 20
0.0
 30
0.0
  9
$UCSORGBACK
 10
0.0
 20
0.0
 30
0.0
  9
$PUCSBASE
  2

  9
$PUCSNAME
  2

  9
$PUCSORG
 10
0.0
 20
0.0
 30
0.0
  9
$PUCSXDIR
 10
1.0
 20
0.0
 30
0.0
  9
$PUCSYDIR
 10
0.0
 20
1.0
 30
0.0
  9
$PUCSORTHOREF
  2

  9
$PUCSORTHOVIEW
 70
     0
  9
$PUCSORGTOP
 10
0.0
 20
0.0
 30
0.0
  9
$PUCSORGBOTTOM
 10
0.0
 20
0.0
 30
0.0
  9
$PUCSORGLEFT
 10
0.0
 20
0.0
 30
0.0
  9
$PUCSORGRIGHT
 10
0.0
 20
0.0
 30
0.0
  9
$PUCSORGFRONT
 10
0.0
 20
0.0
 30
0.0
  9
$PUCSORGBACK
 10
0.0
 20
0.0
 30
0.0
  9
$USERI1
 70
     0
  9
$USERI2
 70
     0
  9
$USERI3
 70
     0
  9
$USERI4
 70
     0
  9
$USERI5
 70
     0
  9
$USERR1
 40
0.0
  9
$USERR2
 40
0.0
  9
$USERR3
 40
0.0
  9
$USERR4
 40
0.0
  9
$USERR5
 40
0.0
  9
$WORLDVIEW
 70
     1
  9
$SHADEDGE
 70
     3
  9
$SHADEDIF
 70
    70
  9
$TILEMODE
 70
     1
  9
$MAXACTVP
 70
    64
  9
$PINSBASE
 10
0.0
 20
0.0
 30
0.0
  9
$PLIMCHECK
 70
     0
  9
$PEXTMIN
 10
1.000000000000000E+20
 20
1.000000000000000E+20
 30
1.000000000000000E+20
  9
$PEXTMAX
 10
-1.000000000000000E+20
 20
-1.000000000000000E+20
 30
-1.000000000000000E+20
  9
$PLIMMIN
 10
0.0
 20
0.0
  9
$PLIMMAX
 10
12.0
 20
9.0
  9
$UNITMODE
 70
     0
  9
$VISRETAIN
 70
     1
  9
$PLINEGEN
 70
     0
  9
$PSLTSCALE
 70
     1
  9
$TREEDEPTH
 70
  3020
  9
$CMLSTYLE
  2
Standard
  9
$CMLJUST
 70
     0
  9
$CMLSCALE
 40
1.0
  9
$PROXYGRAPHICS
 70
     1
  9
$MEASUREMENT
 70
     0
  9
$CELWEIGHT
370
    -1
  9
$ENDCAPS
280
     0
  9
$JOINSTYLE
280
     0
  9
$LWDISPLAY
290
     0
  9
$INSUNITS
 70
     4
  9
$HYPERLINKBASE
  1

  9
$STYLESHEET
  1

  9
$XEDIT
290
     1
  9
$CEPSNTYPE
380
     0
  9
$PSTYLEMODE
290
     1
  9
$FINGERPRINTGUID
  2
{1EA48B8D-93C2-4F84-B9AE-0949E5737EA0}
  9
$VERSIONGUID
  2
{FAEB1C32-E019-11D5-929B-00C0DF256EC4}
  9
$EXTNAMES
290
     1
  9
$PSVPSCALE
 40
0.0
  9
$OLESTARTUP
290
     0
  9
$SORTENTS
280
   127
  9
$INDEXCTL
280
     0
  9
$HIDETEXT
280
     1
  9
$XCLIPFRAME
290
     0
  9
$HALOGAP
280
     0
  9
$OBSCOLOR
 70
   257
  9
$OBSLTYPE
280
     0
  9
$INTERSECTIONDISPLAY
280
     0
  9
$INTERSECTIONCOLOR
 70
   257
  9
$DIMASSOC
280
     2
  9
$PROJECTNAME
  1

  0
ENDSEC
  0
SECTION
  2
CLASSES
  0
CLASS
  1
ACDBDICTIONARYWDFLT
  2
AcDbDictionaryWithDefault
  3
ObjectDBX Classes
 90
        0
 91
        4
280
     0
281
     0
  0
CLASS
  1
VISUALSTYLE
  2
AcDbVisualStyle
  3
ObjectDBX Classes
 90
     4095
 91
        4
280
     0
281
     0
  0
ENDSEC
  0
SECTION
  2
TABLES
  0
TABLE
  2
VPORT
  5
8
330
0
100
AcDbSymbolTable
 70
     1
  0
VPORT
  5
29
330
8
100
AcDbSymbolTableRecord
100
AcDbViewportTableRecord
  2
*Active
 70
     0
 10
0.0
 20
0.0
 11
1.0
 21
1.0
 12
178359.4156696394
 22
-39736.42409989567
 13
0.0
 23
0.0
 14
0.5
 24
0.5
 15
0.5
 25
0.5
 16
0.0
 26
0.0
 36
1.0
 17
0.0
 27
0.0
 37
0.0
 40
511.1741092506034
 41
0.7284638974752327
 42
50.0
 43
0.0
 44
0.0
 50
0.0
 51
0.0
 71
     0
 72
   100
 73
     1
 74
     3
 75
     0
 76
     0
 77
     0
 78
     0
281
     0
 65
     1
110
0.0
120
0.0
130
0.0
111
1.0
121
0.0
131
0.0
112
0.0
122
1.0
132
0.0
 79
     0
146
0.0
  0
ENDTAB
  0
TABLE
  2
LTYPE
  5
5
330
0
100
AcDbSymbolTable
 70
     1
  0
LTYPE
  5
14
330
5
100
AcDbSymbolTableRecord
100
AcDbLinetypeTableRecord
  2
ByBlock
 70
     0
  3

 72
    65
 73
     0
 40
0.0
  0
LTYPE
  5
15
330
5
100
AcDbSymbolTableRecord
100
AcDbLinetypeTableRecord
  2
ByLayer
 70
     0
  3

 72
    65
 73
     0
 40
0.0
  0
LTYPE
  5
16
330
5
100
AcDbSymbolTableRecord
100
AcDbLinetypeTableRecord
  2
Continuous
 70
     0
  3
Solid line
 72
    65
 73
     0
 40
0.0
  0
ENDTAB
  0
TABLE
  2
LAYER
  5
2
330
0
100
AcDbSymbolTable
 70
     2
  0
LAYER
  5
10
330
2
100
AcDbSymbolTableRecord
100
AcDbLayerTableRecord
  2
0
 70
     0
 62
     7
  6
Continuous
370
    -3
390
F
  0
LAYER
  5
3B
330
2
100
AcDbSymbolTableRecord
100
AcDbLayerTableRecord
  2
MAKE2D VISIBLE LINES
 70
     0
 62
     7
  6
Continuous
370
    -3
390
F
  0
ENDTAB
  0
TABLE
  2
STYLE
  5
3
330
0
100
AcDbSymbolTable
 70
     1
  0
STYLE
  5
11
330
3
100
AcDbSymbolTableRecord
100
AcDbTextStyleTableRecord
  2
Standard
 70
     0
 40
0.0
 41
1.0
 50
0.0
 71
     0
 42
0.2
  3
txt
  4

  0
ENDTAB
  0
TABLE
  2
VIEW
  5
6
330
0
100
AcDbSymbolTable
 70
     0
  0
ENDTAB
  0
TABLE
  2
UCS
  5
7
330
0
100
AcDbSymbolTable
 70
     0
  0
ENDTAB
  0
TABLE
  2
APPID
  5
9
330
0
100
AcDbSymbolTable
 70
     1
  0
APPID
  5
12
330
9
100
AcDbSymbolTableRecord
100
AcDbRegAppTableRecord
  2
ACAD
 70
     0
  0
ENDTAB
  0
TABLE
  2
DIMSTYLE
  5
A
330
0
100
AcDbSymbolTable
 70
     1
100
AcDbDimStyleTable
  0
DIMSTYLE
105
27
330
A
100
AcDbSymbolTableRecord
100
AcDbDimStyleTableRecord
  2
Standard
 70
     0
340
11
  0
ENDTAB
  0
TABLE
  2
BLOCK_RECORD
  5
1
330
0
100
AcDbSymbolTable
 70
     1
  0
BLOCK_RECORD
  5
1F
330
1
100
AcDbSymbolTableRecord
100
AcDbBlockTableRecord
  2
*Model_Space
340
22
  0
BLOCK_RECORD
  5
1B
330
1
100
AcDbSymbolTableRecord
100
AcDbBlockTableRecord
  2
*Paper_Space
340
1E
  0
BLOCK_RECORD
  5
23
330
1
100
AcDbSymbolTableRecord
100
AcDbBlockTableRecord
  2
*Paper_Space0
340
26
  0
ENDTAB
  0
ENDSEC
  0
SECTION
  2
BLOCKS
  0
BLOCK
  5
20
330
1F
100
AcDbEntity
  8
0
100
AcDbBlockBegin
  2
*Model_Space
 70
     0
 10
0.0
 20
0.0
 30
0.0
  3
*Model_Space
  1

  0
ENDBLK
  5
21
330
1F
100
AcDbEntity
  8
0
100
AcDbBlockEnd
  0
BLOCK
  5
1C
330
1B
100
AcDbEntity
 67
     1
  8
0
100
AcDbBlockBegin
  2
*Paper_Space
 70
     0
 10
0.0
 20
0.0
 30
0.0
  3
*Paper_Space
  1

  0
ENDBLK
  5
1D
330
1B
100
AcDbEntity
 67
     1
  8
0
100
AcDbBlockEnd
  0
BLOCK
  5
24
330
23
100
AcDbEntity
  8
0
100
AcDbBlockBegin
  2
*Paper_Space0
 70
     0
 10
0.0
 20
0.0
 30
0.0
  3
*Paper_Space0
  1

  0
ENDBLK
  5
25
330
23
100
AcDbEntity
  8
0
100
AcDbBlockEnd
  0
ENDSEC
  0
SECTION
  2
ENTITIES
  0
SPLINE
  5
3C
330
1F
100
AcDbEntity
  8
MAKE2D VISIBLE LINES
100
AcDbSpline
210
0.0
220
0.0
230
1.0
 70
     8
 71
     3
 72
    18
 73
    14
 74
     0
 42
0.0000000001
 43
0.0000000001
 40
0.0
 40
0.0
 40
0.0
 40
0.0
 40
45.84394971790025
 40
74.7684674514639
 40
83.99940500417735
 40
89.1434475256742
 40
97.82682061595106
 40
104.9355849656435
 40
111.5233331912601
 40
118.371113550981
 40
131.6850481367082
 40
144.8697716145717
 40
157.9142392517001
 40
157.9142392517001
 40
157.9142392517001
 40
157.9142392517001
 10
178176.929486673
 20
-39702.25042386318
 30
0.0
 10
178176.9666240632
 20
-39686.9693178179
 30
0.0
 10
178177.0164800445
 20
-39662.04606860208
 30
0.0
 10
178177.1589459503
 20
-39634.04713231073
 30
0.0
 10
178177.2059492599
 20
-39619.61348809563
 30
0.0
 10
178177.2508378237
 20
-39611.92878974449
 30
0.0
 10
178177.4119435191
 20
-39604.94794178577
 30
0.0
 10
178178.1823249175
 20
-39597.52133317199
 30
0.0
 10
178179.4325659639
 20
-39590.7838987646
 30
0.0
 10
178181.5943206431
 20
-39582.12912601324
 30
0.0
 10
178185.3710182286
 20
-39571.6478975804
 30
0.0
 10
178191.4882913227
 20
-39559.93747098728
 30
0.0
 10
178196.5714600195
 20
-39552.79860313889
 30
0.0
 10
178199.3337584323
 20
-39549.4403894385
 30
0.0
  0
SPLINE
  5
3D
330
1F
100
AcDbEntity
  8
MAKE2D VISIBLE LINES
100
AcDbSpline
210
0.0
220
0.0
230
1.0
 70
    11
 71
     3
 72
    75
 73
    71
 74
     0
 42
0.0000000001
 43
0.0000000001
 40
0.0
 40
0.0
 40
0.0
 40
0.0
 40
32.81169279943484
 40
65.57972286445253
 40
98.09123775897993
 40
114.4752405327371
 40
131.4992899733538
 40
150.634980196527
 40
151.6190236174831
 40
151.7557893198645
 40
353.9959484932323
 40
355.4007777278148
 40
374.470910138714
 40
402.6311633011434
 40
417.9912328125425
 40
425.6709704759876
 40
430.9168722487441
 40
458.7887298839068
 40
483.8766011772584
 40
494.3086317169641
 40
509.0926656397946
 40
524.8365144406137
 40
534.9484738095294
 40
559.9241780865558
 40
560.0721409616109
 40
612.431937947406
 40
669.0957415870961
 40
696.743646633527
 40
728.9994990220736
 40
742.8234057350452
 40
747.4630780622888
 40
747.5096761476035
 40
747.5859185789718
 40
747.6621610103668
 40
747.7087590957079
 40
748.988439424871
 40
753.9803323621625
 40
771.452286089962
 40
797.9160709009122
 40
811.1001297865021
 40
824.4757911477982
 40
850.9077719196168
 40
877.0198073294583
 40
879.1029263712408
 40
879.3367842184334
 40
879.4697558515485
 40
883.2478346610459
 40
894.1918145113435
 40
908.7837913821736
 40
941.6157424035728
 40
952.9446557118731
 40
953.523366687518
 40
1156.088903858667
 40
1156.175864981016
 40
1156.207462884651
 40
1157.103290671542
 40
1176.847191378894
 40
1195.91913460459
 40
1217.999124484305
 40
1240.846993145421
 40
1263.438858031447
 40
1274.958761022307
 40
1286.478686502527
 40
1296.078552851125
 40
1306.638471514004
 40
1306.751073763218
 40
1306.864149063912
 40
1322.632722157468
 40
1363.846443117698
 40
1478.539289811793
 40
1478.539289811793
 40
1478.539289811793
 40
1478.539289811793
 10
178444.82425646
 20
-39514.89738918937
 30
0.0
 10
178455.7605251229
 20
-39514.89268008777
 30
0.0
 10
178477.6201496696
 20
-39518.64822570269
 30
0.0
 10
178506.5765858122
 20
-39534.82571888341
 30
0.0
 10
178524.8476555219
 20
-39555.52865663204
 30
0.0
 10
178534.8229656317
 20
-39575.19567802705
 30
0.0
 10
178539.9729321996
 20
-39592.00653863625
 30
0.0
 10
178541.3303175584
 20
-39604.37601562778
 30
0.0
 10
178541.3676047674
 20
-39611.12746199434
 30
0.0
 10
178541.3978887599
 20
-39678.91445259097
 30
0.0
 10
178541.4288744438
 20
-39746.84168898889
 30
0.0
 10
178541.460807671
 20
-39821.08006015087
 30
0.0
 10
178541.1760892977
 20
-39837.29147234841
 30
0.0
 10
178540.0022850077
 20
-39858.12733988933
 30
0.0
 10
178538.4168632129
 20
-39875.12199248492
 30
0.0
 10
178537.3624687759
 20
-39884.49102116961
 30
0.0
 10
178535.7117662442
 20
-39897.99270818283
 30
0.0
 10
178530.2678347802
 20
-39916.79868485661
 30
0.0
 10
178519.423224381
 20
-39935.10887399615
 30
0.0
 10
178508.5505369188
 20
-39947.90305658467
 30
0.0
 10
178498.491648746
 20
-39957.1847390945
 30
0.0
 10
178487.2802426076
 20
-39964.85694057729
 30
0.0
 10
178472.199637936
 20
-39972.6255471959
 30
0.0
 10
178460.9302891136
 20
-39976.21965248099
 30
0.0
 10
178435.5554804106
 20
-39981.04101605401
 30
0.0
 10
178399.4496589734
 20
-39985.95994695223
 30
0.0
 10
178353.8334252036
 20
-39987.15574202414
 30
0.0
 10
178315.0290914359
 20
-39984.89468819061
 30
0.0
 10
178290.6111055423
 20
-39981.99801713695
 30
0.0
 10
178273.9307640742
 20
-39979.23334948793
 30
0.0
 10
178267.8632660872
 20
-39978.11172851745
 30
0.0
 10
178266.3036431889
 20
-39977.81580480852
 30
0.0
 10
178266.2384443326
 20
-39977.80342819892
 30
0.0
 10
178266.1732515126
 20
-39977.79104032766
 30
0.0
 10
178265.713950318
 20
-39977.70381179162
 30
0.0
 10
178263.6472714389
 20
-39977.29821583039
 30
0.0
 10
178255.9289105065
 20
-39975.53802401455
 30
0.0
 10
178240.4503061696
 20
-39970.21787364001
 30
0.0
 10
178224.0067240983
 20
-39960.32100195895
 30
0.0
 10
178210.8224360843
 20
-39948.49579494001
 30
0.0
 10
178199.2523323606
 20
-39935.10083047187
 30
0.0
 10
178188.1985878782
 20
-39915.9076202338
 30
0.0
 10
178183.2935481463
 20
-39898.22112230377
 30
0.0
 10
178182.0066175445
 20
-39888.83351564358
 30
0.0
 10
178181.905730096
 20
-39888.02296285361
 30
0.0
 10
178181.7357270353
 20
-39886.65197361377
 30
0.0
 10
178181.1456148908
 20
-39881.7353253691
 30
0.0
 10
178180.098038857
 20
-39872.02002666846
 30
0.0
 10
178178.4261852193
 20
-39852.63444398051
 30
0.0
 10
178177.514909001
 20
-39833.06409104769
 30
0.0
 10
178177.3701545306
 20
-39818.15085590516
 30
0.0
 10
178177.4020231044
 20
-39746.65981116876
 30
0.0
 10
178177.4325740415
 20
-39678.91607937041
 30
0.0
 10
178177.4627767878
 20
-39611.35472117347
 30
0.0
 10
178177.4631849894
 20
-39611.01659471338
 30
0.0
 10
178177.5041245625
 20
-39604.1260941504
 30
0.0
 10
178179.0046280414
 20
-39590.90437738968
 30
0.0
 10
178185.3036314194
 20
-39571.50332553894
 30
0.0
 10
178196.1038824841
 20
-39552.94372216321
 30
0.0
 10
178211.7154715236
 20
-39536.51264987681
 30
0.0
 10
178227.7506399365
 20
-39526.10469271058
 30
0.0
 10
178241.7928034635
 20
-39520.1872484354
 30
0.0
 10
178252.267943415
 20
-39517.17722055101
 30
0.0
 10
178262.6884299758
 20
-39515.38629768891
 30
0.0
 10
178269.4411101961
 20
-39514.94014301696
 30
0.0
 10
178273.0361979156
 20
-39514.90245560234
 30
0.0
 10
178278.3676151345
 20
-39514.90230866121
 30
0.0
 10
178297.3994047947
 20
-39514.90143590182
 30
0.0
 10
178354.6244516937
 20
-39514.89921370399
 30
0.0
 10
178406.5933075659
 20
-39514.89792842537
 30
0.0
 10
178444.82425646
 20
-39514.89738918937
 30
0.0
  0
ARC
  5
3E
330
1F
100
AcDbEntity
  8
MAKE2D VISIBLE LINES
100
AcDbCircle
 10
178495.7282940612
 20
-39518.49186031385
 30
0.0
 40
8.852654782439727
100
AcDbArc
 50
201.9360457265772
 51
242.0949482374112
  0
SPLINE
  5
3F
330
1F
100
AcDbEntity
  8
MAKE2D VISIBLE LINES
100
AcDbSpline
210
0.0
220
0.0
230
1.0
 70
     8
 71
     3
 72
    55
 73
    51
 74
     0
 42
0.0000000001
 43
0.0000000001
 40
0.0
 40
0.0
 40
0.0
 40
0.0
 40
13.13359497464041
 40
26.18898813684016
 40
35.15496036271098
 40
43.36470337076419
 40
65.1347709837615
 40
92.01470748098542
 40
99.17887043579177
 40
104.028758411909
 40
108.4177801632398
 40
116.6408515750374
 40
130.6598865421429
 40
144.8674656808789
 40
173.1553295513691
 40
203.6833356021656
 40
218.8505597728725
 40
226.5940251300578
 40
234.1499546145151
 40
243.0890368815426
 40
247.4274955704356
 40
255.5929628325114
 40
267.1175267932633
 40
284.0128384315572
 40
311.6609559431541
 40
337.0046681843514
 40
389.9965151349445
 40
405.8696844571194
 40
418.4084795062653
 40
421.98825684303
 40
425.5916331963044
 40
431.1136245011838
 40
440.1565733979065
 40
447.7695815812079
 40
455.5774312488184
 40
470.6184325526007
 40
485.7865243456075
 40
501.0829257626477
 40
529.4342705421784
 40
557.7838467655487
 40
565.8843678772855
 40
569.4423551449188
 40
575.3185105156124
 40
582.4954017736934
 40
609.3732102730106
 40
631.383293605387
 40
639.5534465545458
 40
649.2668520057151
 40
661.0524668298842
 40
674.5788260177214
 40
674.5788260177214
 40
674.5788260177214
 40
674.5788260177214
 10
178541.9322830785
 20
-39776.66530716754
 30
0.0
 10
178541.9271713737
 20
-39781.04316852198
 30
0.0
 10
178541.9200467147
 20
-39789.77283121527
 30
0.0
 10
178541.8914004016
 20
-39801.4911199192
 30
0.0
 10
178541.8832913128
 20
-39811.56814003461
 30
0.0
 10
178541.8200944808
 20
-39824.54994922932
 30
0.0
 10
178541.2625522886
 20
-39843.49860963953
 30
0.0
 10
178539.9240308618
 20
-39862.0599993925
 30
0.0
 10
178538.6163058685
 20
-39874.95887760889
 30
0.0
 10
178538.0089142486
 20
-39880.39276334447
 30
0.0
 10
178537.3679658257
 20
-39886.17763651557
 30
0.0
 10
178536.1609730797
 20
-39894.97645323676
 30
0.0
 10
178533.276999635
 20
-39906.8077193317
 30
0.0
 10
178526.3719966841
 20
-39924.38162431501
 30
0.0
 10
178512.9782882099
 20
-39944.97129469387
 30
0.0
 10
178494.1200354735
 20
-39961.2732242714
 30
0.0
 10
178478.3927482406
 20
-39969.73448741816
 30
0.0
 10
178468.9802893345
 20
-39973.56405413082
 30
0.0
 10
178461.2993201716
 20
-39976.0889194781
 30
0.0
 10
178454.5302085419
 20
-39977.67044522741
 30
0.0
 10
178447.5141808194
 20
-39979.02722309575
 30
0.0
 10
178439.6204771186
 20
-39980.39287656033
 30
0.0
 10
178427.5753489633
 20
-39982.29841374798
 30
0.0
 10
178409.0290737932
 20
-39984.63769344054
 30
0.0
 10
178385.8021058866
 20
-39986.52870152132
 30
0.0
 10
178350.4735480785
 20
-39987.46191996348
 30
0.0
 10
178319.0707093698
 20
-39985.77720471633
 30
0.0
 10
178292.1406827793
 20
-39982.41650377872
 30
0.0
 10
178281.6008826038
 20
-39980.79084455155
 30
0.0
 10
178275.1207940785
 20
-39979.68228266641
 30
0.0
 10
178270.9488169821
 20
-39978.95397181198
 30
0.0
 10
178264.9985387147
 20
-39977.82823815313
 30
0.0
 10
178257.7887820362
 20
-39976.1701911589
 30
0.0
 10
178250.0290070069
 20
-39973.63689951462
 30
0.0
 10
178240.6124135824
 20
-39969.82626084311
 30
0.0
 10
178229.412845458
 20
-39963.82563270839
 30
0.0
 10
178217.1850355092
 20
-39954.7826676409
 30
0.0
 10
178203.2427305902
 20
-39940.92387934557
 30
0.0
 10
178189.9712443982
 20
-39920.66432968183
 30
0.0
 10
178183.3425541817
 20
-39899.89758211284
 30
0.0
 10
178181.5235815316
 20
-39886.67770789768
 30
0.0
 10
178180.8643901787
 20
-39880.87164302626
 30
0.0
 10
178180.2505891696
 20
-39875.36790254473
 30
0.0
 10
178178.9066054208
 20
-39862.12600383424
 30
0.0
 10
178177.5587212798
 20
-39843.48073967718
 30
0.0
 10
178177.0079862941
 20
-39824.46609032539
 30
0.0
 10
178176.9413887077
 20
-39811.16831031893
 30
0.0
 10
178176.9385032852
 20
-39801.27856357547
 30
0.0
 10
178176.9101698874
 20
-39789.6034727537
 30
0.0
 10
178176.9026819531
 20
-39781.16614946713
 30
0.0
 10
178176.8977552683
 20
-39776.65736616934
 30
0.0
  0
LINE
  5
40
330
1F
100
AcDbEntity
  8
MAKE2D VISIBLE LINES
100
AcDbLine
 10
178218.9799214215
 20
-39531.37827602986
 30
0.0
 11
178218.8387357528
 21
-39513.66676277384
 31
0.0
  0
LINE
  5
41
330
1F
100
AcDbEntity
  8
MAKE2D VISIBLE LINES
100
AcDbLine
 10
178500.1439019442
 20
-39485.84860154614
 30
0.0
 11
178499.7806012303
 21
-39531.34652064372
 31
0.0
  0
LINE
  5
42
330
1F
100
AcDbEntity
  8
MAKE2D VISIBLE LINES
100
AcDbLine
 10
178218.8387357527
 20
-39513.66676277384
 30
0.0
 11
178218.6170099225
 21
-39485.848580051
 31
0.0
  0
LINE
  5
43
330
1F
100
AcDbEntity
  8
MAKE2D VISIBLE LINES
100
AcDbLine
 10
178176.8975243586
 20
-39776.63508078225
 30
0.0
 11
178176.880432427
 21
-39750.60942531925
 31
0.0
  0
ARC
  5
44
330
1F
100
AcDbEntity
  8
MAKE2D VISIBLE LINES
100
AcDbCircle
 10
178223.0286846348
 20
-39518.52217446281
 30
0.0
 40
8.851515013163704
100
AcDbArc
 50
297.9506697184451
 51
338.095299145761
  0
SPLINE
  5
45
330
1F
100
AcDbEntity
  8
MAKE2D VISIBLE LINES
100
AcDbSpline
210
0.0
220
0.0
230
1.0
 70
     8
 71
     3
 72
    19
 73
    15
 74
     0
 42
0.0000000001
 43
0.0000000001
 40
0.0
 40
0.0
 40
0.0
 40
0.0
 40
13.29948205399382
 40
26.41751635680325
 40
53.23345007055072
 40
60.08295986208483
 40
67.29188704986333
 40
68.05368320903176
 40
69.57850819636188
 40
73.10557808937159
 40
76.94028840823327
 40
88.72545785766626
 40
115.3447395227187
 40
158.191827318212
 40
158.191827318212
 40
158.191827318212
 40
158.191827318212
 10
178519.3457673044
 20
-39549.27770326919
 30
0.0
 10
178522.1683172842
 20
-39552.69640260321
 30
0.0
 10
178527.3050326851
 20
-39559.87503632136
 30
0.0
 10
178535.525939515
 20
-39575.6491356164
 30
0.0
 10
178539.8566823418
 20
-39590.77391502865
 30
0.0
 10
178541.3695142639
 20
-39604.32414029998
 30
0.0
 10
178541.5544290128
 20
-39609.26331089165
 30
0.0
 10
178541.5790665283
 20
-39612.42846340883
 30
0.0
 10
178541.5985047631
 20
-39614.36618960132
 30
0.0
 10
178541.5887188391
 20
-39617.32849436709
 30
0.0
 10
178541.6218172031
 20
-39623.71070431096
 30
0.0
 10
178541.6994902407
 20
-39637.79021459159
 30
0.0
 10
178541.8009702232
 20
-39664.87388044037
 30
0.0
 10
178541.8751548538
 20
-39688.02921285648
 30
0.0
 10
178541.9003134835
 20
-39702.31156146903
 30
0.0
  0
LINE
  5
46
330
1F
100
AcDbEntity
  8
MAKE2D VISIBLE LINES
100
AcDbLine
 10
178486.5213223443
 20
-39485.84855614538
 30
0.0
 11
178481.524208735
 21
-39485.84855614538
 31
0.0
  0
LINE
  5
47
330
1F
100
AcDbEntity
  8
MAKE2D VISIBLE LINES
100
AcDbLine
 10
178237.2366458507
 20
-39485.84855614538
 30
0.0
 11
178232.2395377843
 21
-39485.84855614538
 31
0.0
  0
ARC
  5
48
330
1F
100
AcDbEntity
  8
MAKE2D VISIBLE LINES
100
AcDbCircle
 10
178272.6817955354
 20
-39609.52289919903
 30
0.0
 40
94.81473064369936
100
AcDbArc
 50
118.6807283915767
 51
140.6727190206377
  0
ARC
  5
49
330
1F
100
AcDbEntity
  8
MAKE2D VISIBLE LINES
100
AcDbCircle
 10
157359.5111005644
 20
-39748.62955816751
 30
0.0
 40
21182.43980628722
100
AcDbArc
 50
359.9242017853484
 51
0.125073280625781
  0
LINE
  5
4A
330
1F
100
AcDbEntity
  8
MAKE2D VISIBLE LINES
100
AcDbLine
 10
178500.1382160986
 20
-39485.84855614538
 30
0.0
 11
178486.5213223443
 21
-39485.84855614538
 31
0.0
  0
ARC
  5
4B
330
1F
100
AcDbEntity
  8
MAKE2D VISIBLE LINES
100
AcDbCircle
 10
178446.0702211723
 20
-39609.60265744748
 30
0.0
 40
94.91213506862891
100
AcDbArc
 50
39.46331990211937
 51
61.34413613699481
  0
LINE
  5
4C
330
1F
100
AcDbEntity
  8
MAKE2D VISIBLE LINES
100
AcDbLine
 10
178481.524208735
 20
-39485.84855614538
 30
0.0
 11
178237.2366458507
 21
-39485.84855614538
 31
0.0
  0
LINE
  5
4D
330
1F
100
AcDbEntity
  8
MAKE2D VISIBLE LINES
100
AcDbLine
 10
178232.2395377843
 20
-39485.84855614538
 30
0.0
 11
178218.6200085129
 21
-39485.84855614538
 31
0.0
  0
LINE
  5
4E
330
1F
100
AcDbEntity
  8
MAKE2D VISIBLE LINES
100
AcDbLine
 10
178176.880432427
 20
-39750.60942531925
 30
0.0
 11
178176.9293331744
 21
-39702.32998107161
 31
0.0
  0
ENDSEC
  0
SECTION
  2
OBJECTS
  0
DICTIONARY
  5
C
330
0
100
AcDbDictionary
281
     1
  3
ACAD_GROUP
350
D
  3
ACAD_LAYOUT
350
1A
  3
ACAD_MLEADERSTYLE
350
50
  3
ACAD_MLINESTYLE
350
17
  3
ACAD_PLOTSETTINGS
350
19
  3
ACAD_PLOTSTYLENAME
350
E
  3
ACAD_TABLESTYLE
350
4F
  3
ACAD_VISUALSTYLE
350
2A
  0
DICTIONARY
  5
D
102
{ACAD_REACTORS
330
C
102
}
330
C
100
AcDbDictionary
281
     1
  0
DICTIONARY
  5
1A
102
{ACAD_REACTORS
330
C
102
}
330
C
100
AcDbDictionary
281
     1
  3
Layout1
350
1E
  3
Layout2
350
26
  3
Model
350
22
  0
DICTIONARY
  5
50
102
{ACAD_REACTORS
330
C
102
}
330
C
100
AcDbDictionary
281
     1
  0
DICTIONARY
  5
17
102
{ACAD_REACTORS
330
C
102
}
330
C
100
AcDbDictionary
281
     1
  3
Standard
350
18
  0
DICTIONARY
  5
19
102
{ACAD_REACTORS
330
C
102
}
330
C
100
AcDbDictionary
281
     1
  0
ACDBDICTIONARYWDFLT
  5
E
102
{ACAD_REACTORS
330
C
102
}
330
C
100
AcDbDictionary
281
     1
  3
Normal
350
F
100
AcDbDictionaryWithDefault
340
F
  0
DICTIONARY
  5
4F
102
{ACAD_REACTORS
330
C
102
}
330
C
100
AcDbDictionary
281
     1
  0
DICTIONARY
  5
2A
102
{ACAD_REACTORS
330
C
102
}
330
C
100
AcDbDictionary
281
     1
  3
2dWireframe
350
2F
  3
3D Hidden
350
31
  3
3dWireframe
350
30
  3
Basic
350
32
  3
Brighten
350
36
  3
ColorChange
350
3A
  3
Conceptual
350
34
  3
Dim
350
35
  3
Facepattern
350
39
  3
Flat
350
2B
  3
FlatWithEdges
350
2C
  3
Gouraud
350
2D
  3
GouraudWithEdges
350
2E
  3
Linepattern
350
38
  3
Realistic
350
33
  3
Thicken
350
37
  0
LAYOUT
  5
1E
102
{ACAD_REACTORS
330
1A
102
}
330
1A
100
AcDbPlotSettings
  1

  2
none_device
  4

  6

 40
0.0
 41
0.0
 42
0.0
 43
0.0
 44
0.0
 45
0.0
 46
0.0
 47
0.0
 48
0.0
 49
0.0
140
0.0
141
0.0
142
1.0
143
1.0
 70
   688
 72
     0
 73
     0
 74
     5
  7

 75
    16
 76
     0
 77
     2
 78
   300
147
1.0
148
0.0
149
0.0
100
AcDbLayout
  1
Layout1
 70
     1
 71
     1
 10
0.0
 20
0.0
 11
12.0
 21
9.0
 12
0.0
 22
0.0
 32
0.0
 14
1.000000000000000E+20
 24
1.000000000000000E+20
 34
1.000000000000000E+20
 15
-1.000000000000000E+20
 25
-1.000000000000000E+20
 35
-1.000000000000000E+20
146
0.0
 13
0.0
 23
0.0
 33
0.0
 16
1.0
 26
0.0
 36
0.0
 17
0.0
 27
1.0
 37
0.0
 76
     0
330
1B
  0
LAYOUT
  5
26
102
{ACAD_REACTORS
330
1A
102
}
330
1A
100
AcDbPlotSettings
  1

  2
none_device
  4

  6

 40
0.0
 41
0.0
 42
0.0
 43
0.0
 44
0.0
 45
0.0
 46
0.0
 47
0.0
 48
0.0
 49
0.0
140
0.0
141
0.0
142
1.0
143
1.0
 70
   688
 72
     0
 73
     0
 74
     5
  7

 75
    16
 76
     0
 77
     2
 78
   300
147
1.0
148
0.0
149
0.0
100
AcDbLayout
  1
Layout2
 70
     1
 71
     2
 10
0.0
 20
0.0
 11
0.0
 21
0.0
 12
0.0
 22
0.0
 32
0.0
 14
0.0
 24
0.0
 34
0.0
 15
0.0
 25
0.0
 35
0.0
146
0.0
 13
0.0
 23
0.0
 33
0.0
 16
1.0
 26
0.0
 36
0.0
 17
0.0
 27
1.0
 37
0.0
 76
     0
330
23
  0
LAYOUT
  5
22
102
{ACAD_REACTORS
330
1A
102
}
330
1A
100
AcDbPlotSettings
  1

  2
none_device
  4

  6

 40
0.0
 41
0.0
 42
0.0
 43
0.0
 44
0.0
 45
0.0
 46
0.0
 47
0.0
 48
0.0
 49
0.0
140
0.0
141
0.0
142
1.0
143
1.0
 70
  1712
 72
     0
 73
     0
 74
     0
  7

 75
     0
 76
     0
 77
     2
 78
   300
147
1.0
148
0.0
149
0.0
100
AcDbLayout
  1
Model
 70
     1
 71
     0
 10
0.0
 20
0.0
 11
12.0
 21
9.0
 12
0.0
 22
0.0
 32
0.0
 14
178176.880432427
 24
-39986.99964364597
 34
0.0
 15
178541.9509068516
 25
-39485.84855614538
 35
0.0
146
0.0
 13
0.0
 23
0.0
 33
0.0
 16
1.0
 26
0.0
 36
0.0
 17
0.0
 27
1.0
 37
0.0
 76
     0
330
1F
331
29
  0
MLINESTYLE
  5
18
102
{ACAD_REACTORS
330
17
102
}
330
17
100
AcDbMlineStyle
  2
Standard
 70
     0
  3

 62
   256
 51
90.0
 52
90.0
 71
     2
 49
0.5
 62
   256
  6
BYLAYER
 49
-0.5
 62
   256
  6
BYLAYER
  0
ACDBPLACEHOLDER
  5
F
102
{ACAD_REACTORS
330
E
102
}
330
E
  0
VISUALSTYLE
  5
2F
102
{ACAD_REACTORS
330
2A
102
}
330
2A
100
AcDbVisualStyle
  2
2dWireframe
 70
     4
 71
     0
 72
     2
 73
     0
 90
        0
 40
-0.6
 41
-30.0
 62
     5
 63
     7
421
 16777215
 74
     1
 91
        4
 64
     7
 65
   257
 75
     1
175
     1
 42
1.0
 92
        0
 66
   257
 43
1.0
 76
     1
 77
     6
 78
     2
 67
     7
 79
     5
170
     0
171
     0
290
     0
174
     0
 93
        1
 44
0.0
173
     0
291
     0
 45
0.0
1001
ACAD
1000
AcDbSavedByObjectVersion
1070
     0
  0
VISUALSTYLE
  5
31
102
{ACAD_REACTORS
330
2A
102
}
330
2A
100
AcDbVisualStyle
  2
3D Hidden
 70
     6
 71
     1
 72
     2
 73
     2
 90
        0
 40
-0.6
 41
-30.0
 62
     5
 63
     7
421
 16777215
 74
     2
 91
        2
 64
     7
 65
   257
 75
     2
175
     1
 42
40.0
 92
        0
 66
   257
 43
1.0
 76
     1
 77
     6
 78
     2
 67
     7
 79
     3
170
     0
171
     0
290
     0
174
     0
 93
        1
 44
0.0
173
     0
291
     0
 45
0.0
1001
ACAD
1000
AcDbSavedByObjectVersion
1070
     0
  0
VISUALSTYLE
  5
30
102
{ACAD_REACTORS
330
2A
102
}
330
2A
100
AcDbVisualStyle
  2
3dWireframe
 70
     5
 71
     0
 72
     2
 73
     0
 90
        0
 40
-0.6
 41
-30.0
 62
     5
 63
     7
421
 16777215
 74
     1
 91
        4
 64
     7
 65
   257
 75
     1
175
     1
 42
1.0
 92
        0
 66
   257
 43
1.0
 76
     1
 77
     6
 78
     2
 67
     7
 79
     5
170
     0
171
     0
290
     0
174
     0
 93
        1
 44
0.0
173
     0
291
     0
 45
0.0
1001
ACAD
1000
AcDbSavedByObjectVersion
1070
     0
  0
VISUALSTYLE
  5
32
102
{ACAD_REACTORS
330
2A
102
}
330
2A
100
AcDbVisualStyle
  2
Basic
 70
     7
 71
     1
 72
     0
 73
     1
 90
        0
 40
-0.6
 41
-30.0
 62
     5
 63
     7
421
 16777215
 74
     0
 91
        4
 64
     7
 65
   257
 75
     1
175
     1
 42
1.0
 92
        8
 66
     7
 43
1.0
 76
     1
 77
     6
 78
     2
 67
     7
 79
     5
170
     0
171
     0
290
     0
174
     0
 93
        1
 44
0.0
173
     0
291
     1
 45
0.0
1001
ACAD
1000
AcDbSavedByObjectVersion
1070
     0
  0
VISUALSTYLE
  5
36
102
{ACAD_REACTORS
330
2A
102
}
330
2A
100
AcDbVisualStyle
  2
Brighten
 70
    12
 71
     2
 72
     2
 73
     0
 90
        0
 40
-0.6
 41
-30.0
 62
     5
 63
     7
421
 16777215
 74
     1
 91
        4
 64
     7
 65
   257
 75
     1
175
     1
 42
1.0
 92
        8
 66
     7
 43
1.0
 76
     1
 77
     6
 78
     2
 67
     7
 79
     5
170
     0
171
     0
290
     0
174
     0
 93
        1
 44
50.0
173
     0
291
     1
 45
0.0
1001
ACAD
1000
AcDbSavedByObjectVersion
1070
     0
  0
VISUALSTYLE
  5
3A
102
{ACAD_REACTORS
330
2A
102
}
330
2A
100
AcDbVisualStyle
  2
ColorChange
 70
    16
 71
     2
 72
     2
 73
     3
 90
        0
 40
-0.6
 41
-30.0
 62
     5
 63
     8
421
  8421504
 74
     1
 91
        4
 64
     7
 65
   257
 75
     1
175
     1
 42
1.0
 92
        8
 66
     8
424
  8421504
 43
1.0
 76
     1
 77
     6
 78
     2
 67
     7
 79
     5
170
     0
171
     0
290
     0
174
     0
 93
        1
 44
0.0
173
     0
291
     1
 45
0.0
1001
ACAD
1000
AcDbSavedByObjectVersion
1070
     0
  0
VISUALSTYLE
  5
34
102
{ACAD_REACTORS
330
2A
102
}
330
2A
100
AcDbVisualStyle
  2
Conceptual
 70
     9
 71
     3
 72
     2
 73
     0
 90
        0
 40
-0.6
 41
-30.0
 62
     5
 63
     7
421
 16777215
 74
     2
 91
        2
 64
     7
 65
   257
 75
     1
175
     1
 42
40.0
 92
        8
 66
     7
 43
1.0
 76
     1
 77
     6
 78
     2
 67
     7
 79
     3
170
     0
171
     0
290
     0
174
     0
 93
        1
 44
0.0
173
     0
291
     0
 45
0.0
1001
ACAD
1000
AcDbSavedByObjectVersion
1070
     0
  0
VISUALSTYLE
  5
35
102
{ACAD_REACTORS
330
2A
102
}
330
2A
100
AcDbVisualStyle
  2
Dim
 70
    11
 71
     2
 72
     2
 73
     0
 90
        0
 40
-0.6
 41
-30.0
 62
     5
 63
     7
421
 16777215
 74
     1
 91
        4
 64
     7
 65
   257
 75
     1
175
     1
 42
1.0
 92
        8
 66
     7
 43
1.0
 76
     1
 77
     6
 78
     2
 67
     7
 79
     5
170
     0
171
     0
290
     0
174
     0
 93
        1
 44
-50.0
173
     0
291
     1
 45
0.0
1001
ACAD
1000
AcDbSavedByObjectVersion
1070
     0
  0
VISUALSTYLE
  5
39
102
{ACAD_REACTORS
330
2A
102
}
330
2A
100
AcDbVisualStyle
  2
Facepattern
 70
    15
 71
     2
 72
     2
 73
     0
 90
        0
 40
-0.6
 41
-30.0
 62
     5
 63
     7
421
 16777215
 74
     1
 91
        4
 64
     7
 65
   257
 75
     1
175
     1
 42
1.0
 92
        8
 66
     7
 43
1.0
 76
     1
 77
     6
 78
     2
 67
     7
 79
     5
170
     0
171
     0
290
     0
174
     0
 93
        1
 44
0.0
173
     0
291
     1
 45
0.0
1001
ACAD
1000
AcDbSavedByObjectVersion
1070
     0
  0
VISUALSTYLE
  5
2B
102
{ACAD_REACTORS
330
2A
102
}
330
2A
100
AcDbVisualStyle
  2
Flat
 70
     0
 71
     2
 72
     1
 73
     1
 90
        2
 40
-0.6
 41
30.0
 62
     5
 63
     7
421
 16777215
 74
     0
 91
        4
 64
     7
 65
   257
 75
     1
175
     1
 42
1.0
 92
        8
 66
     7
 43
1.0
 76
     1
 77
     6
 78
     2
 67
     7
 79
     5
170
     0
171
     0
290
     0
174
     0
 93
       13
 44
0.0
173
     0
291
     1
 45
0.0
1001
ACAD
1000
AcDbSavedByObjectVersion
1070
     0
  0
VISUALSTYLE
  5
2C
102
{ACAD_REACTORS
330
2A
102
}
330
2A
100
AcDbVisualStyle
  2
FlatWithEdges
 70
     1
 71
     2
 72
     1
 73
     1
 90
        2
 40
-0.6
 41
30.0
 62
     5
 63
     7
421
 16777215
 74
     1
 91
        4
 64
     7
 65
   257
 75
     1
175
     1
 42
1.0
 92
        0
 66
   257
 43
1.0
 76
     1
 77
     6
 78
     2
 67
     7
 79
     5
170
     0
171
     0
290
     0
174
     0
 93
       13
 44
0.0
173
     0
291
     1
 45
0.0
1001
ACAD
1000
AcDbSavedByObjectVersion
1070
     0
  0
VISUALSTYLE
  5
2D
102
{ACAD_REACTORS
330
2A
102
}
330
2A
100
AcDbVisualStyle
  2
Gouraud
 70
     2
 71
     2
 72
     2
 73
     1
 90
        2
 40
-0.6
 41
30.0
 62
     5
 63
     7
421
 16777215
 74
     0
 91
        4
 64
     7
 65
   257
 75
     1
175
     1
 42
1.0
 92
        0
 66
     7
 43
1.0
 76
     1
 77
     6
 78
     2
 67
     7
 79
     5
170
     0
171
     0
290
     0
174
     0
 93
       13
 44
0.0
173
     0
291
     1
 45
0.0
1001
ACAD
1000
AcDbSavedByObjectVersion
1070
     0
  0
VISUALSTYLE
  5
2E
102
{ACAD_REACTORS
330
2A
102
}
330
2A
100
AcDbVisualStyle
  2
GouraudWithEdges
 70
     3
 71
     2
 72
     2
 73
     1
 90
        2
 40
-0.6
 41
30.0
 62
     5
 63
     7
421
 16777215
 74
     1
 91
        4
 64
     7
 65
   257
 75
     1
175
     1
 42
1.0
 92
        0
 66
   257
 43
1.0
 76
     1
 77
     6
 78
     2
 67
     7
 79
     5
170
     0
171
     0
290
     0
174
     0
 93
       13
 44
0.0
173
     0
291
     1
 45
0.0
1001
ACAD
1000
AcDbSavedByObjectVersion
1070
     0
  0
VISUALSTYLE
  5
38
102
{ACAD_REACTORS
330
2A
102
}
330
2A
100
AcDbVisualStyle
  2
Linepattern
 70
    14
 71
     2
 72
     2
 73
     0
 90
        0
 40
-0.6
 41
-30.0
 62
     5
 63
     7
421
 16777215
 74
     1
 91
        4
 64
     7
 65
   257
 75
     7
175
     7
 42
1.0
 92
        8
 66
     7
 43
1.0
 76
     1
 77
     6
 78
     2
 67
     7
 79
     5
170
     0
171
     0
290
     0
174
     0
 93
        1
 44
0.0
173
     0
291
     1
 45
0.0
1001
ACAD
1000
AcDbSavedByObjectVersion
1070
     0
  0
VISUALSTYLE
  5
33
102
{ACAD_REACTORS
330
2A
102
}
330
2A
100
AcDbVisualStyle
  2
Realistic
 70
     8
 71
     2
 72
     2
 73
     0
 90
        0
 40
-0.6
 41
-30.0
 62
     5
 63
     7
421
 16777215
 74
     1
 91
        0
 64
     7
 65
   257
 75
     1
175
     1
 42
1.0
 92
        8
 66
     8
424
  7895160
 43
1.0
 76
     1
 77
     6
 78
     2
 67
     7
 79
     5
170
     0
171
     0
290
     0
174
     0
 93
       13
 44
0.0
173
     0
291
     0
 45
0.0
1001
ACAD
1000
AcDbSavedByObjectVersion
1070
     0
  0
VISUALSTYLE
  5
37
102
{ACAD_REACTORS
330
2A
102
}
330
2A
100
AcDbVisualStyle
  2
Thicken
 70
    13
 71
     2
 72
     2
 73
     0
 90
        0
 40
-0.6
 41
-30.0
 62
     5
 63
     7
421
 16777215
 74
     1
 91
        4
 64
     7
 65
   257
 75
     1
175
     1
 42
1.0
 92
       12
 66
     7
 43
1.0
 76
     1
 77
     6
 78
     2
 67
     7
 79
     5
170
     0
171
     0
290
     0
174
     0
 93
        1
 44
0.0
173
     0
291
     1
 45
0.0
1001
ACAD
1000
AcDbSavedByObjectVersion
1070
     0
  0
ENDSEC
  0
EOF
