  0
SECTION
  2
HEADER
  9
$ACADVER
  1
AC1021
  9
$ACADMAINTVER
 70
    50
  9
$DWGCODEPAGE
  3
ANSI_1252
  9
$LASTSAVEDBY
  1
François
  9
$INSBASE
 10
0.9999979999999997
 20
14.500002
 30
53.992977
  9
$EXTMIN
 10
-14.000002
 20
-14.451008
 30
0.992978
  9
$EXTMAX
 10
15.999997
 20
14.500003
 30
53.992977
  9
$LIMMIN
 10
0.0
 20
0.0
  9
$LIMMAX
 10
12.0
 20
9.0
  9
$ORTHOMODE
 70
     0
  9
$REGENMODE
 70
     1
  9
$FILLMODE
 70
     1
  9
$QTEXTMODE
 70
     0
  9
$MIRRTEXT
 70
     0
  9
$LTSCALE
 40
1.0
  9
$ATTMODE
 70
     1
  9
$TEXTSIZE
 40
0.2
  9
$TRACEWID
 40
0.05
  9
$TEXTSTYLE
  7
Standard
  9
$CLAYER
  8
0
  9
$CELTYPE
  6
ByLayer
  9
$CECOLOR
 62
   256
  9
$CELTSCALE
 40
1.0
  9
$DISPSILH
 70
     0
  9
$DIMSCALE
 40
1.0
  9
$DIMASZ
 40
0.18
  9
$DIMEXO
 40
0.0625
  9
$DIMDLI
 40
0.38
  9
$DIMRND
 40
0.0
  9
$DIMDLE
 40
0.0
  9
$DIMEXE
 40
0.18
  9
$DIMTP
 40
0.0
  9
$DIMTM
 40
0.0
  9
$DIMTXT
 40
0.18
  9
$DIMCEN
 40
0.09
  9
$DIMTSZ
 40
0.0
  9
$DIMTOL
 70
     0
  9
$DIMLIM
 70
     0
  9
$DIMTIH
 70
     1
  9
$DIMTOH
 70
     1
  9
$DIMSE1
 70
     0
  9
$DIMSE2
 70
     0
  9
$DIMTAD
 70
     0
  9
$DIMZIN
 70
     0
  9
$DIMBLK
  1

  9
$DIMASO
 70
     1
  9
$DIMSHO
 70
     1
  9
$DIMPOST
  1

  9
$DIMAPOST
  1

  9
$DIMALT
 70
     0
  9
$DIMALTD
 70
     2
  9
$DIMALTF
 40
25.4
  9
$DIMLFAC
 40
1.0
  9
$DIMTOFL
 70
     0
  9
$DIMTVP
 40
0.0
  9
$DIMTIX
 70
     0
  9
$DIMSOXD
 70
     0
  9
$DIMSAH
 70
     0
  9
$DIMBLK1
  1

  9
$DIMBLK2
  1

  9
$DIMSTYLE
  2
Standard
  9
$DIMCLRD
 70
     0
  9
$DIMCLRE
 70
     0
  9
$DIMCLRT
 70
     0
  9
$DIMTFAC
 40
1.0
  9
$DIMGAP
 40
0.09
  9
$DIMJUST
 70
     0
  9
$DIMSD1
 70
     0
  9
$DIMSD2
 70
     0
  9
$DIMTOLJ
 70
     1
  9
$DIMTZIN
 70
     0
  9
$DIMALTZ
 70
     0
  9
$DIMALTTZ
 70
     0
  9
$DIMUPT
 70
     0
  9
$DIMDEC
 70
     4
  9
$DIMTDEC
 70
     4
  9
$DIMALTU
 70
     2
  9
$DIMALTTD
 70
     2
  9
$DIMTXSTY
  7
Standard
  9
$DIMAUNIT
 70
     0
  9
$DIMADEC
 70
     0
  9
$DIMALTRND
 40
0.0
  9
$DIMAZIN
 70
     0
  9
$DIMDSEP
 70
    46
  9
$DIMATFIT
 70
     3
  9
$DIMFRAC
 70
     0
  9
$DIMLDRBLK
  1

  9
$DIMLUNIT
 70
     2
  9
$DIMLWD
 70
    -2
  9
$DIMLWE
 70
    -2
  9
$DIMTMOVE
 70
     0
  9
$DIMFXL
 40
1.0
  9
$DIMFXLON
 70
     0
  9
$DIMJOGANG
 40
0.7853981633974483
  9
$DIMTFILL
 70
     0
  9
$DIMTFILLCLR
 70
     0
  9
$DIMARCSYM
 70
     0
  9
$DIMLTYPE
  6

  9
$DIMLTEX1
  6

  9
$DIMLTEX2
  6

  9
$LUNITS
 70
     2
  9
$LUPREC
 70
     4
  9
$SKETCHINC
 40
0.1
  9
$FILLETRAD
 40
0.0
  9
$AUNITS
 70
     0
  9
$AUPREC
 70
     0
  9
$MENU
  1
.
  9
$ELEVATION
 40
0.0
  9
$PELEVATION
 40
0.0
  9
$THICKNESS
 40
0.0
  9
$LIMCHECK
 70
     0
  9
$CHAMFERA
 40
0.0
  9
$CHAMFERB
 40
0.0
  9
$CHAMFERC
 40
0.0
  9
$CHAMFERD
 40
0.0
  9
$SKPOLY
 70
     0
  9
$TDCREATE
 40
2455313.741033889
  9
$TDUCREATE
 40
2455313.657700556
  9
$TDUPDATE
 40
2455313.741754549
  9
$TDUUPDATE
 40
2455313.658421215
  9
$TDINDWG
 40
0.0007221181
  9
$TDUSRTIMER
 40
0.0007221181
  9
$USRTIMER
 70
     1
  9
$ANGBASE
 50
0.0
  9
$ANGDIR
 70
     0
  9
$PDMODE
 70
     0
  9
$PDSIZE
 40
0.0
  9
$PLINEWID
 40
0.0
  9
$SPLFRAME
 70
     0
  9
$SPLINETYPE
 70
     6
  9
$SPLINESEGS
 70
     8
  9
$HANDSEED
  5
4B2
  9
$SURFTAB1
 70
     6
  9
$SURFTAB2
 70
     6
  9
$SURFTYPE
 70
     6
  9
$SURFU
 70
     6
  9
$SURFV
 70
     6
  9
$UCSBASE
  2

  9
$UCSNAME
  2

  9
$UCSORG
 10
0.0
 20
0.0
 30
0.0
  9
$UCSXDIR
 10
1.0
 20
0.0
 30
0.0
  9
$UCSYDIR
 10
0.0
 20
1.0
 30
0.0
  9
$UCSORTHOREF
  2

  9
$UCSORTHOVIEW
 70
     0
  9
$UCSORGTOP
 10
0.0
 20
0.0
 30
0.0
  9
$UCSORGBOTTOM
 10
0.0
 20
0.0
 30
0.0
  9
$UCSORGLEFT
 10
0.0
 20
0.0
 30
0.0
  9
$UCSORGRIGHT
 10
0.0
 20
0.0
 30
0.0
  9
$UCSORGFRONT
 10
0.0
 20
0.0
 30
0.0
  9
$UCSORGBACK
 10
0.0
 20
0.0
 30
0.0
  9
$PUCSBASE
  2

  9
$PUCSNAME
  2

  9
$PUCSORG
 10
0.0
 20
0.0
 30
0.0
  9
$PUCSXDIR
 10
1.0
 20
0.0
 30
0.0
  9
$PUCSYDIR
 10
0.0
 20
1.0
 30
0.0
  9
$PUCSORTHOREF
  2

  9
$PUCSORTHOVIEW
 70
     0
  9
$PUCSORGTOP
 10
0.0
 20
0.0
 30
0.0
  9
$PUCSORGBOTTOM
 10
0.0
 20
0.0
 30
0.0
  9
$PUCSORGLEFT
 10
0.0
 20
0.0
 30
0.0
  9
$PUCSORGRIGHT
 10
0.0
 20
0.0
 30
0.0
  9
$PUCSORGFRONT
 10
0.0
 20
0.0
 30
0.0
  9
$PUCSORGBACK
 10
0.0
 20
0.0
 30
0.0
  9
$USERI1
 70
     0
  9
$USERI2
 70
     0
  9
$USERI3
 70
     0
  9
$USERI4
 70
     0
  9
$USERI5
 70
     0
  9
$USERR1
 40
0.0
  9
$USERR2
 40
0.0
  9
$USERR3
 40
0.0
  9
$USERR4
 40
0.0
  9
$USERR5
 40
0.0
  9
$WORLDVIEW
 70
     1
  9
$SHADEDGE
 70
     3
  9
$SHADEDIF
 70
    70
  9
$TILEMODE
 70
     1
  9
$MAXACTVP
 70
    64
  9
$PINSBASE
 10
0.0
 20
0.0
 30
0.0
  9
$PLIMCHECK
 70
     0
  9
$PEXTMIN
 10
1.000000000000000E+20
 20
1.000000000000000E+20
 30
1.000000000000000E+20
  9
$PEXTMAX
 10
-1.000000000000000E+20
 20
-1.000000000000000E+20
 30
-1.000000000000000E+20
  9
$PLIMMIN
 10
0.0
 20
0.0
  9
$PLIMMAX
 10
12.0
 20
9.0
  9
$UNITMODE
 70
     0
  9
$VISRETAIN
 70
     1
  9
$PLINEGEN
 70
     0
  9
$PSLTSCALE
 70
     1
  9
$TREEDEPTH
 70
  3020
  9
$CMLSTYLE
  2
Standard
  9
$CMLJUST
 70
     0
  9
$CMLSCALE
 40
1.0
  9
$PROXYGRAPHICS
 70
     1
  9
$MEASUREMENT
 70
     0
  9
$CELWEIGHT
370
    -1
  9
$ENDCAPS
280
     0
  9
$JOINSTYLE
280
     0
  9
$LWDISPLAY
290
     0
  9
$INSUNITS
 70
     0
  9
$HYPERLINKBASE
  1

  9
$STYLESHEET
  1

  9
$XEDIT
290
     1
  9
$CEPSNTYPE
380
     0
  9
$PSTYLEMODE
290
     1
  9
$FINGERPRINTGUID
  2
{DC89EBDA-A351-4B15-8E26-16C7CD9B8F68}
  9
$VERSIONGUID
  2
{54D78779-3D32-498C-BD5D-1E1CDE5A20FD}
  9
$EXTNAMES
290
     1
  9
$PSVPSCALE
 40
0.0
  9
$OLESTARTUP
290
     0
  9
$SORTENTS
280
   127
  9
$INDEXCTL
280
     0
  9
$HIDETEXT
280
     0
  9
$XCLIPFRAME
290
     0
  9
$HALOGAP
280
     0
  9
$OBSCOLOR
 70
   257
  9
$OBSLTYPE
280
     0
  9
$INTERSECTIONDISPLAY
280
     0
  9
$INTERSECTIONCOLOR
 70
   257
  9
$DIMASSOC
280
     1
  9
$PROJECTNAME
  1

  9
$CAMERADISPLAY
290
     0
  9
$LENSLENGTH
 40
50.0
  9
$CAMERAHEIGHT
 40
0.0
  9
$STEPSPERSEC
 40
2.0
  9
$STEPSIZE
 40
6.0
  9
$3DDWFPREC
 40
2.0
  9
$PSOLWIDTH
 40
0.25
  9
$PSOLHEIGHT
 40
4.0
  9
$LOFTANG1
 40
1.570796326794896
  9
$LOFTANG2
 40
1.570796326794896
  9
$LOFTMAG1
 40
0.0
  9
$LOFTMAG2
 40
0.0
  9
$LOFTPARAM
 70
     7
  9
$LOFTNORMALS
280
     1
  9
$LATITUDE
 40
37.795
  9
$LONGITUDE
 40
-122.394
  9
$NORTHDIRECTION
 40
0.0
  9
$TIMEZONE
 70
 -8000
  9
$LIGHTGLYPHDISPLAY
280
     1
  9
$TILEMODELIGHTSYNCH
280
     1
  9
$CMATERIAL
347
11
  9
$SOLIDHIST
280
     1
  9
$SHOWHIST
280
     1
  9
$DWFFRAME
280
     2
  9
$DGNFRAME
280
     0
  9
$REALWORLDSCALE
290
     1
  9
$INTERFERECOLOR
 62
     1
  9
$INTERFEREOBJVS
345
33
  9
$INTERFEREVPVS
346
30
  9
$CSHADOW
280
     0
  9
$SHADOWPLANELOCATION
 40
0.0
  0
ENDSEC
  0
SECTION
  2
CLASSES
  0
CLASS
  1
ACDBDICTIONARYWDFLT
  2
AcDbDictionaryWithDefault
  3
ObjectDBX Classes
 90
        0
 91
        1
280
     0
281
     0
  0
CLASS
  1
MATERIAL
  2
AcDbMaterial
  3
ObjectDBX Classes
 90
     1153
 91
        3
280
     0
281
     0
  0
CLASS
  1
VISUALSTYLE
  2
AcDbVisualStyle
  3
ObjectDBX Classes
 90
     4095
 91
       16
280
     0
281
     0
  0
CLASS
  1
SCALE
  2
AcDbScale
  3
ObjectDBX Classes
 90
     1153
 91
       33
280
     0
281
     0
  0
CLASS
  1
TABLESTYLE
  2
AcDbTableStyle
  3
ObjectDBX Classes
 90
     4095
 91
        1
280
     0
281
     0
  0
CLASS
  1
MLEADERSTYLE
  2
AcDbMLeaderStyle
  3
ACDB_MLEADERSTYLE_CLASS
 90
     4095
 91
        1
280
     0
281
     0
  0
CLASS
  1
SOLID_BACKGROUND
  2
AcDbSolidBackground
  3
SCENEOE
 90
     4095
 91
        1
280
     0
281
     0
  0
CLASS
  1
NPOCOLLECTION
  2
AcDbImpNonPersistentObjectsCollection
  3
ObjectDBX Classes
 90
     1153
 91
        1
280
     0
281
     0
  0
CLASS
  1
DICTIONARYVAR
  2
AcDbDictionaryVar
  3
ObjectDBX Classes
 90
        0
 91
        7
280
     0
281
     0
  0
CLASS
  1
CELLSTYLEMAP
  2
AcDbCellStyleMap
  3
ObjectDBX Classes
 90
     1152
 91
        1
280
     0
281
     0
  0
ENDSEC
  0
SECTION
  2
TABLES
  0
TABLE
  2
VPORT
  5
8
330
0
100
AcDbSymbolTable
 70
     1
  0
VPORT
  5
49B
330
8
100
AcDbSymbolTableRecord
100
AcDbViewportTableRecord
  2
*Active
 70
     0
 10
0.0
 20
0.0
 11
1.0
 21
1.0
 12
0.0
 22
0.0
 13
0.0
 23
0.0
 14
1.0
 24
1.0
 15
0.0
 25
0.0
 16
-68.54444208365864
 26
-98.85167059915643
 36
108.0316138536201
 17
3.785703900991962
 27
19.54410613737269
 37
25.79240430943521
 40
54.39701056495021
 41
2.287671232876712
 42
50.0
 43
0.0
 44
0.0
 50
0.0
 51
0.0000000000000453
 71
     0
 72
  1000
 73
     1
 74
     3
 75
     0
 76
     0
 77
     0
 78
     0
281
     0
 65
     1
110
0.0
120
0.0
130
0.0
111
1.0
121
0.0
131
0.0
112
0.0
122
1.0
132
0.0
 79
     0
146
0.0
348
2F
 60
     3
 61
     5
292
     1
282
     1
141
0.0
142
0.0
 63
   250
421
  3355443
  0
ENDTAB
  0
TABLE
  2
LTYPE
  5
5
330
0
100
AcDbSymbolTable
 70
     1
  0
LTYPE
  5
62
330
5
100
AcDbSymbolTableRecord
100
AcDbLinetypeTableRecord
  2
ByBlock
 70
     0
  3

 72
    65
 73
     0
 40
0.0
  0
LTYPE
  5
63
330
5
100
AcDbSymbolTableRecord
100
AcDbLinetypeTableRecord
  2
ByLayer
 70
     0
  3

 72
    65
 73
     0
 40
0.0
  0
LTYPE
  5
64
330
5
100
AcDbSymbolTableRecord
100
AcDbLinetypeTableRecord
  2
Continuous
 70
     0
  3
Solid line
 72
    65
 73
     0
 40
0.0
  0
ENDTAB
  0
TABLE
  2
LAYER
  5
2
330
0
100
AcDbSymbolTable
 70
     4
  0
LAYER
  5
5C
102
{ACAD_XDICTIONARY
360
49F
102
}
330
2
100
AcDbSymbolTableRecord
100
AcDbLayerTableRecord
  2
0
 70
     0
 62
     7
  6
Continuous
370
    -3
390
F
347
21
  0
LAYER
  5
78
102
{ACAD_XDICTIONARY
360
4A1
102
}
330
2
100
AcDbSymbolTableRecord
100
AcDbLayerTableRecord
  2
Courbe6
 70
     0
 62
     7
  6
Continuous
370
    -3
390
F
347
21
  0
LAYER
  5
7B
102
{ACAD_XDICTIONARY
360
4A3
102
}
330
2
100
AcDbSymbolTableRecord
100
AcDbLayerTableRecord
  2
Courbe7
 70
     0
 62
     7
  6
Continuous
370
    -3
390
F
347
21
  0
LAYER
  5
91
102
{ACAD_XDICTIONARY
360
4A5
102
}
330
2
100
AcDbSymbolTableRecord
100
AcDbLayerTableRecord
  2
Form8
 70
     0
 62
     7
  6
Continuous
370
    -3
390
F
347
21
  0
ENDTAB
  0
TABLE
  2
STYLE
  5
3
330
0
100
AcDbSymbolTable
 70
     2
  0
STYLE
  5
5D
330
3
100
AcDbSymbolTableRecord
100
AcDbTextStyleTableRecord
  2
Standard
 70
     0
 40
0.0
 41
1.0
 50
0.0
 71
     0
 42
0.2
  3
txt
  4

  0
STYLE
  5
61
330
3
100
AcDbSymbolTableRecord
100
AcDbTextStyleTableRecord
  2
Annotative
 70
     0
 40
0.0
 41
1.0
 50
0.0
 71
     0
 42
0.2
  3
txt
  4

1001
AcadAnnotative
1000
AnnotativeData
1002
{
1070
     1
1070
     1
1002
}
  0
ENDTAB
  0
TABLE
  2
VIEW
  5
6
330
0
100
AcDbSymbolTable
 70
     0
  0
ENDTAB
  0
TABLE
  2
UCS
  5
7
330
0
100
AcDbSymbolTable
 70
     0
  0
ENDTAB
  0
TABLE
  2
APPID
  5
9
330
0
100
AcDbSymbolTable
 70
     3
  0
APPID
  5
5E
330
9
100
AcDbSymbolTableRecord
100
AcDbRegAppTableRecord
  2
ACAD
 70
     0
  0
APPID
  5
65
330
9
100
AcDbSymbolTableRecord
100
AcDbRegAppTableRecord
  2
AcadAnnotative
 70
     0
  0
APPID
  5
6F
330
9
100
AcDbSymbolTableRecord
100
AcDbRegAppTableRecord
  2
ACAD_MLEADERVER
 70
     0
  0
ENDTAB
  0
TABLE
  2
DIMSTYLE
  5
A
330
0
100
AcDbSymbolTable
 70
     2
100
AcDbDimStyleTable
 71
     0
  0
DIMSTYLE
105
5F
330
A
100
AcDbSymbolTableRecord
100
AcDbDimStyleTableRecord
  2
Standard
 70
     0
340
5D
  0
DIMSTYLE
105
60
330
A
100
AcDbSymbolTableRecord
100
AcDbDimStyleTableRecord
  2
Annotative
 70
     0
340
5D
1001
AcadAnnotative
1000
AnnotativeData
1002
{
1070
     1
1070
     1
1002
}
  0
ENDTAB
  0
TABLE
  2
BLOCK_RECORD
  5
1
330
0
100
AcDbSymbolTable
 70
     0
  0
BLOCK_RECORD
  5
74
330
1
100
AcDbSymbolTableRecord
100
AcDbBlockTableRecord
  2
*Model_Space
340
77
 70
     0
280
     1
281
     0
  0
BLOCK_RECORD
  5
70
330
1
100
AcDbSymbolTableRecord
100
AcDbBlockTableRecord
  2
*Paper_Space
340
73
 70
     0
280
     1
281
     0
  0
ENDTAB
  0
ENDSEC
  0
SECTION
  2
BLOCKS
  0
BLOCK
  5
75
330
74
100
AcDbEntity
  8
0
100
AcDbBlockBegin
  2
*Model_Space
 70
     0
 10
0.0
 20
0.0
 30
0.0
  3
*Model_Space
  1

  0
ENDBLK
  5
76
330
74
100
AcDbEntity
  8
0
100
AcDbBlockEnd
  0
BLOCK
  5
71
330
70
100
AcDbEntity
 67
     1
  8
0
100
AcDbBlockBegin
  2
*Paper_Space
 70
     0
 10
0.0
 20
0.0
 30
0.0
  3
*Paper_Space
  1

  0
ENDBLK
  5
72
330
70
100
AcDbEntity
 67
     1
  8
0
100
AcDbBlockEnd
  0
ENDSEC
  0
SECTION
  2
ENTITIES
  0
LINE
  5
79
330
74
100
AcDbEntity
  8
Courbe6
100
AcDbLine
 10
11.413272
 20
7.598525
 30
49.047832
 11
11.946321
 21
7.488738
 31
48.908039
  0
LINE
  5
7A
330
74
100
AcDbEntity
  8
Courbe6
100
AcDbLine
 10
11.946321
 20
7.488738
 30
48.908039
 11
12.176999
 21
7.352997999999999
 31
48.413979
  0
LINE
  5
7C
330
74
100
AcDbEntity
  8
Courbe7
100
AcDbLine
 10
-10.177005
 20
6.17449
 30
42.62278
 11
-9.726582999999999
 21
3.125790999999999
 31
40.52022899999999
  0
LINE
  5
7D
330
74
100
AcDbEntity
  8
Courbe7
100
AcDbLine
 10
-9.726582999999999
 20
3.125790999999999
 30
40.52022899999999
 11
-8.989392999999999
 21
0.4334920000000001
 31
38.663471
  0
LINE
  5
7E
330
74
100
AcDbEntity
  8
Courbe7
100
AcDbLine
 10
-8.989392999999999
 20
0.4334920000000001
 30
38.663471
 11
-7.993997999999999
 21
-1.906578999999999
 31
37.049629
  0
LINE
  5
7F
330
74
100
AcDbEntity
  8
Courbe7
100
AcDbLine
 10
-7.993997999999999
 20
-1.906578999999999
 30
37.049629
 11
-6.764311
 21
-3.920569
 31
35.660671
  0
LINE
  5
80
330
74
100
AcDbEntity
  8
Courbe7
100
AcDbLine
 10
-6.764311
 20
-3.920569
 30
35.660671
 11
-5.315793
 21
-5.642005
 31
34.473461
  0
LINE
  5
81
330
74
100
AcDbEntity
  8
Courbe7
100
AcDbLine
 10
-5.315793
 20
-5.642005
 30
34.473461
 11
-3.678937999999999
 21
-7.082278999999999
 31
33.480175
  0
LINE
  5
82
330
74
100
AcDbEntity
  8
Courbe7
100
AcDbLine
 10
-3.678937999999999
 20
-7.082278999999999
 30
33.480175
 11
-1.985972
 21
-8.139225999999998
 31
32.75124
  0
LINE
  5
83
330
74
100
AcDbEntity
  8
Courbe7
100
AcDbLine
 10
-1.985972
 20
-8.139225999999998
 30
32.75124
 11
-0.388712
 21
-8.753753999999998
 31
32.327438
  0
LINE
  5
84
330
74
100
AcDbEntity
  8
Courbe7
100
AcDbLine
 10
-0.388712
 20
-8.753753999999998
 30
32.327438
 11
0.999999
 21
-8.944917
 31
32.195599
  0
LINE
  5
85
330
74
100
AcDbEntity
  8
Courbe7
100
AcDbLine
 10
0.999999
 20
-8.944917
 30
32.195599
 11
2.388707
 21
-8.753753999999998
 31
32.327438
  0
LINE
  5
86
330
74
100
AcDbEntity
  8
Courbe7
100
AcDbLine
 10
2.388707
 20
-8.753753999999998
 30
32.327438
 11
3.985969999999999
 21
-8.139224
 31
32.75124
  0
LINE
  5
87
330
74
100
AcDbEntity
  8
Courbe7
100
AcDbLine
 10
3.985969999999999
 20
-8.139224
 30
32.75124
 11
5.678936
 21
-7.082275
 31
33.480179
  0
LINE
  5
88
330
74
100
AcDbEntity
  8
Courbe7
100
AcDbLine
 10
5.678936
 20
-7.082275
 30
33.480179
 11
7.315788
 21
-5.642008
 31
34.473473
  0
LINE
  5
89
330
74
100
AcDbEntity
  8
Courbe7
100
AcDbLine
 10
7.315788
 20
-5.642008
 30
34.473473
 11
8.764305999999999
 21
-3.920562999999999
 31
35.660667
  0
LINE
  5
8A
330
74
100
AcDbEntity
  8
Courbe7
100
AcDbLine
 10
8.764305999999999
 20
-3.920562999999999
 30
35.660667
 11
9.993994999999999
 21
-1.906572999999999
 31
37.049629
  0
LINE
  5
8B
330
74
100
AcDbEntity
  8
Courbe7
100
AcDbLine
 10
9.993994999999999
 20
-1.906572999999999
 30
37.049629
 11
10.989389
 21
0.433495
 31
38.663483
  0
LINE
  5
8C
330
74
100
AcDbEntity
  8
Courbe7
100
AcDbLine
 10
10.989389
 20
0.433495
 30
38.663483
 11
11.726579
 21
3.125790999999999
 31
40.52022899999999
  0
LINE
  5
8D
330
74
100
AcDbEntity
  8
Courbe7
100
AcDbLine
 10
11.726579
 20
3.125790999999999
 30
40.52022899999999
 11
12.176999
 21
6.174491
 31
42.62278
  0
LINE
  5
8E
330
74
100
AcDbEntity
  8
Courbe7
100
AcDbLine
 10
12.176999
 20
6.174491
 30
42.62278
 11
12.176999
 21
10.142379
 31
45.359253
  0
LINE
  5
8F
330
74
100
AcDbEntity
  8
Courbe7
100
AcDbLine
 10
12.176999
 20
10.142379
 30
45.359253
 11
-10.177005
 21
10.142379
 31
45.359253
  0
LINE
  5
90
330
74
100
AcDbEntity
  8
Courbe7
100
AcDbLine
 10
-10.177005
 20
10.142379
 30
45.359253
 11
-10.177005
 21
6.17449
 31
42.62278
  0
POLYLINE
  5
92
330
74
100
AcDbEntity
  8
Form8
100
AcDbPolyFaceMesh
 66
     1
 10
0.0
 20
0.0
 30
0.0
 70
    64
 71
   370
 72
   659
  0
VERTEX
  5
93
330
92
100
AcDbEntity
  8
Form8
100
AcDbVertex
100
AcDbPolyFaceMeshVertex
 10
-14.000002
 20
14.499999
 30
46.984722
 70
   192
  0
VERTEX
  5
94
330
92
100
AcDbEntity
  8
Form8
100
AcDbVertex
100
AcDbPolyFaceMeshVertex
 10
-14.0
 20
14.500001
 30
53.462978
 70
   192
  0
VERTEX
  5
95
330
92
100
AcDbEntity
  8
Form8
100
AcDbVertex
100
AcDbPolyFaceMeshVertex
 10
-13.917969
 20
14.500003
 30
40.129757
 70
   192
  0
VERTEX
  5
96
330
92
100
AcDbEntity
  8
Form8
100
AcDbVertex
100
AcDbPolyFaceMeshVertex
 10
-13.853554
 20
14.500001
 30
53.83774200000001
 70
   192
  0
VERTEX
  5
97
330
92
100
AcDbEntity
  8
Form8
100
AcDbVertex
100
AcDbPolyFaceMeshVertex
 10
-13.671875
 20
14.500001
 30
33.581398
 70
   192
  0
VERTEX
  5
98
330
92
100
AcDbEntity
  8
Form8
100
AcDbVertex
100
AcDbPolyFaceMeshVertex
 10
-13.500001
 20
14.500001
 30
53.992977
 70
   192
  0
VERTEX
  5
99
330
92
100
AcDbEntity
  8
Form8
100
AcDbVertex
100
AcDbPolyFaceMeshVertex
 10
-13.179688
 20
14.500001
 30
27.492975
 70
   192
  0
VERTEX
  5
9A
330
92
100
AcDbEntity
  8
Form8
100
AcDbVertex
100
AcDbPolyFaceMeshVertex
 10
-12.359373
 20
14.500001
 30
22.017775
 70
   192
  0
VERTEX
  5
9B
330
92
100
AcDbEntity
  8
Form8
100
AcDbVertex
100
AcDbPolyFaceMeshVertex
 10
-11.222656
 20
14.500001
 30
17.133892
 70
   192
  0
VERTEX
  5
9C
330
92
100
AcDbEntity
  8
Form8
100
AcDbVertex
100
AcDbPolyFaceMeshVertex
 10
-9.781252
 20
14.500001
 30
12.819428
 70
   192
  0
VERTEX
  5
9D
330
92
100
AcDbEntity
  8
Form8
100
AcDbVertex
100
AcDbPolyFaceMeshVertex
 10
-8.046875
 20
14.499999
 30
9.052483
 70
   192
  0
VERTEX
  5
9E
330
92
100
AcDbEntity
  8
Form8
100
AcDbVertex
100
AcDbPolyFaceMeshVertex
 10
-6.031251
 20
14.500001
 30
5.811161
 70
   192
  0
VERTEX
  5
9F
330
92
100
AcDbEntity
  8
Form8
100
AcDbVertex
100
AcDbPolyFaceMeshVertex
 10
-3.80469
 20
14.500001
 30
3.270665
 70
   192
  0
VERTEX
  5
A0
330
92
100
AcDbEntity
  8
Form8
100
AcDbVertex
100
AcDbPolyFaceMeshVertex
 10
-1.437502999999999
 20
14.500001
 30
1.6062
 70
   192
  0
VERTEX
  5
A1
330
92
100
AcDbEntity
  8
Form8
100
AcDbVertex
100
AcDbPolyFaceMeshVertex
 10
0.9999979999999998
 20
14.499997
 30
0.992978
 70
   192
  0
VERTEX
  5
A2
330
92
100
AcDbEntity
  8
Form8
100
AcDbVertex
100
AcDbPolyFaceMeshVertex
 10
15.499997
 20
14.500003
 30
53.992977
 70
   192
  0
VERTEX
  5
A3
330
92
100
AcDbEntity
  8
Form8
100
AcDbVertex
100
AcDbPolyFaceMeshVertex
 10
3.437497
 20
14.500001
 30
1.6062
 70
   192
  0
VERTEX
  5
A4
330
92
100
AcDbEntity
  8
Form8
100
AcDbVertex
100
AcDbPolyFaceMeshVertex
 10
5.804686
 20
14.500001
 30
3.270665
 70
   192
  0
VERTEX
  5
A5
330
92
100
AcDbEntity
  8
Form8
100
AcDbVertex
100
AcDbPolyFaceMeshVertex
 10
8.031247
 20
14.500001
 30
5.811161
 70
   192
  0
VERTEX
  5
A6
330
92
100
AcDbEntity
  8
Form8
100
AcDbVertex
100
AcDbPolyFaceMeshVertex
 10
10.046872
 20
14.500001
 30
9.052486
 70
   192
  0
VERTEX
  5
A7
330
92
100
AcDbEntity
  8
Form8
100
AcDbVertex
100
AcDbPolyFaceMeshVertex
 10
11.781247
 20
14.500001
 30
12.819427
 70
   192
  0
VERTEX
  5
A8
330
92
100
AcDbEntity
  8
Form8
100
AcDbVertex
100
AcDbPolyFaceMeshVertex
 10
13.222651
 20
14.500001
 30
17.133892
 70
   192
  0
VERTEX
  5
A9
330
92
100
AcDbEntity
  8
Form8
100
AcDbVertex
100
AcDbPolyFaceMeshVertex
 10
14.359372
 20
14.500001
 30
22.017775
 70
   192
  0
VERTEX
  5
AA
330
92
100
AcDbEntity
  8
Form8
100
AcDbVertex
100
AcDbPolyFaceMeshVertex
 10
15.179683
 20
14.500001
 30
27.492975
 70
   192
  0
VERTEX
  5
AB
330
92
100
AcDbEntity
  8
Form8
100
AcDbVertex
100
AcDbPolyFaceMeshVertex
 10
15.67187
 20
14.499999
 30
33.581398
 70
   192
  0
VERTEX
  5
AC
330
92
100
AcDbEntity
  8
Form8
100
AcDbVertex
100
AcDbPolyFaceMeshVertex
 10
15.853553
 20
14.500001
 30
53.83774200000001
 70
   192
  0
VERTEX
  5
AD
330
92
100
AcDbEntity
  8
Form8
100
AcDbVertex
100
AcDbPolyFaceMeshVertex
 10
15.917963
 20
14.500003
 30
40.129757
 70
   192
  0
VERTEX
  5
AE
330
92
100
AcDbEntity
  8
Form8
100
AcDbVertex
100
AcDbPolyFaceMeshVertex
 10
15.999997
 20
14.500001
 30
53.462978
 70
   192
  0
VERTEX
  5
AF
330
92
100
AcDbEntity
  8
Form8
100
AcDbVertex
100
AcDbPolyFaceMeshVertex
 10
15.999997
 20
14.499997
 30
46.984718
 70
   192
  0
VERTEX
  5
B0
330
92
100
AcDbEntity
  8
Form8
100
AcDbVertex
100
AcDbPolyFaceMeshVertex
 10
-13.499907
 20
10.737508
 30
51.242409
 70
   192
  0
VERTEX
  5
B1
330
92
100
AcDbEntity
  8
Form8
100
AcDbVertex
100
AcDbPolyFaceMeshVertex
 10
-13.427024
 20
6.992294
 30
48.504688
 70
   192
  0
VERTEX
  5
B2
330
92
100
AcDbEntity
  8
Form8
100
AcDbVertex
100
AcDbPolyFaceMeshVertex
 10
-10.984297
 20
7.342491
 30
48.76069600000001
 70
   192
  0
VERTEX
  5
B3
330
92
100
AcDbEntity
  8
Form8
100
AcDbVertex
100
AcDbPolyFaceMeshVertex
 10
-10.473014
 20
8.014619999999998
 30
49.252041
 70
   192
  0
VERTEX
  5
B4
330
92
100
AcDbEntity
  8
Form8
100
AcDbVertex
100
AcDbPolyFaceMeshVertex
 10
-9.558799
 20
8.315065999999999
 30
49.47167199999999
 70
   192
  0
VERTEX
  5
B5
330
92
100
AcDbEntity
  8
Form8
100
AcDbVertex
100
AcDbPolyFaceMeshVertex
 10
11.558791
 20
8.315065999999999
 30
49.47167199999999
 70
   192
  0
VERTEX
  5
B6
330
92
100
AcDbEntity
  8
Form8
100
AcDbVertex
100
AcDbPolyFaceMeshVertex
 10
12.473007
 20
8.014619999999998
 30
49.252041
 70
   192
  0
VERTEX
  5
B7
330
92
100
AcDbEntity
  8
Form8
100
AcDbVertex
100
AcDbPolyFaceMeshVertex
 10
12.98429
 20
7.342491
 30
48.76069600000001
 70
   192
  0
VERTEX
  5
B8
330
92
100
AcDbEntity
  8
Form8
100
AcDbVertex
100
AcDbPolyFaceMeshVertex
 10
15.427016
 20
6.992294
 30
48.504688
 70
   192
  0
VERTEX
  5
B9
330
92
100
AcDbEntity
  8
Form8
100
AcDbVertex
100
AcDbPolyFaceMeshVertex
 10
15.499911
 20
10.737501
 30
51.242409
 70
   192
  0
VERTEX
  5
BA
330
92
100
AcDbEntity
  8
Form8
100
AcDbVertex
100
AcDbPolyFaceMeshVertex
 10
-9.307527
 20
7.910586
 30
49.11204099999999
 70
   192
  0
VERTEX
  5
BB
330
92
100
AcDbEntity
  8
Form8
100
AcDbVertex
100
AcDbPolyFaceMeshVertex
 10
-9.397005999999999
 20
10.142296
 30
44.906376
 70
   192
  0
VERTEX
  5
BC
330
92
100
AcDbEntity
  8
Form8
100
AcDbVertex
100
AcDbPolyFaceMeshVertex
 10
-9.253719999999999
 20
7.950794
 30
48.508892
 70
   192
  0
VERTEX
  5
BD
330
92
100
AcDbEntity
  8
Form8
100
AcDbVertex
100
AcDbPolyFaceMeshVertex
 10
11.30752
 20
7.910586
 30
49.11204099999999
 70
   192
  0
VERTEX
  5
BE
330
92
100
AcDbEntity
  8
Form8
100
AcDbVertex
100
AcDbPolyFaceMeshVertex
 10
11.253714
 20
7.950794
 30
48.508892
 70
   192
  0
VERTEX
  5
BF
330
92
100
AcDbEntity
  8
Form8
100
AcDbVertex
100
AcDbPolyFaceMeshVertex
 10
11.396996
 20
10.142296
 30
44.906376
 70
   192
  0
VERTEX
  5
C0
330
92
100
AcDbEntity
  8
Form8
100
AcDbVertex
100
AcDbPolyFaceMeshVertex
 10
12.434965
 20
7.211011
 30
48.600636
 70
   192
  0
VERTEX
  5
C1
330
92
100
AcDbEntity
  8
Form8
100
AcDbVertex
100
AcDbPolyFaceMeshVertex
 10
12.176999
 20
9.500182
 30
44.501812
 70
   192
  0
VERTEX
  5
C2
330
92
100
AcDbEntity
  8
Form8
100
AcDbVertex
100
AcDbPolyFaceMeshVertex
 10
12.191895
 20
7.35245
 30
48.07148699999999
 70
   192
  0
VERTEX
  5
C3
330
92
100
AcDbEntity
  8
Form8
100
AcDbVertex
100
AcDbPolyFaceMeshVertex
 10
11.94854
 20
9.954228999999999
 30
44.78788
 70
   192
  0
VERTEX
  5
C4
330
92
100
AcDbEntity
  8
Form8
100
AcDbVertex
100
AcDbPolyFaceMeshVertex
 10
11.879059
 20
7.797561999999999
 30
48.396873
 70
   192
  0
VERTEX
  5
C5
330
92
100
AcDbEntity
  8
Form8
100
AcDbVertex
100
AcDbPolyFaceMeshVertex
 10
12.039727
 20
7.722233999999999
 30
48.97435
 70
   192
  0
VERTEX
  5
C6
330
92
100
AcDbEntity
  8
Form8
100
AcDbVertex
100
AcDbPolyFaceMeshVertex
 10
-10.434973
 20
7.211011
 30
48.600636
 70
   192
  0
VERTEX
  5
C7
330
92
100
AcDbEntity
  8
Form8
100
AcDbVertex
100
AcDbPolyFaceMeshVertex
 10
-10.191902
 20
7.352449
 30
48.07148699999999
 70
   192
  0
VERTEX
  5
C8
330
92
100
AcDbEntity
  8
Form8
100
AcDbVertex
100
AcDbPolyFaceMeshVertex
 10
-10.177005
 20
9.500182
 30
44.501812
 70
   192
  0
VERTEX
  5
C9
330
92
100
AcDbEntity
  8
Form8
100
AcDbVertex
100
AcDbPolyFaceMeshVertex
 10
-10.039734
 20
7.722232
 30
48.97435
 70
   192
  0
VERTEX
  5
CA
330
92
100
AcDbEntity
  8
Form8
100
AcDbVertex
100
AcDbPolyFaceMeshVertex
 10
-9.879065999999999
 20
7.79756
 30
48.396873
 70
   192
  0
VERTEX
  5
CB
330
92
100
AcDbEntity
  8
Form8
100
AcDbVertex
100
AcDbPolyFaceMeshVertex
 10
-9.948546999999999
 20
9.954228999999999
 30
44.78788
 70
   192
  0
VERTEX
  5
CC
330
92
100
AcDbEntity
  8
Form8
100
AcDbVertex
100
AcDbPolyFaceMeshVertex
 10
-14.000002
 20
11.018095
 30
50.802746
 70
   192
  0
VERTEX
  5
CD
330
92
100
AcDbEntity
  8
Form8
100
AcDbVertex
100
AcDbPolyFaceMeshVertex
 10
-13.853477
 20
10.789793
 30
51.091759
 70
   192
  0
VERTEX
  5
CE
330
92
100
AcDbEntity
  8
Form8
100
AcDbVertex
100
AcDbPolyFaceMeshVertex
 10
-13.773238
 20
7.039758999999999
 30
48.352158
 70
   192
  0
VERTEX
  5
CF
330
92
100
AcDbEntity
  8
Form8
100
AcDbVertex
100
AcDbPolyFaceMeshVertex
 10
-13.917973
 20
7.261846
 30
48.066628
 70
   192
  0
VERTEX
  5
D0
330
92
100
AcDbEntity
  8
Form8
100
AcDbVertex
100
AcDbPolyFaceMeshVertex
 10
15.773232
 20
7.03976
 30
48.352158
 70
   192
  0
VERTEX
  5
D1
330
92
100
AcDbEntity
  8
Form8
100
AcDbVertex
100
AcDbPolyFaceMeshVertex
 10
15.917968
 20
7.261842999999998
 30
48.066628
 70
   192
  0
VERTEX
  5
D2
330
92
100
AcDbEntity
  8
Form8
100
AcDbVertex
100
AcDbPolyFaceMeshVertex
 10
15.999997
 20
11.018095
 30
50.802746
 70
   192
  0
VERTEX
  5
D3
330
92
100
AcDbEntity
  8
Form8
100
AcDbVertex
100
AcDbPolyFaceMeshVertex
 10
15.853476
 20
10.789789
 30
51.091759
 70
   192
  0
VERTEX
  5
D4
330
92
100
AcDbEntity
  8
Form8
100
AcDbVertex
100
AcDbPolyFaceMeshVertex
 10
-13.173196
 20
3.361063999999999
 30
45.850178
 70
   192
  0
VERTEX
  5
D5
330
92
100
AcDbEntity
  8
Form8
100
AcDbVertex
100
AcDbPolyFaceMeshVertex
 10
-13.525456
 20
3.442010999999999
 30
45.722878
 70
   192
  0
VERTEX
  5
D6
330
92
100
AcDbEntity
  8
Form8
100
AcDbVertex
100
AcDbPolyFaceMeshVertex
 10
-13.671879
 20
3.678723
 30
45.447289
 70
   192
  0
VERTEX
  5
D7
330
92
100
AcDbEntity
  8
Form8
100
AcDbVertex
100
AcDbPolyFaceMeshVertex
 10
-12.687014
 20
0.069935
 30
43.444294
 70
   192
  0
VERTEX
  5
D8
330
92
100
AcDbEntity
  8
Form8
100
AcDbVertex
100
AcDbPolyFaceMeshVertex
 10
-13.034541
 20
0.122803
 30
43.29583399999999
 70
   192
  0
VERTEX
  5
D9
330
92
100
AcDbEntity
  8
Form8
100
AcDbVertex
100
AcDbPolyFaceMeshVertex
 10
-13.179689
 20
0.347258
 30
43.011921
 70
   192
  0
VERTEX
  5
DA
330
92
100
AcDbEntity
  8
Form8
100
AcDbVertex
100
AcDbPolyFaceMeshVertex
 10
-11.878748
 20
-2.882718999999999
 30
41.285847
 70
   192
  0
VERTEX
  5
DB
330
92
100
AcDbEntity
  8
Form8
100
AcDbVertex
100
AcDbPolyFaceMeshVertex
 10
-12.217258
 20
-2.859871
 30
41.11475399999999
 70
   192
  0
VERTEX
  5
DC
330
92
100
AcDbEntity
  8
Form8
100
AcDbVertex
100
AcDbPolyFaceMeshVertex
 10
-12.359377
 20
-2.648658999999999
 30
40.82184199999999
 70
   192
  0
VERTEX
  5
DD
330
92
100
AcDbEntity
  8
Form8
100
AcDbVertex
100
AcDbPolyFaceMeshVertex
 10
-10.762381
 20
-5.507766999999999
 30
39.36688200000001
 70
   192
  0
VERTEX
  5
DE
330
92
100
AcDbEntity
  8
Form8
100
AcDbVertex
100
AcDbPolyFaceMeshVertex
 10
-11.086004
 20
-5.517630999999999
 30
39.171112
 70
   192
  0
VERTEX
  5
DF
330
92
100
AcDbEntity
  8
Form8
100
AcDbVertex
100
AcDbPolyFaceMeshVertex
 10
-11.22266
 20
-5.321023999999999
 30
38.868286
 70
   192
  0
VERTEX
  5
E0
330
92
100
AcDbEntity
  8
Form8
100
AcDbVertex
100
AcDbPolyFaceMeshVertex
 10
-9.351317999999999
 20
-7.819194
 30
37.677174
 70
   192
  0
VERTEX
  5
E1
330
92
100
AcDbEntity
  8
Form8
100
AcDbVertex
100
AcDbPolyFaceMeshVertex
 10
-9.653057999999999
 20
-7.863046999999999
 30
37.45574600000001
 70
   192
  0
VERTEX
  5
E2
330
92
100
AcDbEntity
  8
Form8
100
AcDbVertex
100
AcDbPolyFaceMeshVertex
 10
-9.781253999999998
 20
-7.681808
 30
37.142502
 70
   192
  0
VERTEX
  5
E3
330
92
100
AcDbEntity
  8
Form8
100
AcDbVertex
100
AcDbPolyFaceMeshVertex
 10
-7.657764999999999
 20
-9.832036
 30
36.20573800000001
 70
   192
  0
VERTEX
  5
E4
330
92
100
AcDbEntity
  8
Form8
100
AcDbVertex
100
AcDbPolyFaceMeshVertex
 10
-7.930355
 20
-9.909053
 30
35.959251
 70
   192
  0
VERTEX
  5
E5
330
92
100
AcDbEntity
  8
Form8
100
AcDbVertex
100
AcDbPolyFaceMeshVertex
 10
-8.046875
 20
-9.743005999999999
 30
35.63571500000001
 70
   192
  0
VERTEX
  5
E6
330
92
100
AcDbEntity
  8
Form8
100
AcDbVertex
100
AcDbPolyFaceMeshVertex
 10
-5.696416999999999
 20
-11.558413
 30
34.943718
 70
   192
  0
VERTEX
  5
E7
330
92
100
AcDbEntity
  8
Form8
100
AcDbVertex
100
AcDbPolyFaceMeshVertex
 10
-5.930558999999999
 20
-11.667667
 30
34.672859
 70
   192
  0
VERTEX
  5
E8
330
92
100
AcDbEntity
  8
Form8
100
AcDbVertex
100
AcDbPolyFaceMeshVertex
 10
-6.03125
 20
-11.516585
 30
34.339191
 70
   192
  0
VERTEX
  5
E9
330
92
100
AcDbEntity
  8
Form8
100
AcDbVertex
100
AcDbPolyFaceMeshVertex
 10
-3.546326
 20
-12.901812
 30
33.961658
 70
   192
  0
VERTEX
  5
EA
330
92
100
AcDbEntity
  8
Form8
100
AcDbVertex
100
AcDbPolyFaceMeshVertex
 10
-3.726662
 20
-13.042833
 30
33.666763
 70
   192
  0
VERTEX
  5
EB
330
92
100
AcDbEntity
  8
Form8
100
AcDbVertex
100
AcDbPolyFaceMeshVertex
 10
-3.804688999999999
 20
-12.906694
 30
33.322979
 70
   192
  0
VERTEX
  5
EC
330
92
100
AcDbEntity
  8
Form8
100
AcDbVertex
100
AcDbPolyFaceMeshVertex
 10
-1.289052
 20
-13.771925
 30
33.3256
 70
   192
  0
VERTEX
  5
ED
330
92
100
AcDbEntity
  8
Form8
100
AcDbVertex
100
AcDbPolyFaceMeshVertex
 10
-1.392498999999999
 20
-13.94048
 30
33.009857
 70
   192
  0
VERTEX
  5
EE
330
92
100
AcDbEntity
  8
Form8
100
AcDbVertex
100
AcDbPolyFaceMeshVertex
 10
-1.4375
 20
-13.817457
 30
32.657207
 70
   192
  0
VERTEX
  5
EF
330
92
100
AcDbEntity
  8
Form8
100
AcDbVertex
100
AcDbPolyFaceMeshVertex
 10
0.9999979999999998
 20
-14.088909
 30
33.09388
 70
   192
  0
VERTEX
  5
F0
330
92
100
AcDbEntity
  8
Form8
100
AcDbVertex
100
AcDbPolyFaceMeshVertex
 10
0.9999979999999998
 20
-14.269996
 30
32.768635
 70
   192
  0
VERTEX
  5
F1
330
92
100
AcDbEntity
  8
Form8
100
AcDbVertex
100
AcDbPolyFaceMeshVertex
 10
0.9999979999999998
 20
-14.153001
 30
32.411919
 70
   192
  0
VERTEX
  5
F2
330
92
100
AcDbEntity
  8
Form8
100
AcDbVertex
100
AcDbPolyFaceMeshVertex
 10
3.289045999999999
 20
-13.771925
 30
33.3256
 70
   192
  0
VERTEX
  5
F3
330
92
100
AcDbEntity
  8
Form8
100
AcDbVertex
100
AcDbPolyFaceMeshVertex
 10
3.392492999999999
 20
-13.94048
 30
33.009857
 70
   192
  0
VERTEX
  5
F4
330
92
100
AcDbEntity
  8
Form8
100
AcDbVertex
100
AcDbPolyFaceMeshVertex
 10
3.437494999999999
 20
-13.817457
 30
32.657207
 70
   192
  0
VERTEX
  5
F5
330
92
100
AcDbEntity
  8
Form8
100
AcDbVertex
100
AcDbPolyFaceMeshVertex
 10
5.546320999999999
 20
-12.901806
 30
33.96167
 70
   192
  0
VERTEX
  5
F6
330
92
100
AcDbEntity
  8
Form8
100
AcDbVertex
100
AcDbPolyFaceMeshVertex
 10
5.726657
 20
-13.04283
 30
33.666775
 70
   192
  0
VERTEX
  5
F7
330
92
100
AcDbEntity
  8
Form8
100
AcDbVertex
100
AcDbPolyFaceMeshVertex
 10
5.804686
 20
-12.906693
 30
33.322998
 70
   192
  0
VERTEX
  5
F8
330
92
100
AcDbEntity
  8
Form8
100
AcDbVertex
100
AcDbPolyFaceMeshVertex
 10
7.696411
 20
-11.558411
 30
34.943718
 70
   192
  0
VERTEX
  5
F9
330
92
100
AcDbEntity
  8
Form8
100
AcDbVertex
100
AcDbPolyFaceMeshVertex
 10
7.930553999999998
 20
-11.667667
 30
34.672859
 70
   192
  0
VERTEX
  5
FA
330
92
100
AcDbEntity
  8
Form8
100
AcDbVertex
100
AcDbPolyFaceMeshVertex
 10
8.031245
 20
-11.516583
 30
34.339191
 70
   192
  0
VERTEX
  5
FB
330
92
100
AcDbEntity
  8
Form8
100
AcDbVertex
100
AcDbPolyFaceMeshVertex
 10
9.657761
 20
-9.832038
 30
36.20574600000001
 70
   192
  0
VERTEX
  5
FC
330
92
100
AcDbEntity
  8
Form8
100
AcDbVertex
100
AcDbPolyFaceMeshVertex
 10
9.930352
 20
-9.909055999999999
 30
35.95925900000001
 70
   192
  0
VERTEX
  5
FD
330
92
100
AcDbEntity
  8
Form8
100
AcDbVertex
100
AcDbPolyFaceMeshVertex
 10
10.046872
 20
-9.743014
 30
35.635723
 70
   192
  0
VERTEX
  5
FE
330
92
100
AcDbEntity
  8
Form8
100
AcDbVertex
100
AcDbPolyFaceMeshVertex
 10
11.351312
 20
-7.819194
 30
37.677174
 70
   192
  0
VERTEX
  5
FF
330
92
100
AcDbEntity
  8
Form8
100
AcDbVertex
100
AcDbPolyFaceMeshVertex
 10
11.653053
 20
-7.863046999999999
 30
37.45574600000001
 70
   192
  0
VERTEX
  5
100
330
92
100
AcDbEntity
  8
Form8
100
AcDbVertex
100
AcDbPolyFaceMeshVertex
 10
11.781247
 20
-7.681811999999999
 30
37.142502
 70
   192
  0
VERTEX
  5
101
330
92
100
AcDbEntity
  8
Form8
100
AcDbVertex
100
AcDbPolyFaceMeshVertex
 10
12.762375
 20
-5.507766999999999
 30
39.36688200000001
 70
   192
  0
VERTEX
  5
102
330
92
100
AcDbEntity
  8
Form8
100
AcDbVertex
100
AcDbPolyFaceMeshVertex
 10
13.085999
 20
-5.517629
 30
39.17110800000001
 70
   192
  0
VERTEX
  5
103
330
92
100
AcDbEntity
  8
Form8
100
AcDbVertex
100
AcDbPolyFaceMeshVertex
 10
13.222655
 20
-5.321023999999999
 30
38.868286
 70
   192
  0
VERTEX
  5
104
330
92
100
AcDbEntity
  8
Form8
100
AcDbVertex
100
AcDbPolyFaceMeshVertex
 10
13.878743
 20
-2.882718
 30
41.285847
 70
   192
  0
VERTEX
  5
105
330
92
100
AcDbEntity
  8
Form8
100
AcDbVertex
100
AcDbPolyFaceMeshVertex
 10
14.217254
 20
-2.859868999999999
 30
41.11475
 70
   192
  0
VERTEX
  5
106
330
92
100
AcDbEntity
  8
Form8
100
AcDbVertex
100
AcDbPolyFaceMeshVertex
 10
14.359372
 20
-2.648662999999999
 30
40.82184199999999
 70
   192
  0
VERTEX
  5
107
330
92
100
AcDbEntity
  8
Form8
100
AcDbVertex
100
AcDbPolyFaceMeshVertex
 10
14.68701
 20
0.069932
 30
43.444294
 70
   192
  0
VERTEX
  5
108
330
92
100
AcDbEntity
  8
Form8
100
AcDbVertex
100
AcDbPolyFaceMeshVertex
 10
15.034536
 20
0.122804
 30
43.29583399999999
 70
   192
  0
VERTEX
  5
109
330
92
100
AcDbEntity
  8
Form8
100
AcDbVertex
100
AcDbPolyFaceMeshVertex
 10
15.179687
 20
0.347258
 30
43.011921
 70
   192
  0
VERTEX
  5
10A
330
92
100
AcDbEntity
  8
Form8
100
AcDbVertex
100
AcDbPolyFaceMeshVertex
 10
15.173191
 20
3.361063999999999
 30
45.850178
 70
   192
  0
VERTEX
  5
10B
330
92
100
AcDbEntity
  8
Form8
100
AcDbVertex
100
AcDbPolyFaceMeshVertex
 10
15.525451
 20
3.442010999999999
 30
45.722878
 70
   192
  0
VERTEX
  5
10C
330
92
100
AcDbEntity
  8
Form8
100
AcDbVertex
100
AcDbPolyFaceMeshVertex
 10
15.671874
 20
3.678723
 30
45.447289
 70
   192
  0
VERTEX
  5
10D
330
92
100
AcDbEntity
  8
Form8
100
AcDbVertex
100
AcDbPolyFaceMeshVertex
 10
-10.954948
 20
3.493879
 30
45.94727299999999
 70
   192
  0
VERTEX
  5
10E
330
92
100
AcDbEntity
  8
Form8
100
AcDbVertex
100
AcDbPolyFaceMeshVertex
 10
-10.404859
 20
3.656519999999999
 30
45.771999
 70
   192
  0
VERTEX
  5
10F
330
92
100
AcDbEntity
  8
Form8
100
AcDbVertex
100
AcDbPolyFaceMeshVertex
 10
-10.177004
 20
3.983298999999999
 30
45.300694
 70
   192
  0
VERTEX
  5
110
330
92
100
AcDbEntity
  8
Form8
100
AcDbVertex
100
AcDbPolyFaceMeshVertex
 10
-10.495158
 20
0.382206
 30
43.672573
 70
   192
  0
VERTEX
  5
111
330
92
100
AcDbEntity
  8
Form8
100
AcDbVertex
100
AcDbPolyFaceMeshVertex
 10
-9.951693999999999
 20
0.589337
 30
43.52982299999999
 70
   192
  0
VERTEX
  5
112
330
92
100
AcDbEntity
  8
Form8
100
AcDbVertex
100
AcDbPolyFaceMeshVertex
 10
-9.726582999999999
 20
0.9345450000000001
 30
43.071991
 70
   192
  0
VERTEX
  5
113
330
92
100
AcDbEntity
  8
Form8
100
AcDbVertex
100
AcDbPolyFaceMeshVertex
 10
-9.739174999999999
 20
-2.377639999999999
 30
41.655071
 70
   192
  0
VERTEX
  5
114
330
92
100
AcDbEntity
  8
Form8
100
AcDbVertex
100
AcDbPolyFaceMeshVertex
 10
-9.208997999999999
 20
-2.122775999999999
 30
41.547207
 70
   192
  0
VERTEX
  5
115
330
92
100
AcDbEntity
  8
Form8
100
AcDbVertex
100
AcDbPolyFaceMeshVertex
 10
-8.989392999999999
 20
-1.757799
 30
41.103832
 70
   192
  0
VERTEX
  5
116
330
92
100
AcDbEntity
  8
Form8
100
AcDbVertex
100
AcDbPolyFaceMeshVertex
 10
-8.712033999999999
 20
-4.791566
 30
39.890442
 70
   192
  0
VERTEX
  5
117
330
92
100
AcDbEntity
  8
Form8
100
AcDbVertex
100
AcDbPolyFaceMeshVertex
 10
-8.204305999999998
 20
-4.484512999999999
 30
39.820732
 70
   192
  0
VERTEX
  5
118
330
92
100
AcDbEntity
  8
Form8
100
AcDbVertex
100
AcDbPolyFaceMeshVertex
 10
-7.993999
 20
-4.097914
 30
39.393158
 70
   192
  0
VERTEX
  5
119
330
92
100
AcDbEntity
  8
Form8
100
AcDbVertex
100
AcDbPolyFaceMeshVertex
 10
-7.435011
 20
-6.882586999999999
 30
38.361855
 70
   192
  0
VERTEX
  5
11A
330
92
100
AcDbEntity
  8
Form8
100
AcDbVertex
100
AcDbPolyFaceMeshVertex
 10
-6.960755
 20
-6.52109
 30
38.331955
 70
   192
  0
VERTEX
  5
11B
330
92
100
AcDbEntity
  8
Form8
100
AcDbVertex
100
AcDbPolyFaceMeshVertex
 10
-6.764311999999999
 20
-6.111939999999999
 30
37.920868
 70
   192
  0
VERTEX
  5
11C
330
92
100
AcDbEntity
  8
Form8
100
AcDbVertex
100
AcDbPolyFaceMeshVertex
 10
-5.922806999999999
 20
-8.679491999999999
 30
37.048279
 70
   192
  0
VERTEX
  5
11D
330
92
100
AcDbEntity
  8
Form8
100
AcDbVertex
100
AcDbPolyFaceMeshVertex
 10
-5.493583
 20
-8.264651999999999
 30
37.057365
 70
   192
  0
VERTEX
  5
11E
330
92
100
AcDbEntity
  8
Form8
100
AcDbVertex
100
AcDbPolyFaceMeshVertex
 10
-5.315794
 20
-7.83341
 30
36.662422
 70
   192
  0
VERTEX
  5
11F
330
92
100
AcDbEntity
  8
Form8
100
AcDbVertex
100
AcDbPolyFaceMeshVertex
 10
-4.201280999999999
 20
-10.193424
 30
35.941559
 70
   192
  0
VERTEX
  5
120
330
92
100
AcDbEntity
  8
Form8
100
AcDbVertex
100
AcDbPolyFaceMeshVertex
 10
-3.831929
 20
-9.726516999999999
 30
35.988708
 70
   192
  0
VERTEX
  5
121
330
92
100
AcDbEntity
  8
Form8
100
AcDbVertex
100
AcDbPolyFaceMeshVertex
 10
-3.678938999999999
 20
-9.273705999999998
 30
35.609539
 70
   192
  0
VERTEX
  5
122
330
92
100
AcDbEntity
  8
Form8
100
AcDbVertex
100
AcDbPolyFaceMeshVertex
 10
-2.389018999999999
 20
-11.323264
 30
35.115616
 70
   192
  0
VERTEX
  5
123
330
92
100
AcDbEntity
  8
Form8
100
AcDbVertex
100
AcDbPolyFaceMeshVertex
 10
-2.104022999999999
 20
-10.804829
 30
35.200432
 70
   192
  0
VERTEX
  5
124
330
92
100
AcDbEntity
  8
Form8
100
AcDbVertex
100
AcDbPolyFaceMeshVertex
 10
-1.985972999999999
 20
-10.330671
 30
34.836864
 70
   192
  0
VERTEX
  5
125
330
92
100
AcDbEntity
  8
Form8
100
AcDbVertex
100
AcDbPolyFaceMeshVertex
 10
-0.6202930000000001
 20
-12.001213
 30
34.620026
 70
   192
  0
VERTEX
  5
126
330
92
100
AcDbEntity
  8
Form8
100
AcDbVertex
100
AcDbPolyFaceMeshVertex
 10
-0.456542
 20
-11.437934
 30
34.737625
 70
   192
  0
VERTEX
  5
127
330
92
100
AcDbEntity
  8
Form8
100
AcDbVertex
100
AcDbPolyFaceMeshVertex
 10
-0.388714
 20
-10.94521
 30
34.38763400000001
 70
   192
  0
VERTEX
  5
128
330
92
100
AcDbEntity
  8
Form8
100
AcDbVertex
100
AcDbPolyFaceMeshVertex
 10
0.9999979999999998
 20
-12.221335
 30
34.459118
 70
   192
  0
VERTEX
  5
129
330
92
100
AcDbEntity
  8
Form8
100
AcDbVertex
100
AcDbPolyFaceMeshVertex
 10
0.9999979999999998
 20
-11.637582
 30
34.591675
 70
   192
  0
VERTEX
  5
12A
330
92
100
AcDbEntity
  8
Form8
100
AcDbVertex
100
AcDbPolyFaceMeshVertex
 10
0.9999979999999998
 20
-11.13638
 30
34.247883
 70
   192
  0
VERTEX
  5
12B
330
92
100
AcDbEntity
  8
Form8
100
AcDbVertex
100
AcDbPolyFaceMeshVertex
 10
12.176998
 20
7.352869999999999
 30
48.071793
 70
   192
  0
VERTEX
  5
12C
330
92
100
AcDbEntity
  8
Form8
100
AcDbVertex
100
AcDbPolyFaceMeshVertex
 10
2.620284999999999
 20
-12.001213
 30
34.620026
 70
   192
  0
VERTEX
  5
12D
330
92
100
AcDbEntity
  8
Form8
100
AcDbVertex
100
AcDbPolyFaceMeshVertex
 10
2.456533
 20
-11.437934
 30
34.737625
 70
   192
  0
VERTEX
  5
12E
330
92
100
AcDbEntity
  8
Form8
100
AcDbVertex
100
AcDbPolyFaceMeshVertex
 10
2.388704
 20
-10.94521
 30
34.38763400000001
 70
   192
  0
VERTEX
  5
12F
330
92
100
AcDbEntity
  8
Form8
100
AcDbVertex
100
AcDbPolyFaceMeshVertex
 10
4.389013999999999
 20
-11.323264
 30
35.11562
 70
   192
  0
VERTEX
  5
130
330
92
100
AcDbEntity
  8
Form8
100
AcDbVertex
100
AcDbPolyFaceMeshVertex
 10
4.104017999999999
 20
-10.804827
 30
35.20043900000001
 70
   192
  0
VERTEX
  5
131
330
92
100
AcDbEntity
  8
Form8
100
AcDbVertex
100
AcDbPolyFaceMeshVertex
 10
3.985967
 20
-10.330676
 30
34.836872
 70
   192
  0
VERTEX
  5
132
330
92
100
AcDbEntity
  8
Form8
100
AcDbVertex
100
AcDbPolyFaceMeshVertex
 10
6.201274999999999
 20
-10.193422
 30
35.941559
 70
   192
  0
VERTEX
  5
133
330
92
100
AcDbEntity
  8
Form8
100
AcDbVertex
100
AcDbPolyFaceMeshVertex
 10
5.831923999999999
 20
-9.726516
 30
35.988701
 70
   192
  0
VERTEX
  5
134
330
92
100
AcDbEntity
  8
Form8
100
AcDbVertex
100
AcDbPolyFaceMeshVertex
 10
5.678933999999999
 20
-9.273704999999999
 30
35.609539
 70
   192
  0
VERTEX
  5
135
330
92
100
AcDbEntity
  8
Form8
100
AcDbVertex
100
AcDbPolyFaceMeshVertex
 10
7.922800999999999
 20
-8.679492999999999
 30
37.048286
 70
   192
  0
VERTEX
  5
136
330
92
100
AcDbEntity
  8
Form8
100
AcDbVertex
100
AcDbPolyFaceMeshVertex
 10
7.493574999999999
 20
-8.264649
 30
37.057373
 70
   192
  0
VERTEX
  5
137
330
92
100
AcDbEntity
  8
Form8
100
AcDbVertex
100
AcDbPolyFaceMeshVertex
 10
7.315786999999999
 20
-7.83341
 30
36.66243
 70
   192
  0
VERTEX
  5
138
330
92
100
AcDbEntity
  8
Form8
100
AcDbVertex
100
AcDbPolyFaceMeshVertex
 10
9.435002
 20
-6.882585
 30
38.361855
 70
   192
  0
VERTEX
  5
139
330
92
100
AcDbEntity
  8
Form8
100
AcDbVertex
100
AcDbPolyFaceMeshVertex
 10
8.960748999999999
 20
-6.521087999999999
 30
38.331955
 70
   192
  0
VERTEX
  5
13A
330
92
100
AcDbEntity
  8
Form8
100
AcDbVertex
100
AcDbPolyFaceMeshVertex
 10
8.764302999999999
 20
-6.111937
 30
37.920864
 70
   192
  0
VERTEX
  5
13B
330
92
100
AcDbEntity
  8
Form8
100
AcDbVertex
100
AcDbPolyFaceMeshVertex
 10
10.712029
 20
-4.791565
 30
39.890442
 70
   192
  0
VERTEX
  5
13C
330
92
100
AcDbEntity
  8
Form8
100
AcDbVertex
100
AcDbPolyFaceMeshVertex
 10
10.204301
 20
-4.484505999999999
 30
39.820732
 70
   192
  0
VERTEX
  5
13D
330
92
100
AcDbEntity
  8
Form8
100
AcDbVertex
100
AcDbPolyFaceMeshVertex
 10
9.993992
 20
-4.097908999999999
 30
39.393158
 70
   192
  0
VERTEX
  5
13E
330
92
100
AcDbEntity
  8
Form8
100
AcDbVertex
100
AcDbPolyFaceMeshVertex
 10
11.739168
 20
-2.377635999999999
 30
41.655079
 70
   192
  0
VERTEX
  5
13F
330
92
100
AcDbEntity
  8
Form8
100
AcDbVertex
100
AcDbPolyFaceMeshVertex
 10
11.208995
 20
-2.122774
 30
41.54721799999999
 70
   192
  0
VERTEX
  5
140
330
92
100
AcDbEntity
  8
Form8
100
AcDbVertex
100
AcDbPolyFaceMeshVertex
 10
10.989388
 20
-1.757800999999999
 30
41.10384
 70
   192
  0
VERTEX
  5
141
330
92
100
AcDbEntity
  8
Form8
100
AcDbVertex
100
AcDbPolyFaceMeshVertex
 10
12.495153
 20
0.382207
 30
43.672573
 70
   192
  0
VERTEX
  5
142
330
92
100
AcDbEntity
  8
Form8
100
AcDbVertex
100
AcDbPolyFaceMeshVertex
 10
11.951686
 20
0.589337
 30
43.52982299999999
 70
   192
  0
VERTEX
  5
143
330
92
100
AcDbEntity
  8
Form8
100
AcDbVertex
100
AcDbPolyFaceMeshVertex
 10
11.726576
 20
0.9345459999999999
 30
43.071991
 70
   192
  0
VERTEX
  5
144
330
92
100
AcDbEntity
  8
Form8
100
AcDbVertex
100
AcDbPolyFaceMeshVertex
 10
12.954943
 20
3.49388
 30
45.94727299999999
 70
   192
  0
VERTEX
  5
145
330
92
100
AcDbEntity
  8
Form8
100
AcDbVertex
100
AcDbPolyFaceMeshVertex
 10
12.404852
 20
3.656519999999999
 30
45.771999
 70
   192
  0
VERTEX
  5
146
330
92
100
AcDbEntity
  8
Form8
100
AcDbVertex
100
AcDbPolyFaceMeshVertex
 10
12.176998
 20
3.983298999999999
 30
45.300694
 70
   192
  0
VERTEX
  5
147
330
92
100
AcDbEntity
  8
Form8
100
AcDbVertex
100
AcDbPolyFaceMeshVertex
 10
12.176999
 20
6.174344
 30
42.40637999999999
 70
   192
  0
VERTEX
  5
148
330
92
100
AcDbEntity
  8
Form8
100
AcDbVertex
100
AcDbPolyFaceMeshVertex
 10
11.726577
 20
3.125586
 30
40.48553499999999
 70
   192
  0
VERTEX
  5
149
330
92
100
AcDbEntity
  8
Form8
100
AcDbVertex
100
AcDbPolyFaceMeshVertex
 10
10.989389
 20
0.433245
 30
38.789246
 70
   192
  0
VERTEX
  5
14A
330
92
100
AcDbEntity
  8
Form8
100
AcDbVertex
100
AcDbPolyFaceMeshVertex
 10
9.993992999999999
 20
-1.906865999999999
 30
37.31486500000001
 70
   192
  0
VERTEX
  5
14B
330
92
100
AcDbEntity
  8
Form8
100
AcDbVertex
100
AcDbPolyFaceMeshVertex
 10
8.764303999999999
 20
-3.920894
 30
36.04594
 70
   192
  0
VERTEX
  5
14C
330
92
100
AcDbEntity
  8
Form8
100
AcDbVertex
100
AcDbPolyFaceMeshVertex
 10
7.315788
 20
-5.642368
 30
34.96133
 70
   192
  0
VERTEX
  5
14D
330
92
100
AcDbEntity
  8
Form8
100
AcDbVertex
100
AcDbPolyFaceMeshVertex
 10
5.678933999999999
 20
-7.082661999999999
 30
34.053879
 70
   192
  0
VERTEX
  5
14E
330
92
100
AcDbEntity
  8
Form8
100
AcDbVertex
100
AcDbPolyFaceMeshVertex
 10
3.985969
 20
-8.139632
 30
33.38793900000001
 70
   192
  0
VERTEX
  5
14F
330
92
100
AcDbEntity
  8
Form8
100
AcDbVertex
100
AcDbPolyFaceMeshVertex
 10
2.388705999999999
 20
-8.754169
 30
33.000759
 70
   192
  0
VERTEX
  5
150
330
92
100
AcDbEntity
  8
Form8
100
AcDbVertex
100
AcDbPolyFaceMeshVertex
 10
0.9999979999999998
 20
-8.945335
 30
32.880314
 70
   192
  0
VERTEX
  5
151
330
92
100
AcDbEntity
  8
Form8
100
AcDbVertex
100
AcDbPolyFaceMeshVertex
 10
-0.388714
 20
-8.754169
 30
33.000759
 70
   192
  0
VERTEX
  5
152
330
92
100
AcDbEntity
  8
Form8
100
AcDbVertex
100
AcDbPolyFaceMeshVertex
 10
-1.985972999999999
 20
-8.139632999999999
 30
33.38793900000001
 70
   192
  0
VERTEX
  5
153
330
92
100
AcDbEntity
  8
Form8
100
AcDbVertex
100
AcDbPolyFaceMeshVertex
 10
-3.678938999999999
 20
-7.082669
 30
34.053879
 70
   192
  0
VERTEX
  5
154
330
92
100
AcDbEntity
  8
Form8
100
AcDbVertex
100
AcDbPolyFaceMeshVertex
 10
-5.315794
 20
-5.642363999999999
 30
34.96133
 70
   192
  0
VERTEX
  5
155
330
92
100
AcDbEntity
  8
Form8
100
AcDbVertex
100
AcDbPolyFaceMeshVertex
 10
-6.764311
 20
-3.920895999999999
 30
36.04594
 70
   192
  0
VERTEX
  5
156
330
92
100
AcDbEntity
  8
Form8
100
AcDbVertex
100
AcDbPolyFaceMeshVertex
 10
-7.993999
 20
-1.906870999999999
 30
37.31486500000001
 70
   192
  0
VERTEX
  5
157
330
92
100
AcDbEntity
  8
Form8
100
AcDbVertex
100
AcDbPolyFaceMeshVertex
 10
-8.989392999999999
 20
0.433242
 30
38.789234
 70
   192
  0
VERTEX
  5
158
330
92
100
AcDbEntity
  8
Form8
100
AcDbVertex
100
AcDbPolyFaceMeshVertex
 10
-9.726582999999999
 20
3.125586
 30
40.48553499999999
 70
   192
  0
VERTEX
  5
159
330
92
100
AcDbEntity
  8
Form8
100
AcDbVertex
100
AcDbPolyFaceMeshVertex
 10
-10.177005
 20
6.174344
 30
42.40637999999999
 70
   192
  0
VERTEX
  5
15A
330
92
100
AcDbEntity
  8
Form8
100
AcDbVertex
100
AcDbPolyFaceMeshVertex
 10
13.176999
 20
10.965589
 30
46.926987
 70
   192
  0
VERTEX
  5
15B
330
92
100
AcDbEntity
  8
Form8
100
AcDbVertex
100
AcDbPolyFaceMeshVertex
 10
13.176999
 20
6.124611999999999
 30
43.588379
 70
   192
  0
VERTEX
  5
15C
330
92
100
AcDbEntity
  8
Form8
100
AcDbVertex
100
AcDbPolyFaceMeshVertex
 10
12.713181
 20
2.985233
 30
41.423294
 70
   192
  0
VERTEX
  5
15D
330
92
100
AcDbEntity
  8
Form8
100
AcDbVertex
100
AcDbPolyFaceMeshVertex
 10
11.952242
 20
0.206202
 30
39.506729
 70
   192
  0
VERTEX
  5
15E
330
92
100
AcDbEntity
  8
Form8
100
AcDbVertex
100
AcDbPolyFaceMeshVertex
 10
10.91647
 20
-2.228791999999999
 30
37.827412
 70
   192
  0
VERTEX
  5
15F
330
92
100
AcDbEntity
  8
Form8
100
AcDbVertex
100
AcDbPolyFaceMeshVertex
 10
9.626288999999999
 20
-4.341859999999999
 30
36.370129
 70
   192
  0
VERTEX
  5
160
330
92
100
AcDbEntity
  8
Form8
100
AcDbVertex
100
AcDbPolyFaceMeshVertex
 10
8.096097
 20
-6.160362
 30
35.11599
 70
   192
  0
VERTEX
  5
161
330
92
100
AcDbEntity
  8
Form8
100
AcDbVertex
100
AcDbPolyFaceMeshVertex
 10
6.351026
 20
-7.695854999999999
 30
34.057022
 70
   192
  0
VERTEX
  5
162
330
92
100
AcDbEntity
  8
Form8
100
AcDbVertex
100
AcDbPolyFaceMeshVertex
 10
4.505603999999999
 20
-8.847985000000001
 30
33.262444
 70
   192
  0
VERTEX
  5
163
330
92
100
AcDbEntity
  8
Form8
100
AcDbVertex
100
AcDbPolyFaceMeshVertex
 10
2.688359999999999
 20
-9.547143999999999
 30
32.780266
 70
   192
  0
VERTEX
  5
164
330
92
100
AcDbEntity
  8
Form8
100
AcDbVertex
100
AcDbPolyFaceMeshVertex
 10
0.999999
 20
-9.779562
 30
32.619984
 70
   192
  0
VERTEX
  5
165
330
92
100
AcDbEntity
  8
Form8
100
AcDbVertex
100
AcDbPolyFaceMeshVertex
 10
-0.6883660000000001
 20
-9.547143999999999
 30
32.780266
 70
   192
  0
VERTEX
  5
166
330
92
100
AcDbEntity
  8
Form8
100
AcDbVertex
100
AcDbPolyFaceMeshVertex
 10
-2.505605
 20
-8.847983000000001
 30
33.262444
 70
   192
  0
VERTEX
  5
167
330
92
100
AcDbEntity
  8
Form8
100
AcDbVertex
100
AcDbPolyFaceMeshVertex
 10
-4.351026999999999
 20
-7.695854999999999
 30
34.057022
 70
   192
  0
VERTEX
  5
168
330
92
100
AcDbEntity
  8
Form8
100
AcDbVertex
100
AcDbPolyFaceMeshVertex
 10
-6.096100999999999
 20
-6.160358999999999
 30
35.115982
 70
   192
  0
VERTEX
  5
169
330
92
100
AcDbEntity
  8
Form8
100
AcDbVertex
100
AcDbPolyFaceMeshVertex
 10
-7.626291999999999
 20
-4.341859999999999
 30
36.37012100000001
 70
   192
  0
VERTEX
  5
16A
330
92
100
AcDbEntity
  8
Form8
100
AcDbVertex
100
AcDbPolyFaceMeshVertex
 10
-8.91647
 20
-2.228797999999999
 30
37.827412
 70
   192
  0
VERTEX
  5
16B
330
92
100
AcDbEntity
  8
Form8
100
AcDbVertex
100
AcDbPolyFaceMeshVertex
 10
-9.952246
 20
0.206203
 30
39.506721
 70
   192
  0
VERTEX
  5
16C
330
92
100
AcDbEntity
  8
Form8
100
AcDbVertex
100
AcDbPolyFaceMeshVertex
 10
-10.713183
 20
2.985231999999999
 30
41.423294
 70
   192
  0
VERTEX
  5
16D
330
92
100
AcDbEntity
  8
Form8
100
AcDbVertex
100
AcDbPolyFaceMeshVertex
 10
-11.177004
 20
6.124611999999999
 30
43.588379
 70
   192
  0
VERTEX
  5
16E
330
92
100
AcDbEntity
  8
Form8
100
AcDbVertex
100
AcDbPolyFaceMeshVertex
 10
-11.177004
 20
10.965587
 30
46.926987
 70
   192
  0
VERTEX
  5
16F
330
92
100
AcDbEntity
  8
Form8
100
AcDbVertex
100
AcDbPolyFaceMeshVertex
 10
8.988124
 20
11.356285
 30
32.825855
 70
   192
  0
VERTEX
  5
170
330
92
100
AcDbEntity
  8
Form8
100
AcDbVertex
100
AcDbPolyFaceMeshVertex
 10
8.988124
 20
8.647311
 30
31.102438
 70
   192
  0
VERTEX
  5
171
330
92
100
AcDbEntity
  8
Form8
100
AcDbVertex
100
AcDbPolyFaceMeshVertex
 10
8.683860000000001
 20
6.890533999999999
 30
29.984798
 70
   192
  0
VERTEX
  5
172
330
92
100
AcDbEntity
  8
Form8
100
AcDbVertex
100
AcDbPolyFaceMeshVertex
 10
8.184682999999999
 20
5.335408
 30
28.995447
 70
   192
  0
VERTEX
  5
173
330
92
100
AcDbEntity
  8
Form8
100
AcDbVertex
100
AcDbPolyFaceMeshVertex
 10
7.505213999999999
 20
3.972802999999999
 30
28.128567
 70
   192
  0
VERTEX
  5
174
330
92
100
AcDbEntity
  8
Form8
100
AcDbVertex
100
AcDbPolyFaceMeshVertex
 10
6.658853999999998
 20
2.790345999999999
 30
27.376305
 70
   192
  0
VERTEX
  5
175
330
92
100
AcDbEntity
  8
Form8
100
AcDbVertex
100
AcDbPolyFaceMeshVertex
 10
5.655046999999999
 20
1.772725999999999
 30
26.72890300000001
 70
   192
  0
VERTEX
  5
176
330
92
100
AcDbEntity
  8
Form8
100
AcDbVertex
100
AcDbPolyFaceMeshVertex
 10
4.510277999999999
 20
0.9134709999999998
 30
26.182259
 70
   192
  0
VERTEX
  5
177
330
92
100
AcDbEntity
  8
Form8
100
AcDbVertex
100
AcDbPolyFaceMeshVertex
 10
3.29968
 20
0.268748
 30
25.772093
 70
   192
  0
VERTEX
  5
178
330
92
100
AcDbEntity
  8
Form8
100
AcDbVertex
100
AcDbPolyFaceMeshVertex
 10
2.107565999999999
 20
-0.122497
 30
25.523184
 70
   192
  0
VERTEX
  5
179
330
92
100
AcDbEntity
  8
Form8
100
AcDbVertex
100
AcDbPolyFaceMeshVertex
 10
0.999999
 20
-0.252556
 30
25.440443
 70
   192
  0
VERTEX
  5
17A
330
92
100
AcDbEntity
  8
Form8
100
AcDbVertex
100
AcDbPolyFaceMeshVertex
 10
-0.10757
 20
-0.122497
 30
25.523184
 70
   192
  0
VERTEX
  5
17B
330
92
100
AcDbEntity
  8
Form8
100
AcDbVertex
100
AcDbPolyFaceMeshVertex
 10
-1.299679999999999
 20
0.2687489999999999
 30
25.772085
 70
   192
  0
VERTEX
  5
17C
330
92
100
AcDbEntity
  8
Form8
100
AcDbVertex
100
AcDbPolyFaceMeshVertex
 10
-2.510279
 20
0.9134709999999998
 30
26.182259
 70
   192
  0
VERTEX
  5
17D
330
92
100
AcDbEntity
  8
Form8
100
AcDbVertex
100
AcDbPolyFaceMeshVertex
 10
-3.65505
 20
1.772725
 30
26.72890300000001
 70
   192
  0
VERTEX
  5
17E
330
92
100
AcDbEntity
  8
Form8
100
AcDbVertex
100
AcDbPolyFaceMeshVertex
 10
-4.658856
 20
2.790343999999999
 30
27.376305
 70
   192
  0
VERTEX
  5
17F
330
92
100
AcDbEntity
  8
Form8
100
AcDbVertex
100
AcDbPolyFaceMeshVertex
 10
-5.505213999999999
 20
3.972799999999999
 30
28.128571
 70
   192
  0
VERTEX
  5
180
330
92
100
AcDbEntity
  8
Form8
100
AcDbVertex
100
AcDbPolyFaceMeshVertex
 10
-6.184683999999999
 20
5.335407
 30
28.995443
 70
   192
  0
VERTEX
  5
181
330
92
100
AcDbEntity
  8
Form8
100
AcDbVertex
100
AcDbPolyFaceMeshVertex
 10
-6.683860000000001
 20
6.890533999999999
 30
29.984798
 70
   192
  0
VERTEX
  5
182
330
92
100
AcDbEntity
  8
Form8
100
AcDbVertex
100
AcDbPolyFaceMeshVertex
 10
-6.988127
 20
8.647311
 30
31.102438
 70
   192
  0
VERTEX
  5
183
330
92
100
AcDbEntity
  8
Form8
100
AcDbVertex
100
AcDbPolyFaceMeshVertex
 10
-6.988127
 20
11.356283
 30
32.825855
 70
   192
  0
VERTEX
  5
184
330
92
100
AcDbEntity
  8
Form8
100
AcDbVertex
100
AcDbPolyFaceMeshVertex
 10
7.912319
 20
9.982511
 30
29.06532700000001
 70
   192
  0
VERTEX
  5
185
330
92
100
AcDbEntity
  8
Form8
100
AcDbVertex
100
AcDbPolyFaceMeshVertex
 10
7.912319
 20
7.871724999999999
 30
28.211218
 70
   192
  0
VERTEX
  5
186
330
92
100
AcDbEntity
  8
Form8
100
AcDbVertex
100
AcDbPolyFaceMeshVertex
 10
7.649032
 20
6.502873999999999
 30
27.65733
 70
   192
  0
VERTEX
  5
187
330
92
100
AcDbEntity
  8
Form8
100
AcDbVertex
100
AcDbPolyFaceMeshVertex
 10
7.217082
 20
5.291144
 30
27.167019
 70
   192
  0
VERTEX
  5
188
330
92
100
AcDbEntity
  8
Form8
100
AcDbVertex
100
AcDbPolyFaceMeshVertex
 10
6.629121
 20
4.229424999999999
 30
26.73740200000001
 70
   192
  0
VERTEX
  5
189
330
92
100
AcDbEntity
  8
Form8
100
AcDbVertex
100
AcDbPolyFaceMeshVertex
 10
5.896745
 20
3.308073999999999
 30
26.364588
 70
   192
  0
VERTEX
  5
18A
330
92
100
AcDbEntity
  8
Form8
100
AcDbVertex
100
AcDbPolyFaceMeshVertex
 10
5.028126
 20
2.515162
 30
26.043745
 70
   192
  0
VERTEX
  5
18B
330
92
100
AcDbEntity
  8
Form8
100
AcDbVertex
100
AcDbPolyFaceMeshVertex
 10
4.03753
 20
1.845649
 30
25.772829
 70
   192
  0
VERTEX
  5
18C
330
92
100
AcDbEntity
  8
Form8
100
AcDbVertex
100
AcDbPolyFaceMeshVertex
 10
2.989968999999999
 20
1.343287999999999
 30
25.569555
 70
   192
  0
VERTEX
  5
18D
330
92
100
AcDbEntity
  8
Form8
100
AcDbVertex
100
AcDbPolyFaceMeshVertex
 10
1.958402999999999
 20
1.038437
 30
25.446205
 70
   192
  0
VERTEX
  5
18E
330
92
100
AcDbEntity
  8
Form8
100
AcDbVertex
100
AcDbPolyFaceMeshVertex
 10
0.999999
 20
0.9370969999999999
 30
25.405197
 70
   192
  0
VERTEX
  5
18F
330
92
100
AcDbEntity
  8
Form8
100
AcDbVertex
100
AcDbPolyFaceMeshVertex
 10
0.041592
 20
1.038437
 30
25.446205
 70
   192
  0
VERTEX
  5
190
330
92
100
AcDbEntity
  8
Form8
100
AcDbVertex
100
AcDbPolyFaceMeshVertex
 10
-0.9899700000000001
 20
1.343291
 30
25.569555
 70
   192
  0
VERTEX
  5
191
330
92
100
AcDbEntity
  8
Form8
100
AcDbVertex
100
AcDbPolyFaceMeshVertex
 10
-2.037532
 20
1.845645
 30
25.772829
 70
   192
  0
VERTEX
  5
192
330
92
100
AcDbEntity
  8
Form8
100
AcDbVertex
100
AcDbPolyFaceMeshVertex
 10
-3.028129
 20
2.515162
 30
26.043741
 70
   192
  0
VERTEX
  5
193
330
92
100
AcDbEntity
  8
Form8
100
AcDbVertex
100
AcDbPolyFaceMeshVertex
 10
-3.896748
 20
3.308073
 30
26.364586
 70
   192
  0
VERTEX
  5
194
330
92
100
AcDbEntity
  8
Form8
100
AcDbVertex
100
AcDbPolyFaceMeshVertex
 10
-4.629121999999999
 20
4.229424999999999
 30
26.7374
 70
   192
  0
VERTEX
  5
195
330
92
100
AcDbEntity
  8
Form8
100
AcDbVertex
100
AcDbPolyFaceMeshVertex
 10
-5.217083999999999
 20
5.291144999999999
 30
27.167015
 70
   192
  0
VERTEX
  5
196
330
92
100
AcDbEntity
  8
Form8
100
AcDbVertex
100
AcDbPolyFaceMeshVertex
 10
-5.649033999999999
 20
6.502873999999999
 30
27.65733
 70
   192
  0
VERTEX
  5
197
330
92
100
AcDbEntity
  8
Form8
100
AcDbVertex
100
AcDbPolyFaceMeshVertex
 10
-5.912323
 20
7.871724999999999
 30
28.211218
 70
   192
  0
VERTEX
  5
198
330
92
100
AcDbEntity
  8
Form8
100
AcDbVertex
100
AcDbPolyFaceMeshVertex
 10
-5.912323
 20
9.982511
 30
29.06532700000001
 70
   192
  0
VERTEX
  5
199
330
92
100
AcDbEntity
  8
Form8
100
AcDbVertex
100
AcDbPolyFaceMeshVertex
 10
-13.99904
 20
9.852318999999999
 30
51.916222
 70
   192
  0
VERTEX
  5
19A
330
92
100
AcDbEntity
  8
Form8
100
AcDbVertex
100
AcDbPolyFaceMeshVertex
 10
-13.849992
 20
10.148551
 30
52.12013599999999
 70
   192
  0
VERTEX
  5
19B
330
92
100
AcDbEntity
  8
Form8
100
AcDbVertex
100
AcDbPolyFaceMeshVertex
 10
-13.498266
 20
10.312019
 30
52.157101
 70
   192
  0
VERTEX
  5
19C
330
92
100
AcDbEntity
  8
Form8
100
AcDbVertex
100
AcDbPolyFaceMeshVertex
 10
-13.990907
 20
10.354709
 30
51.22755399999999
 70
   192
  0
VERTEX
  5
19D
330
92
100
AcDbEntity
  8
Form8
100
AcDbVertex
100
AcDbPolyFaceMeshVertex
 10
-13.847655
 20
10.645679
 30
51.438282
 70
   192
  0
VERTEX
  5
19E
330
92
100
AcDbEntity
  8
Form8
100
AcDbVertex
100
AcDbPolyFaceMeshVertex
 10
-13.490986
 20
10.766839
 30
51.526024
 70
   192
  0
VERTEX
  5
19F
330
92
100
AcDbEntity
  8
Form8
100
AcDbVertex
100
AcDbPolyFaceMeshVertex
 10
-13.797703
 20
9.492342999999999
 30
52.38984699999999
 70
   192
  0
VERTEX
  5
1A0
330
92
100
AcDbEntity
  8
Form8
100
AcDbVertex
100
AcDbPolyFaceMeshVertex
 10
-13.677273
 20
9.83783
 30
52.539635
 70
   192
  0
VERTEX
  5
1A1
330
92
100
AcDbEntity
  8
Form8
100
AcDbVertex
100
AcDbPolyFaceMeshVertex
 10
-13.372773
 20
10.095531
 30
52.454762
 70
   192
  0
VERTEX
  5
1A2
330
92
100
AcDbEntity
  8
Form8
100
AcDbVertex
100
AcDbPolyFaceMeshVertex
 10
-13.284003
 20
9.327064999999999
 30
52.59196899999999
 70
   192
  0
VERTEX
  5
1A3
330
92
100
AcDbEntity
  8
Form8
100
AcDbVertex
100
AcDbPolyFaceMeshVertex
 10
-13.246143
 20
9.656277000000001
 30
52.77508499999999
 70
   192
  0
VERTEX
  5
1A4
330
92
100
AcDbEntity
  8
Form8
100
AcDbVertex
100
AcDbPolyFaceMeshVertex
 10
-13.110331
 20
9.998177999999999
 30
52.571125
 70
   192
  0
VERTEX
  5
1A5
330
92
100
AcDbEntity
  8
Form8
100
AcDbVertex
100
AcDbPolyFaceMeshVertex
 10
-12.923386
 20
6.110466
 30
50.217594
 70
   192
  0
VERTEX
  5
1A6
330
92
100
AcDbEntity
  8
Form8
100
AcDbVertex
100
AcDbPolyFaceMeshVertex
 10
-12.676349
 20
2.620335999999999
 30
47.641308
 70
   192
  0
VERTEX
  5
1A7
330
92
100
AcDbEntity
  8
Form8
100
AcDbVertex
100
AcDbPolyFaceMeshVertex
 10
-12.194217
 20
-0.5727330000000001
 30
45.284302
 70
   192
  0
VERTEX
  5
1A8
330
92
100
AcDbEntity
  8
Form8
100
AcDbVertex
100
AcDbPolyFaceMeshVertex
 10
-11.39257
 20
-3.416202999999999
 30
43.18535999999999
 70
   192
  0
VERTEX
  5
1A9
330
92
100
AcDbEntity
  8
Form8
100
AcDbVertex
100
AcDbPolyFaceMeshVertex
 10
-10.290653
 20
-5.932792
 30
41.327705
 70
   192
  0
VERTEX
  5
1AA
330
92
100
AcDbEntity
  8
Form8
100
AcDbVertex
100
AcDbPolyFaceMeshVertex
 10
-8.904238000000001
 20
-8.138849999999999
 30
39.699276
 70
   192
  0
VERTEX
  5
1AB
330
92
100
AcDbEntity
  8
Form8
100
AcDbVertex
100
AcDbPolyFaceMeshVertex
 10
-7.246227999999999
 20
-10.053116
 30
38.286236
 70
   192
  0
VERTEX
  5
1AC
330
92
100
AcDbEntity
  8
Form8
100
AcDbVertex
100
AcDbPolyFaceMeshVertex
 10
-5.334614
 20
-11.687174
 30
37.080036
 70
   192
  0
VERTEX
  5
1AD
330
92
100
AcDbEntity
  8
Form8
100
AcDbVertex
100
AcDbPolyFaceMeshVertex
 10
-3.260915
 20
-12.945252
 30
36.151367
 70
   192
  0
VERTEX
  5
1AE
330
92
100
AcDbEntity
  8
Form8
100
AcDbVertex
100
AcDbPolyFaceMeshVertex
 10
-1.122443
 20
-13.74505
 30
35.560989
 70
   192
  0
VERTEX
  5
1AF
330
92
100
AcDbEntity
  8
Form8
100
AcDbVertex
100
AcDbPolyFaceMeshVertex
 10
0.996016
 20
-14.028965
 30
35.351414
 70
   192
  0
VERTEX
  5
1B0
330
92
100
AcDbEntity
  8
Form8
100
AcDbVertex
100
AcDbPolyFaceMeshVertex
 10
3.114478
 20
-13.74507
 30
35.560974
 70
   192
  0
VERTEX
  5
1B1
330
92
100
AcDbEntity
  8
Form8
100
AcDbVertex
100
AcDbPolyFaceMeshVertex
 10
5.252918
 20
-12.945217
 30
36.151394
 70
   192
  0
VERTEX
  5
1B2
330
92
100
AcDbEntity
  8
Form8
100
AcDbVertex
100
AcDbPolyFaceMeshVertex
 10
7.326675999999999
 20
-11.6872
 30
37.080017
 70
   192
  0
VERTEX
  5
1B3
330
92
100
AcDbEntity
  8
Form8
100
AcDbVertex
100
AcDbPolyFaceMeshVertex
 10
9.238233000000001
 20
-10.053093
 30
38.286251
 70
   192
  0
VERTEX
  5
1B4
330
92
100
AcDbEntity
  8
Form8
100
AcDbVertex
100
AcDbPolyFaceMeshVertex
 10
10.89628
 20
-8.138849999999999
 30
39.699276
 70
   192
  0
VERTEX
  5
1B5
330
92
100
AcDbEntity
  8
Form8
100
AcDbVertex
100
AcDbPolyFaceMeshVertex
 10
12.282693
 20
-5.932795999999999
 30
41.327702
 70
   192
  0
VERTEX
  5
1B6
330
92
100
AcDbEntity
  8
Form8
100
AcDbVertex
100
AcDbPolyFaceMeshVertex
 10
13.384609
 20
-3.416211
 30
43.185352
 70
   192
  0
VERTEX
  5
1B7
330
92
100
AcDbEntity
  8
Form8
100
AcDbVertex
100
AcDbPolyFaceMeshVertex
 10
14.186241
 20
-0.572723
 30
45.284309
 70
   192
  0
VERTEX
  5
1B8
330
92
100
AcDbEntity
  8
Form8
100
AcDbVertex
100
AcDbPolyFaceMeshVertex
 10
14.668374
 20
2.620334999999999
 30
47.64130399999999
 70
   192
  0
VERTEX
  5
1B9
330
92
100
AcDbEntity
  8
Form8
100
AcDbVertex
100
AcDbPolyFaceMeshVertex
 10
14.915426
 20
6.110459999999999
 30
50.217587
 70
   192
  0
VERTEX
  5
1BA
330
92
100
AcDbEntity
  8
Form8
100
AcDbVertex
100
AcDbPolyFaceMeshVertex
 10
15.275996
 20
9.327067999999998
 30
52.59196899999999
 70
   192
  0
VERTEX
  5
1BB
330
92
100
AcDbEntity
  8
Form8
100
AcDbVertex
100
AcDbPolyFaceMeshVertex
 10
15.246102
 20
9.656280999999999
 30
52.77506999999999
 70
   192
  0
VERTEX
  5
1BC
330
92
100
AcDbEntity
  8
Form8
100
AcDbVertex
100
AcDbPolyFaceMeshVertex
 10
15.110303
 20
9.998179999999999
 30
52.571121
 70
   192
  0
VERTEX
  5
1BD
330
92
100
AcDbEntity
  8
Form8
100
AcDbVertex
100
AcDbPolyFaceMeshVertex
 10
15.792297
 20
9.492333
 30
52.389839
 70
   192
  0
VERTEX
  5
1BE
330
92
100
AcDbEntity
  8
Form8
100
AcDbVertex
100
AcDbPolyFaceMeshVertex
 10
15.677258
 20
9.837830999999999
 30
52.539616
 70
   192
  0
VERTEX
  5
1BF
330
92
100
AcDbEntity
  8
Form8
100
AcDbVertex
100
AcDbPolyFaceMeshVertex
 10
15.37275499999999
 20
10.095535
 30
52.454731
 70
   192
  0
VERTEX
  5
1C0
330
92
100
AcDbEntity
  8
Form8
100
AcDbVertex
100
AcDbPolyFaceMeshVertex
 10
15.990959
 20
9.852308999999999
 30
51.916214
 70
   192
  0
VERTEX
  5
1C1
330
92
100
AcDbEntity
  8
Form8
100
AcDbVertex
100
AcDbPolyFaceMeshVertex
 10
15.84999
 20
10.148564
 30
52.120102
 70
   192
  0
VERTEX
  5
1C2
330
92
100
AcDbEntity
  8
Form8
100
AcDbVertex
100
AcDbPolyFaceMeshVertex
 10
15.49825799999999
 20
10.312032
 30
52.157066
 70
   192
  0
VERTEX
  5
1C3
330
92
100
AcDbEntity
  8
Form8
100
AcDbVertex
100
AcDbPolyFaceMeshVertex
 10
15.490985
 20
10.766835
 30
51.526024
 70
   192
  0
VERTEX
  5
1C4
330
92
100
AcDbEntity
  8
Form8
100
AcDbVertex
100
AcDbPolyFaceMeshVertex
 10
15.847655
 20
10.645678
 30
51.43828599999999
 70
   192
  0
VERTEX
  5
1C5
330
92
100
AcDbEntity
  8
Form8
100
AcDbVertex
100
AcDbPolyFaceMeshVertex
 10
15.990907
 20
10.354705
 30
51.22755399999999
 70
   192
  0
VERTEX
  5
1C6
330
92
100
AcDbEntity
  8
Form8
100
AcDbVertex
100
AcDbPolyFaceMeshVertex
 10
-13.918892
 20
7.062303999999999
 30
48.843159
 70
   192
  0
VERTEX
  5
1C7
330
92
100
AcDbEntity
  8
Form8
100
AcDbVertex
100
AcDbPolyFaceMeshVertex
 10
-13.668668
 20
3.508226
 30
46.268345
 70
   192
  0
VERTEX
  5
1C8
330
92
100
AcDbEntity
  8
Form8
100
AcDbVertex
100
AcDbPolyFaceMeshVertex
 10
-13.172913
 20
0.229345
 30
43.89164
 70
   192
  0
VERTEX
  5
1C9
330
92
100
AcDbEntity
  8
Form8
100
AcDbVertex
100
AcDbPolyFaceMeshVertex
 10
-12.347571
 20
-2.717091999999999
 30
41.755795
 70
   192
  0
VERTEX
  5
1CA
330
92
100
AcDbEntity
  8
Form8
100
AcDbVertex
100
AcDbPolyFaceMeshVertex
 10
-11.205164
 20
-5.342559999999999
 30
39.852474
 70
   192
  0
VERTEX
  5
1CB
330
92
100
AcDbEntity
  8
Form8
100
AcDbVertex
100
AcDbPolyFaceMeshVertex
 10
-9.758089
 20
-7.659469999999999
 30
38.172688
 70
   192
  0
VERTEX
  5
1CC
330
92
100
AcDbEntity
  8
Form8
100
AcDbVertex
100
AcDbPolyFaceMeshVertex
 10
-8.018402
 20
-9.680607999999999
 30
36.707245
 70
   192
  0
VERTEX
  5
1CD
330
92
100
AcDbEntity
  8
Form8
100
AcDbVertex
100
AcDbPolyFaceMeshVertex
 10
-5.998887999999999
 20
-11.417848
 30
35.447544
 70
   192
  0
VERTEX
  5
1CE
330
92
100
AcDbEntity
  8
Form8
100
AcDbVertex
100
AcDbPolyFaceMeshVertex
 10
-3.773262999999999
 20
-12.776288
 30
34.462337
 70
   192
  0
VERTEX
  5
1CF
330
92
100
AcDbEntity
  8
Form8
100
AcDbVertex
100
AcDbPolyFaceMeshVertex
 10
-1.416087
 20
-13.663014
 30
33.819073
 70
   192
  0
VERTEX
  5
1D0
330
92
100
AcDbEntity
  8
Form8
100
AcDbVertex
100
AcDbPolyFaceMeshVertex
 10
0.999999
 20
-13.988524
 30
33.58287
 70
   192
  0
VERTEX
  5
1D1
330
92
100
AcDbEntity
  8
Form8
100
AcDbVertex
100
AcDbPolyFaceMeshVertex
 10
3.416084999999999
 20
-13.663014
 30
33.819073
 70
   192
  0
VERTEX
  5
1D2
330
92
100
AcDbEntity
  8
Form8
100
AcDbVertex
100
AcDbPolyFaceMeshVertex
 10
5.773260999999999
 20
-12.776288
 30
34.462353
 70
   192
  0
VERTEX
  5
1D3
330
92
100
AcDbEntity
  8
Form8
100
AcDbVertex
100
AcDbPolyFaceMeshVertex
 10
7.998886999999999
 20
-11.417846
 30
35.447544
 70
   192
  0
VERTEX
  5
1D4
330
92
100
AcDbEntity
  8
Form8
100
AcDbVertex
100
AcDbPolyFaceMeshVertex
 10
10.018401
 20
-9.680611
 30
36.707253
 70
   192
  0
VERTEX
  5
1D5
330
92
100
AcDbEntity
  8
Form8
100
AcDbVertex
100
AcDbPolyFaceMeshVertex
 10
11.758087
 20
-7.659469999999999
 30
38.172688
 70
   192
  0
VERTEX
  5
1D6
330
92
100
AcDbEntity
  8
Form8
100
AcDbVertex
100
AcDbPolyFaceMeshVertex
 10
13.20516
 20
-5.342554999999999
 30
39.85247000000001
 70
   192
  0
VERTEX
  5
1D7
330
92
100
AcDbEntity
  8
Form8
100
AcDbVertex
100
AcDbPolyFaceMeshVertex
 10
14.347569
 20
-2.71709
 30
41.75579099999999
 70
   192
  0
VERTEX
  5
1D8
330
92
100
AcDbEntity
  8
Form8
100
AcDbVertex
100
AcDbPolyFaceMeshVertex
 10
15.17291
 20
0.229346
 30
43.89164
 70
   192
  0
VERTEX
  5
1D9
330
92
100
AcDbEntity
  8
Form8
100
AcDbVertex
100
AcDbPolyFaceMeshVertex
 10
15.668663
 20
3.508226999999999
 30
46.268345
 70
   192
  0
VERTEX
  5
1DA
330
92
100
AcDbEntity
  8
Form8
100
AcDbVertex
100
AcDbPolyFaceMeshVertex
 10
15.918888
 20
7.062302
 30
48.843159
 70
   192
  0
VERTEX
  5
1DB
330
92
100
AcDbEntity
  8
Form8
100
AcDbVertex
100
AcDbPolyFaceMeshVertex
 10
-13.926951
 20
6.578799
 30
49.499832
 70
   192
  0
VERTEX
  5
1DC
330
92
100
AcDbEntity
  8
Form8
100
AcDbVertex
100
AcDbPolyFaceMeshVertex
 10
-13.630005
 20
6.237337999999999
 30
49.98712199999999
 70
   192
  0
VERTEX
  5
1DD
330
92
100
AcDbEntity
  8
Form8
100
AcDbVertex
100
AcDbPolyFaceMeshVertex
 10
-13.676662
 20
3.047719999999999
 30
46.893318
 70
   192
  0
VERTEX
  5
1DE
330
92
100
AcDbEntity
  8
Form8
100
AcDbVertex
100
AcDbPolyFaceMeshVertex
 10
-13.380689
 20
2.718644999999999
 30
47.389755
 70
   192
  0
VERTEX
  5
1DF
330
92
100
AcDbEntity
  8
Form8
100
AcDbVertex
100
AcDbPolyFaceMeshVertex
 10
-13.180772
 20
-0.210547
 30
44.488186
 70
   192
  0
VERTEX
  5
1E0
330
92
100
AcDbEntity
  8
Form8
100
AcDbVertex
100
AcDbPolyFaceMeshVertex
 10
-12.889071
 20
-0.520187
 30
44.99896999999999
 70
   192
  0
VERTEX
  5
1E1
330
92
100
AcDbEntity
  8
Form8
100
AcDbVertex
100
AcDbPolyFaceMeshVertex
 10
-12.35521
 20
-3.138517999999999
 30
42.32687
 70
   192
  0
VERTEX
  5
1E2
330
92
100
AcDbEntity
  8
Form8
100
AcDbVertex
100
AcDbPolyFaceMeshVertex
 10
-12.07055
 20
-3.42308
 30
42.856163
 70
   192
  0
VERTEX
  5
1E3
330
92
100
AcDbEntity
  8
Form8
100
AcDbVertex
100
AcDbPolyFaceMeshVertex
 10
-11.212495
 20
-5.747599
 30
40.40094
 70
   192
  0
VERTEX
  5
1E4
330
92
100
AcDbEntity
  8
Form8
100
AcDbVertex
100
AcDbPolyFaceMeshVertex
 10
-10.939861
 20
-6.004773
 30
40.950455
 70
   192
  0
VERTEX
  5
1E5
330
92
100
AcDbEntity
  8
Form8
100
AcDbVertex
100
AcDbPolyFaceMeshVertex
 10
-9.765029
 20
-8.050117999999999
 30
38.701309
 70
   192
  0
VERTEX
  5
1E6
330
92
100
AcDbEntity
  8
Form8
100
AcDbVertex
100
AcDbPolyFaceMeshVertex
 10
-9.510388
 20
-8.278760999999999
 30
39.27187700000001
 70
   192
  0
VERTEX
  5
1E7
330
92
100
AcDbEntity
  8
Form8
100
AcDbVertex
100
AcDbPolyFaceMeshVertex
 10
-8.024874
 20
-10.058752
 30
37.218609
 70
   192
  0
VERTEX
  5
1E8
330
92
100
AcDbEntity
  8
Form8
100
AcDbVertex
100
AcDbPolyFaceMeshVertex
 10
-7.794442999999999
 20
-10.259503
 30
37.80976900000001
 70
   192
  0
VERTEX
  5
1E9
330
92
100
AcDbEntity
  8
Form8
100
AcDbVertex
100
AcDbPolyFaceMeshVertex
 10
-6.004817
 20
-11.785291
 30
35.944141
 70
   192
  0
VERTEX
  5
1EA
330
92
100
AcDbEntity
  8
Form8
100
AcDbVertex
100
AcDbPolyFaceMeshVertex
 10
-5.806333999999999
 20
-11.958719
 30
36.55547
 70
   192
  0
VERTEX
  5
1EB
330
92
100
AcDbEntity
  8
Form8
100
AcDbVertex
100
AcDbPolyFaceMeshVertex
 10
-3.77859
 20
-13.135452
 30
34.947502
 70
   192
  0
VERTEX
  5
1EC
330
92
100
AcDbEntity
  8
Form8
100
AcDbVertex
100
AcDbPolyFaceMeshVertex
 10
-3.625020999999999
 20
-13.28172
 30
35.57888
 70
   192
  0
VERTEX
  5
1ED
330
92
100
AcDbEntity
  8
Form8
100
AcDbVertex
100
AcDbPolyFaceMeshVertex
 10
-1.420779
 20
-14.016851
 30
34.296886
 70
   192
  0
VERTEX
  5
1EE
330
92
100
AcDbEntity
  8
Form8
100
AcDbVertex
100
AcDbPolyFaceMeshVertex
 10
-1.331737999999999
 20
-14.139087
 30
34.946003
 70
   192
  0
VERTEX
  5
1EF
330
92
100
AcDbEntity
  8
Form8
100
AcDbVertex
100
AcDbPolyFaceMeshVertex
 10
0.995958
 20
-14.340443
 30
34.058022
 70
   192
  0
VERTEX
  5
1F0
330
92
100
AcDbEntity
  8
Form8
100
AcDbVertex
100
AcDbPolyFaceMeshVertex
 10
0.9973019999999999
 20
-14.451008
 30
34.715755
 70
   192
  0
VERTEX
  5
1F1
330
92
100
AcDbEntity
  8
Form8
100
AcDbVertex
100
AcDbPolyFaceMeshVertex
 10
3.412695999999999
 20
-14.016851
 30
34.296886
 70
   192
  0
VERTEX
  5
1F2
330
92
100
AcDbEntity
  8
Form8
100
AcDbVertex
100
AcDbPolyFaceMeshVertex
 10
3.326347
 20
-14.139094
 30
34.945999
 70
   192
  0
VERTEX
  5
1F3
330
92
100
AcDbEntity
  8
Form8
100
AcDbVertex
100
AcDbPolyFaceMeshVertex
 10
5.770507
 20
-13.135447
 30
34.947506
 70
   192
  0
VERTEX
  5
1F4
330
92
100
AcDbEntity
  8
Form8
100
AcDbVertex
100
AcDbPolyFaceMeshVertex
 10
5.619616999999999
 20
-13.281703
 30
35.578896
 70
   192
  0
VERTEX
  5
1F5
330
92
100
AcDbEntity
  8
Form8
100
AcDbVertex
100
AcDbPolyFaceMeshVertex
 10
7.996732
 20
-11.785291
 30
35.944141
 70
   192
  0
VERTEX
  5
1F6
330
92
100
AcDbEntity
  8
Form8
100
AcDbVertex
100
AcDbPolyFaceMeshVertex
 10
7.800947999999999
 20
-11.958726
 30
36.555466
 70
   192
  0
VERTEX
  5
1F7
330
92
100
AcDbEntity
  8
Form8
100
AcDbVertex
100
AcDbPolyFaceMeshVertex
 10
10.016791
 20
-10.058753
 30
37.218609
 70
   192
  0
VERTEX
  5
1F8
330
92
100
AcDbEntity
  8
Form8
100
AcDbVertex
100
AcDbPolyFaceMeshVertex
 10
9.789039
 20
-10.259494
 30
37.809772
 70
   192
  0
VERTEX
  5
1F9
330
92
100
AcDbEntity
  8
Form8
100
AcDbVertex
100
AcDbPolyFaceMeshVertex
 10
11.756946
 20
-8.050119999999999
 30
38.701305
 70
   192
  0
VERTEX
  5
1FA
330
92
100
AcDbEntity
  8
Form8
100
AcDbVertex
100
AcDbPolyFaceMeshVertex
 10
11.504999
 20
-8.278764
 30
39.271873
 70
   192
  0
VERTEX
  5
1FB
330
92
100
AcDbEntity
  8
Form8
100
AcDbVertex
100
AcDbPolyFaceMeshVertex
 10
13.204408
 20
-5.747599
 30
40.40094
 70
   192
  0
VERTEX
  5
1FC
330
92
100
AcDbEntity
  8
Form8
100
AcDbVertex
100
AcDbPolyFaceMeshVertex
 10
12.934466
 20
-6.004773
 30
40.950451
 70
   192
  0
VERTEX
  5
1FD
330
92
100
AcDbEntity
  8
Form8
100
AcDbVertex
100
AcDbPolyFaceMeshVertex
 10
14.347125
 20
-3.138517999999999
 30
42.326866
 70
   192
  0
VERTEX
  5
1FE
330
92
100
AcDbEntity
  8
Form8
100
AcDbVertex
100
AcDbPolyFaceMeshVertex
 10
14.065158
 20
-3.423083999999999
 30
42.856159
 70
   192
  0
VERTEX
  5
1FF
330
92
100
AcDbEntity
  8
Form8
100
AcDbVertex
100
AcDbPolyFaceMeshVertex
 10
15.172689
 20
-0.210546
 30
44.488186
 70
   192
  0
VERTEX
  5
200
330
92
100
AcDbEntity
  8
Form8
100
AcDbVertex
100
AcDbPolyFaceMeshVertex
 10
14.883676
 20
-0.5201859999999999
 30
44.99896999999999
 70
   192
  0
VERTEX
  5
201
330
92
100
AcDbEntity
  8
Form8
100
AcDbVertex
100
AcDbPolyFaceMeshVertex
 10
15.668575
 20
3.047719999999999
 30
46.893318
 70
   192
  0
VERTEX
  5
202
330
92
100
AcDbEntity
  8
Form8
100
AcDbVertex
100
AcDbPolyFaceMeshVertex
 10
15.375292
 20
2.718643999999999
 30
47.389755
 70
   192
  0
VERTEX
  5
203
330
92
100
AcDbEntity
  8
Form8
100
AcDbVertex
100
AcDbPolyFaceMeshVertex
 10
15.918868
 20
6.578799
 30
49.499832
 70
   192
  0
VERTEX
  5
204
330
92
100
AcDbEntity
  8
Form8
100
AcDbVertex
100
AcDbPolyFaceMeshVertex
 10
15.624615
 20
6.237335999999999
 30
49.987118
 70
   192
  0
VERTEX
  5
205
330
92
100
AcDbEntity
  8
Form8
100
AcDbFaceRecord
 10
0.0
 20
0.0
 30
0.0
 70
   128
 71
    47
 72
    48
 73
    50
 74
    50
  0
VERTEX
  5
206
330
92
100
AcDbEntity
  8
Form8
100
AcDbFaceRecord
 10
0.0
 20
0.0
 30
0.0
 70
   128
 71
    47
 72
    50
 73
    49
 74
    49
  0
VERTEX
  5
207
330
92
100
AcDbEntity
  8
Form8
100
AcDbFaceRecord
 10
0.0
 20
0.0
 30
0.0
 70
   128
 71
    48
 72
    46
 73
    50
 74
    50
  0
VERTEX
  5
208
330
92
100
AcDbEntity
  8
Form8
100
AcDbFaceRecord
 10
0.0
 20
0.0
 30
0.0
 70
   128
 71
    46
 72
    51
 73
    50
 74
    50
  0
VERTEX
  5
209
330
92
100
AcDbEntity
  8
Form8
100
AcDbFaceRecord
 10
0.0
 20
0.0
 30
0.0
 70
   128
 71
    46
 72
    37
 73
    36
 74
    36
  0
VERTEX
  5
20A
330
92
100
AcDbEntity
  8
Form8
100
AcDbFaceRecord
 10
0.0
 20
0.0
 30
0.0
 70
   128
 71
    46
 72
    36
 73
    51
 74
    51
  0
VERTEX
  5
20B
330
92
100
AcDbEntity
  8
Form8
100
AcDbFaceRecord
 10
0.0
 20
0.0
 30
0.0
 70
   128
 71
    49
 72
    50
 73
    44
 74
    44
  0
VERTEX
  5
20C
330
92
100
AcDbEntity
  8
Form8
100
AcDbFaceRecord
 10
0.0
 20
0.0
 30
0.0
 70
   128
 71
    49
 72
    44
 73
    45
 74
    45
  0
VERTEX
  5
20D
330
92
100
AcDbEntity
  8
Form8
100
AcDbFaceRecord
 10
0.0
 20
0.0
 30
0.0
 70
   128
 71
    50
 72
    51
 73
    43
 74
    43
  0
VERTEX
  5
20E
330
92
100
AcDbEntity
  8
Form8
100
AcDbFaceRecord
 10
0.0
 20
0.0
 30
0.0
 70
   128
 71
    50
 72
    43
 73
    44
 74
    44
  0
VERTEX
  5
20F
330
92
100
AcDbEntity
  8
Form8
100
AcDbFaceRecord
 10
0.0
 20
0.0
 30
0.0
 70
   128
 71
    51
 72
    36
 73
    35
 74
    35
  0
VERTEX
  5
210
330
92
100
AcDbEntity
  8
Form8
100
AcDbFaceRecord
 10
0.0
 20
0.0
 30
0.0
 70
   128
 71
    51
 72
    35
 73
    43
 74
    43
  0
VERTEX
  5
211
330
92
100
AcDbEntity
  8
Form8
100
AcDbFaceRecord
 10
0.0
 20
0.0
 30
0.0
 70
   128
 71
    32
 72
    52
 73
    33
 74
    33
  0
VERTEX
  5
212
330
92
100
AcDbEntity
  8
Form8
100
AcDbFaceRecord
 10
0.0
 20
0.0
 30
0.0
 70
   128
 71
    52
 72
    55
 73
    33
 74
    33
  0
VERTEX
  5
213
330
92
100
AcDbEntity
  8
Form8
100
AcDbFaceRecord
 10
0.0
 20
0.0
 30
0.0
 70
   128
 71
    52
 72
    53
 73
    56
 74
    56
  0
VERTEX
  5
214
330
92
100
AcDbEntity
  8
Form8
100
AcDbFaceRecord
 10
0.0
 20
0.0
 30
0.0
 70
   128
 71
    52
 72
    56
 73
    55
 74
    55
  0
VERTEX
  5
215
330
92
100
AcDbEntity
  8
Form8
100
AcDbFaceRecord
 10
0.0
 20
0.0
 30
0.0
 70
   128
 71
    53
 72
    54
 73
    56
 74
    56
  0
VERTEX
  5
216
330
92
100
AcDbEntity
  8
Form8
100
AcDbFaceRecord
 10
0.0
 20
0.0
 30
0.0
 70
   128
 71
    54
 72
    57
 73
    56
 74
    56
  0
VERTEX
  5
217
330
92
100
AcDbEntity
  8
Form8
100
AcDbFaceRecord
 10
0.0
 20
0.0
 30
0.0
 70
   128
 71
    33
 72
    55
 73
    34
 74
    34
  0
VERTEX
  5
218
330
92
100
AcDbEntity
  8
Form8
100
AcDbFaceRecord
 10
0.0
 20
0.0
 30
0.0
 70
   128
 71
    55
 72
    40
 73
    34
 74
    34
  0
VERTEX
  5
219
330
92
100
AcDbEntity
  8
Form8
100
AcDbFaceRecord
 10
0.0
 20
0.0
 30
0.0
 70
   128
 71
    55
 72
    56
 73
    40
 74
    40
  0
VERTEX
  5
21A
330
92
100
AcDbEntity
  8
Form8
100
AcDbFaceRecord
 10
0.0
 20
0.0
 30
0.0
 70
   128
 71
    56
 72
    42
 73
    40
 74
    40
  0
VERTEX
  5
21B
330
92
100
AcDbEntity
  8
Form8
100
AcDbFaceRecord
 10
0.0
 20
0.0
 30
0.0
 70
   128
 71
    56
 72
    57
 73
    42
 74
    42
  0
VERTEX
  5
21C
330
92
100
AcDbEntity
  8
Form8
100
AcDbFaceRecord
 10
0.0
 20
0.0
 30
0.0
 70
   128
 71
    57
 72
    41
 73
    42
 74
    42
  0
VERTEX
  5
21D
330
92
100
AcDbEntity
  8
Form8
100
AcDbFaceRecord
 10
0.0
 20
0.0
 30
0.0
 70
   128
 71
     2
 72
    58
 73
    59
 74
    59
  0
VERTEX
  5
21E
330
92
100
AcDbEntity
  8
Form8
100
AcDbFaceRecord
 10
0.0
 20
0.0
 30
0.0
 70
   128
 71
     2
 72
    59
 73
     4
 74
     4
  0
VERTEX
  5
21F
330
92
100
AcDbEntity
  8
Form8
100
AcDbFaceRecord
 10
0.0
 20
0.0
 30
0.0
 70
   128
 71
     4
 72
    59
 73
    30
 74
    30
  0
VERTEX
  5
220
330
92
100
AcDbEntity
  8
Form8
100
AcDbFaceRecord
 10
0.0
 20
0.0
 30
0.0
 70
   128
 71
     4
 72
    30
 73
     6
 74
     6
  0
VERTEX
  5
221
330
92
100
AcDbEntity
  8
Form8
100
AcDbFaceRecord
 10
0.0
 20
0.0
 30
0.0
 70
   128
 71
    31
 72
    30
 73
    59
 74
    59
  0
VERTEX
  5
222
330
92
100
AcDbEntity
  8
Form8
100
AcDbFaceRecord
 10
0.0
 20
0.0
 30
0.0
 70
   128
 71
    31
 72
    59
 73
    60
 74
    60
  0
VERTEX
  5
223
330
92
100
AcDbEntity
  8
Form8
100
AcDbFaceRecord
 10
0.0
 20
0.0
 30
0.0
 70
   128
 71
    60
 72
    59
 73
    58
 74
    58
  0
VERTEX
  5
224
330
92
100
AcDbEntity
  8
Form8
100
AcDbFaceRecord
 10
0.0
 20
0.0
 30
0.0
 70
   128
 71
    60
 72
    58
 73
    61
 74
    61
  0
VERTEX
  5
225
330
92
100
AcDbEntity
  8
Form8
100
AcDbFaceRecord
 10
0.0
 20
0.0
 30
0.0
 70
   128
 71
    39
 72
    38
 73
    65
 74
    65
  0
VERTEX
  5
226
330
92
100
AcDbEntity
  8
Form8
100
AcDbFaceRecord
 10
0.0
 20
0.0
 30
0.0
 70
   128
 71
    38
 72
    62
 73
    65
 74
    65
  0
VERTEX
  5
227
330
92
100
AcDbEntity
  8
Form8
100
AcDbFaceRecord
 10
0.0
 20
0.0
 30
0.0
 70
   128
 71
    65
 72
    62
 73
    64
 74
    64
  0
VERTEX
  5
228
330
92
100
AcDbEntity
  8
Form8
100
AcDbFaceRecord
 10
0.0
 20
0.0
 30
0.0
 70
   128
 71
    62
 72
    63
 73
    64
 74
    64
  0
VERTEX
  5
229
330
92
100
AcDbEntity
  8
Form8
100
AcDbFaceRecord
 10
0.0
 20
0.0
 30
0.0
 70
   128
 71
    16
 72
    39
 73
    26
 74
    26
  0
VERTEX
  5
22A
330
92
100
AcDbEntity
  8
Form8
100
AcDbFaceRecord
 10
0.0
 20
0.0
 30
0.0
 70
   128
 71
    39
 72
    65
 73
    26
 74
    26
  0
VERTEX
  5
22B
330
92
100
AcDbEntity
  8
Form8
100
AcDbFaceRecord
 10
0.0
 20
0.0
 30
0.0
 70
   128
 71
    26
 72
    65
 73
    28
 74
    28
  0
VERTEX
  5
22C
330
92
100
AcDbEntity
  8
Form8
100
AcDbFaceRecord
 10
0.0
 20
0.0
 30
0.0
 70
   128
 71
    65
 72
    64
 73
    28
 74
    28
  0
VERTEX
  5
22D
330
92
100
AcDbEntity
  8
Form8
100
AcDbFaceRecord
 10
0.0
 20
0.0
 30
0.0
 70
   128
 71
    66
 72
    31
 73
    60
 74
    60
  0
VERTEX
  5
22E
330
92
100
AcDbEntity
  8
Form8
100
AcDbFaceRecord
 10
0.0
 20
0.0
 30
0.0
 70
   128
 71
    66
 72
    60
 73
    67
 74
    67
  0
VERTEX
  5
22F
330
92
100
AcDbEntity
  8
Form8
100
AcDbFaceRecord
 10
0.0
 20
0.0
 30
0.0
 70
   128
 71
    67
 72
    60
 73
    61
 74
    61
  0
VERTEX
  5
230
330
92
100
AcDbEntity
  8
Form8
100
AcDbFaceRecord
 10
0.0
 20
0.0
 30
0.0
 70
   128
 71
    67
 72
    61
 73
    68
 74
    68
  0
VERTEX
  5
231
330
92
100
AcDbEntity
  8
Form8
100
AcDbFaceRecord
 10
0.0
 20
0.0
 30
0.0
 70
   128
 71
    69
 72
    66
 73
    67
 74
    67
  0
VERTEX
  5
232
330
92
100
AcDbEntity
  8
Form8
100
AcDbFaceRecord
 10
0.0
 20
0.0
 30
0.0
 70
   128
 71
    69
 72
    67
 73
    70
 74
    70
  0
VERTEX
  5
233
330
92
100
AcDbEntity
  8
Form8
100
AcDbFaceRecord
 10
0.0
 20
0.0
 30
0.0
 70
   128
 71
    70
 72
    67
 73
    68
 74
    68
  0
VERTEX
  5
234
330
92
100
AcDbEntity
  8
Form8
100
AcDbFaceRecord
 10
0.0
 20
0.0
 30
0.0
 70
   128
 71
    70
 72
    68
 73
    71
 74
    71
  0
VERTEX
  5
235
330
92
100
AcDbEntity
  8
Form8
100
AcDbFaceRecord
 10
0.0
 20
0.0
 30
0.0
 70
   128
 71
    72
 72
    69
 73
    70
 74
    70
  0
VERTEX
  5
236
330
92
100
AcDbEntity
  8
Form8
100
AcDbFaceRecord
 10
0.0
 20
0.0
 30
0.0
 70
   128
 71
    72
 72
    70
 73
    73
 74
    73
  0
VERTEX
  5
237
330
92
100
AcDbEntity
  8
Form8
100
AcDbFaceRecord
 10
0.0
 20
0.0
 30
0.0
 70
   128
 71
    73
 72
    70
 73
    71
 74
    71
  0
VERTEX
  5
238
330
92
100
AcDbEntity
  8
Form8
100
AcDbFaceRecord
 10
0.0
 20
0.0
 30
0.0
 70
   128
 71
    73
 72
    71
 73
    74
 74
    74
  0
VERTEX
  5
239
330
92
100
AcDbEntity
  8
Form8
100
AcDbFaceRecord
 10
0.0
 20
0.0
 30
0.0
 70
   128
 71
    75
 72
    72
 73
    73
 74
    73
  0
VERTEX
  5
23A
330
92
100
AcDbEntity
  8
Form8
100
AcDbFaceRecord
 10
0.0
 20
0.0
 30
0.0
 70
   128
 71
    75
 72
    73
 73
    76
 74
    76
  0
VERTEX
  5
23B
330
92
100
AcDbEntity
  8
Form8
100
AcDbFaceRecord
 10
0.0
 20
0.0
 30
0.0
 70
   128
 71
    76
 72
    73
 73
    74
 74
    74
  0
VERTEX
  5
23C
330
92
100
AcDbEntity
  8
Form8
100
AcDbFaceRecord
 10
0.0
 20
0.0
 30
0.0
 70
   128
 71
    76
 72
    74
 73
    77
 74
    77
  0
VERTEX
  5
23D
330
92
100
AcDbEntity
  8
Form8
100
AcDbFaceRecord
 10
0.0
 20
0.0
 30
0.0
 70
   128
 71
    78
 72
    75
 73
    76
 74
    76
  0
VERTEX
  5
23E
330
92
100
AcDbEntity
  8
Form8
100
AcDbFaceRecord
 10
0.0
 20
0.0
 30
0.0
 70
   128
 71
    78
 72
    76
 73
    79
 74
    79
  0
VERTEX
  5
23F
330
92
100
AcDbEntity
  8
Form8
100
AcDbFaceRecord
 10
0.0
 20
0.0
 30
0.0
 70
   128
 71
    79
 72
    76
 73
    77
 74
    77
  0
VERTEX
  5
240
330
92
100
AcDbEntity
  8
Form8
100
AcDbFaceRecord
 10
0.0
 20
0.0
 30
0.0
 70
   128
 71
    79
 72
    77
 73
    80
 74
    80
  0
VERTEX
  5
241
330
92
100
AcDbEntity
  8
Form8
100
AcDbFaceRecord
 10
0.0
 20
0.0
 30
0.0
 70
   128
 71
    81
 72
    78
 73
    79
 74
    79
  0
VERTEX
  5
242
330
92
100
AcDbEntity
  8
Form8
100
AcDbFaceRecord
 10
0.0
 20
0.0
 30
0.0
 70
   128
 71
    81
 72
    79
 73
    82
 74
    82
  0
VERTEX
  5
243
330
92
100
AcDbEntity
  8
Form8
100
AcDbFaceRecord
 10
0.0
 20
0.0
 30
0.0
 70
   128
 71
    82
 72
    79
 73
    80
 74
    80
  0
VERTEX
  5
244
330
92
100
AcDbEntity
  8
Form8
100
AcDbFaceRecord
 10
0.0
 20
0.0
 30
0.0
 70
   128
 71
    82
 72
    80
 73
    83
 74
    83
  0
VERTEX
  5
245
330
92
100
AcDbEntity
  8
Form8
100
AcDbFaceRecord
 10
0.0
 20
0.0
 30
0.0
 70
   128
 71
    84
 72
    81
 73
    82
 74
    82
  0
VERTEX
  5
246
330
92
100
AcDbEntity
  8
Form8
100
AcDbFaceRecord
 10
0.0
 20
0.0
 30
0.0
 70
   128
 71
    84
 72
    82
 73
    85
 74
    85
  0
VERTEX
  5
247
330
92
100
AcDbEntity
  8
Form8
100
AcDbFaceRecord
 10
0.0
 20
0.0
 30
0.0
 70
   128
 71
    85
 72
    82
 73
    83
 74
    83
  0
VERTEX
  5
248
330
92
100
AcDbEntity
  8
Form8
100
AcDbFaceRecord
 10
0.0
 20
0.0
 30
0.0
 70
   128
 71
    85
 72
    83
 73
    86
 74
    86
  0
VERTEX
  5
249
330
92
100
AcDbEntity
  8
Form8
100
AcDbFaceRecord
 10
0.0
 20
0.0
 30
0.0
 70
   128
 71
    87
 72
    84
 73
    85
 74
    85
  0
VERTEX
  5
24A
330
92
100
AcDbEntity
  8
Form8
100
AcDbFaceRecord
 10
0.0
 20
0.0
 30
0.0
 70
   128
 71
    87
 72
    85
 73
    88
 74
    88
  0
VERTEX
  5
24B
330
92
100
AcDbEntity
  8
Form8
100
AcDbFaceRecord
 10
0.0
 20
0.0
 30
0.0
 70
   128
 71
    88
 72
    85
 73
    86
 74
    86
  0
VERTEX
  5
24C
330
92
100
AcDbEntity
  8
Form8
100
AcDbFaceRecord
 10
0.0
 20
0.0
 30
0.0
 70
   128
 71
    88
 72
    86
 73
    89
 74
    89
  0
VERTEX
  5
24D
330
92
100
AcDbEntity
  8
Form8
100
AcDbFaceRecord
 10
0.0
 20
0.0
 30
0.0
 70
   128
 71
    90
 72
    87
 73
    88
 74
    88
  0
VERTEX
  5
24E
330
92
100
AcDbEntity
  8
Form8
100
AcDbFaceRecord
 10
0.0
 20
0.0
 30
0.0
 70
   128
 71
    90
 72
    88
 73
    91
 74
    91
  0
VERTEX
  5
24F
330
92
100
AcDbEntity
  8
Form8
100
AcDbFaceRecord
 10
0.0
 20
0.0
 30
0.0
 70
   128
 71
    91
 72
    88
 73
    89
 74
    89
  0
VERTEX
  5
250
330
92
100
AcDbEntity
  8
Form8
100
AcDbFaceRecord
 10
0.0
 20
0.0
 30
0.0
 70
   128
 71
    91
 72
    89
 73
    92
 74
    92
  0
VERTEX
  5
251
330
92
100
AcDbEntity
  8
Form8
100
AcDbFaceRecord
 10
0.0
 20
0.0
 30
0.0
 70
   128
 71
    93
 72
    90
 73
    91
 74
    91
  0
VERTEX
  5
252
330
92
100
AcDbEntity
  8
Form8
100
AcDbFaceRecord
 10
0.0
 20
0.0
 30
0.0
 70
   128
 71
    93
 72
    91
 73
    94
 74
    94
  0
VERTEX
  5
253
330
92
100
AcDbEntity
  8
Form8
100
AcDbFaceRecord
 10
0.0
 20
0.0
 30
0.0
 70
   128
 71
    94
 72
    91
 73
    92
 74
    92
  0
VERTEX
  5
254
330
92
100
AcDbEntity
  8
Form8
100
AcDbFaceRecord
 10
0.0
 20
0.0
 30
0.0
 70
   128
 71
    94
 72
    92
 73
    95
 74
    95
  0
VERTEX
  5
255
330
92
100
AcDbEntity
  8
Form8
100
AcDbFaceRecord
 10
0.0
 20
0.0
 30
0.0
 70
   128
 71
    96
 72
    93
 73
    97
 74
    97
  0
VERTEX
  5
256
330
92
100
AcDbEntity
  8
Form8
100
AcDbFaceRecord
 10
0.0
 20
0.0
 30
0.0
 70
   128
 71
    93
 72
    94
 73
    97
 74
    97
  0
VERTEX
  5
257
330
92
100
AcDbEntity
  8
Form8
100
AcDbFaceRecord
 10
0.0
 20
0.0
 30
0.0
 70
   128
 71
    97
 72
    94
 73
    98
 74
    98
  0
VERTEX
  5
258
330
92
100
AcDbEntity
  8
Form8
100
AcDbFaceRecord
 10
0.0
 20
0.0
 30
0.0
 70
   128
 71
    94
 72
    95
 73
    98
 74
    98
  0
VERTEX
  5
259
330
92
100
AcDbEntity
  8
Form8
100
AcDbFaceRecord
 10
0.0
 20
0.0
 30
0.0
 70
   128
 71
    99
 72
    96
 73
   100
 74
   100
  0
VERTEX
  5
25A
330
92
100
AcDbEntity
  8
Form8
100
AcDbFaceRecord
 10
0.0
 20
0.0
 30
0.0
 70
   128
 71
    96
 72
    97
 73
   100
 74
   100
  0
VERTEX
  5
25B
330
92
100
AcDbEntity
  8
Form8
100
AcDbFaceRecord
 10
0.0
 20
0.0
 30
0.0
 70
   128
 71
   100
 72
    97
 73
   101
 74
   101
  0
VERTEX
  5
25C
330
92
100
AcDbEntity
  8
Form8
100
AcDbFaceRecord
 10
0.0
 20
0.0
 30
0.0
 70
   128
 71
    97
 72
    98
 73
   101
 74
   101
  0
VERTEX
  5
25D
330
92
100
AcDbEntity
  8
Form8
100
AcDbFaceRecord
 10
0.0
 20
0.0
 30
0.0
 70
   128
 71
   102
 72
    99
 73
   103
 74
   103
  0
VERTEX
  5
25E
330
92
100
AcDbEntity
  8
Form8
100
AcDbFaceRecord
 10
0.0
 20
0.0
 30
0.0
 70
   128
 71
    99
 72
   100
 73
   103
 74
   103
  0
VERTEX
  5
25F
330
92
100
AcDbEntity
  8
Form8
100
AcDbFaceRecord
 10
0.0
 20
0.0
 30
0.0
 70
   128
 71
   103
 72
   100
 73
   104
 74
   104
  0
VERTEX
  5
260
330
92
100
AcDbEntity
  8
Form8
100
AcDbFaceRecord
 10
0.0
 20
0.0
 30
0.0
 70
   128
 71
   100
 72
   101
 73
   104
 74
   104
  0
VERTEX
  5
261
330
92
100
AcDbEntity
  8
Form8
100
AcDbFaceRecord
 10
0.0
 20
0.0
 30
0.0
 70
   128
 71
   105
 72
   102
 73
   106
 74
   106
  0
VERTEX
  5
262
330
92
100
AcDbEntity
  8
Form8
100
AcDbFaceRecord
 10
0.0
 20
0.0
 30
0.0
 70
   128
 71
   102
 72
   103
 73
   106
 74
   106
  0
VERTEX
  5
263
330
92
100
AcDbEntity
  8
Form8
100
AcDbFaceRecord
 10
0.0
 20
0.0
 30
0.0
 70
   128
 71
   106
 72
   103
 73
   107
 74
   107
  0
VERTEX
  5
264
330
92
100
AcDbEntity
  8
Form8
100
AcDbFaceRecord
 10
0.0
 20
0.0
 30
0.0
 70
   128
 71
   103
 72
   104
 73
   107
 74
   107
  0
VERTEX
  5
265
330
92
100
AcDbEntity
  8
Form8
100
AcDbFaceRecord
 10
0.0
 20
0.0
 30
0.0
 70
   128
 71
   108
 72
   105
 73
   109
 74
   109
  0
VERTEX
  5
266
330
92
100
AcDbEntity
  8
Form8
100
AcDbFaceRecord
 10
0.0
 20
0.0
 30
0.0
 70
   128
 71
   105
 72
   106
 73
   109
 74
   109
  0
VERTEX
  5
267
330
92
100
AcDbEntity
  8
Form8
100
AcDbFaceRecord
 10
0.0
 20
0.0
 30
0.0
 70
   128
 71
   109
 72
   106
 73
   110
 74
   110
  0
VERTEX
  5
268
330
92
100
AcDbEntity
  8
Form8
100
AcDbFaceRecord
 10
0.0
 20
0.0
 30
0.0
 70
   128
 71
   106
 72
   107
 73
   110
 74
   110
  0
VERTEX
  5
269
330
92
100
AcDbEntity
  8
Form8
100
AcDbFaceRecord
 10
0.0
 20
0.0
 30
0.0
 70
   128
 71
   111
 72
   108
 73
   112
 74
   112
  0
VERTEX
  5
26A
330
92
100
AcDbEntity
  8
Form8
100
AcDbFaceRecord
 10
0.0
 20
0.0
 30
0.0
 70
   128
 71
   108
 72
   109
 73
   112
 74
   112
  0
VERTEX
  5
26B
330
92
100
AcDbEntity
  8
Form8
100
AcDbFaceRecord
 10
0.0
 20
0.0
 30
0.0
 70
   128
 71
   112
 72
   109
 73
   113
 74
   113
  0
VERTEX
  5
26C
330
92
100
AcDbEntity
  8
Form8
100
AcDbFaceRecord
 10
0.0
 20
0.0
 30
0.0
 70
   128
 71
   109
 72
   110
 73
   113
 74
   113
  0
VERTEX
  5
26D
330
92
100
AcDbEntity
  8
Form8
100
AcDbFaceRecord
 10
0.0
 20
0.0
 30
0.0
 70
   128
 71
   114
 72
   111
 73
   115
 74
   115
  0
VERTEX
  5
26E
330
92
100
AcDbEntity
  8
Form8
100
AcDbFaceRecord
 10
0.0
 20
0.0
 30
0.0
 70
   128
 71
   111
 72
   112
 73
   115
 74
   115
  0
VERTEX
  5
26F
330
92
100
AcDbEntity
  8
Form8
100
AcDbFaceRecord
 10
0.0
 20
0.0
 30
0.0
 70
   128
 71
   115
 72
   112
 73
   116
 74
   116
  0
VERTEX
  5
270
330
92
100
AcDbEntity
  8
Form8
100
AcDbFaceRecord
 10
0.0
 20
0.0
 30
0.0
 70
   128
 71
   112
 72
   113
 73
   116
 74
   116
  0
VERTEX
  5
271
330
92
100
AcDbEntity
  8
Form8
100
AcDbFaceRecord
 10
0.0
 20
0.0
 30
0.0
 70
   128
 71
   117
 72
   114
 73
   118
 74
   118
  0
VERTEX
  5
272
330
92
100
AcDbEntity
  8
Form8
100
AcDbFaceRecord
 10
0.0
 20
0.0
 30
0.0
 70
   128
 71
   114
 72
   115
 73
   118
 74
   118
  0
VERTEX
  5
273
330
92
100
AcDbEntity
  8
Form8
100
AcDbFaceRecord
 10
0.0
 20
0.0
 30
0.0
 70
   128
 71
   118
 72
   115
 73
   119
 74
   119
  0
VERTEX
  5
274
330
92
100
AcDbEntity
  8
Form8
100
AcDbFaceRecord
 10
0.0
 20
0.0
 30
0.0
 70
   128
 71
   115
 72
   116
 73
   119
 74
   119
  0
VERTEX
  5
275
330
92
100
AcDbEntity
  8
Form8
100
AcDbFaceRecord
 10
0.0
 20
0.0
 30
0.0
 70
   128
 71
   122
 72
    63
 73
   121
 74
   121
  0
VERTEX
  5
276
330
92
100
AcDbEntity
  8
Form8
100
AcDbFaceRecord
 10
0.0
 20
0.0
 30
0.0
 70
   128
 71
    63
 72
    62
 73
   121
 74
   121
  0
VERTEX
  5
277
330
92
100
AcDbEntity
  8
Form8
100
AcDbFaceRecord
 10
0.0
 20
0.0
 30
0.0
 70
   128
 71
   121
 72
    62
 73
   120
 74
   120
  0
VERTEX
  5
278
330
92
100
AcDbEntity
  8
Form8
100
AcDbFaceRecord
 10
0.0
 20
0.0
 30
0.0
 70
   128
 71
    62
 72
    38
 73
   120
 74
   120
  0
VERTEX
  5
279
330
92
100
AcDbEntity
  8
Form8
100
AcDbFaceRecord
 10
0.0
 20
0.0
 30
0.0
 70
   128
 71
   120
 72
   117
 73
   121
 74
   121
  0
VERTEX
  5
27A
330
92
100
AcDbEntity
  8
Form8
100
AcDbFaceRecord
 10
0.0
 20
0.0
 30
0.0
 70
   128
 71
   117
 72
   118
 73
   121
 74
   121
  0
VERTEX
  5
27B
330
92
100
AcDbEntity
  8
Form8
100
AcDbFaceRecord
 10
0.0
 20
0.0
 30
0.0
 70
   128
 71
   121
 72
   118
 73
   122
 74
   122
  0
VERTEX
  5
27C
330
92
100
AcDbEntity
  8
Form8
100
AcDbFaceRecord
 10
0.0
 20
0.0
 30
0.0
 70
   128
 71
   118
 72
   119
 73
   122
 74
   122
  0
VERTEX
  5
27D
330
92
100
AcDbEntity
  8
Form8
100
AcDbFaceRecord
 10
0.0
 20
0.0
 30
0.0
 70
   128
 71
   125
 72
    53
 73
   124
 74
   124
  0
VERTEX
  5
27E
330
92
100
AcDbEntity
  8
Form8
100
AcDbFaceRecord
 10
0.0
 20
0.0
 30
0.0
 70
   128
 71
    53
 72
    52
 73
   124
 74
   124
  0
VERTEX
  5
27F
330
92
100
AcDbEntity
  8
Form8
100
AcDbFaceRecord
 10
0.0
 20
0.0
 30
0.0
 70
   128
 71
   124
 72
    52
 73
   123
 74
   123
  0
VERTEX
  5
280
330
92
100
AcDbEntity
  8
Form8
100
AcDbFaceRecord
 10
0.0
 20
0.0
 30
0.0
 70
   128
 71
    52
 72
    32
 73
   123
 74
   123
  0
VERTEX
  5
281
330
92
100
AcDbEntity
  8
Form8
100
AcDbFaceRecord
 10
0.0
 20
0.0
 30
0.0
 70
   128
 71
   128
 72
   125
 73
   124
 74
   124
  0
VERTEX
  5
282
330
92
100
AcDbEntity
  8
Form8
100
AcDbFaceRecord
 10
0.0
 20
0.0
 30
0.0
 70
   128
 71
   128
 72
   124
 73
   127
 74
   127
  0
VERTEX
  5
283
330
92
100
AcDbEntity
  8
Form8
100
AcDbFaceRecord
 10
0.0
 20
0.0
 30
0.0
 70
   128
 71
   127
 72
   124
 73
   123
 74
   123
  0
VERTEX
  5
284
330
92
100
AcDbEntity
  8
Form8
100
AcDbFaceRecord
 10
0.0
 20
0.0
 30
0.0
 70
   128
 71
   127
 72
   123
 73
   126
 74
   126
  0
VERTEX
  5
285
330
92
100
AcDbEntity
  8
Form8
100
AcDbFaceRecord
 10
0.0
 20
0.0
 30
0.0
 70
   128
 71
   131
 72
   128
 73
   127
 74
   127
  0
VERTEX
  5
286
330
92
100
AcDbEntity
  8
Form8
100
AcDbFaceRecord
 10
0.0
 20
0.0
 30
0.0
 70
   128
 71
   131
 72
   127
 73
   130
 74
   130
  0
VERTEX
  5
287
330
92
100
AcDbEntity
  8
Form8
100
AcDbFaceRecord
 10
0.0
 20
0.0
 30
0.0
 70
   128
 71
   130
 72
   127
 73
   126
 74
   126
  0
VERTEX
  5
288
330
92
100
AcDbEntity
  8
Form8
100
AcDbFaceRecord
 10
0.0
 20
0.0
 30
0.0
 70
   128
 71
   130
 72
   126
 73
   129
 74
   129
  0
VERTEX
  5
289
330
92
100
AcDbEntity
  8
Form8
100
AcDbFaceRecord
 10
0.0
 20
0.0
 30
0.0
 70
   128
 71
   134
 72
   131
 73
   130
 74
   130
  0
VERTEX
  5
28A
330
92
100
AcDbEntity
  8
Form8
100
AcDbFaceRecord
 10
0.0
 20
0.0
 30
0.0
 70
   128
 71
   134
 72
   130
 73
   133
 74
   133
  0
VERTEX
  5
28B
330
92
100
AcDbEntity
  8
Form8
100
AcDbFaceRecord
 10
0.0
 20
0.0
 30
0.0
 70
   128
 71
   133
 72
   130
 73
   129
 74
   129
  0
VERTEX
  5
28C
330
92
100
AcDbEntity
  8
Form8
100
AcDbFaceRecord
 10
0.0
 20
0.0
 30
0.0
 70
   128
 71
   133
 72
   129
 73
   132
 74
   132
  0
VERTEX
  5
28D
330
92
100
AcDbEntity
  8
Form8
100
AcDbFaceRecord
 10
0.0
 20
0.0
 30
0.0
 70
   128
 71
   137
 72
   134
 73
   133
 74
   133
  0
VERTEX
  5
28E
330
92
100
AcDbEntity
  8
Form8
100
AcDbFaceRecord
 10
0.0
 20
0.0
 30
0.0
 70
   128
 71
   137
 72
   133
 73
   136
 74
   136
  0
VERTEX
  5
28F
330
92
100
AcDbEntity
  8
Form8
100
AcDbFaceRecord
 10
0.0
 20
0.0
 30
0.0
 70
   128
 71
   136
 72
   133
 73
   132
 74
   132
  0
VERTEX
  5
290
330
92
100
AcDbEntity
  8
Form8
100
AcDbFaceRecord
 10
0.0
 20
0.0
 30
0.0
 70
   128
 71
   136
 72
   132
 73
   135
 74
   135
  0
VERTEX
  5
291
330
92
100
AcDbEntity
  8
Form8
100
AcDbFaceRecord
 10
0.0
 20
0.0
 30
0.0
 70
   128
 71
   140
 72
   137
 73
   136
 74
   136
  0
VERTEX
  5
292
330
92
100
AcDbEntity
  8
Form8
100
AcDbFaceRecord
 10
0.0
 20
0.0
 30
0.0
 70
   128
 71
   140
 72
   136
 73
   139
 74
   139
  0
VERTEX
  5
293
330
92
100
AcDbEntity
  8
Form8
100
AcDbFaceRecord
 10
0.0
 20
0.0
 30
0.0
 70
   128
 71
   139
 72
   136
 73
   135
 74
   135
  0
VERTEX
  5
294
330
92
100
AcDbEntity
  8
Form8
100
AcDbFaceRecord
 10
0.0
 20
0.0
 30
0.0
 70
   128
 71
   139
 72
   135
 73
   138
 74
   138
  0
VERTEX
  5
295
330
92
100
AcDbEntity
  8
Form8
100
AcDbFaceRecord
 10
0.0
 20
0.0
 30
0.0
 70
   128
 71
   143
 72
   140
 73
   139
 74
   139
  0
VERTEX
  5
296
330
92
100
AcDbEntity
  8
Form8
100
AcDbFaceRecord
 10
0.0
 20
0.0
 30
0.0
 70
   128
 71
   143
 72
   139
 73
   142
 74
   142
  0
VERTEX
  5
297
330
92
100
AcDbEntity
  8
Form8
100
AcDbFaceRecord
 10
0.0
 20
0.0
 30
0.0
 70
   128
 71
   142
 72
   139
 73
   138
 74
   138
  0
VERTEX
  5
298
330
92
100
AcDbEntity
  8
Form8
100
AcDbFaceRecord
 10
0.0
 20
0.0
 30
0.0
 70
   128
 71
   142
 72
   138
 73
   141
 74
   141
  0
VERTEX
  5
299
330
92
100
AcDbEntity
  8
Form8
100
AcDbFaceRecord
 10
0.0
 20
0.0
 30
0.0
 70
   128
 71
   146
 72
   143
 73
   142
 74
   142
  0
VERTEX
  5
29A
330
92
100
AcDbEntity
  8
Form8
100
AcDbFaceRecord
 10
0.0
 20
0.0
 30
0.0
 70
   128
 71
   146
 72
   142
 73
   145
 74
   145
  0
VERTEX
  5
29B
330
92
100
AcDbEntity
  8
Form8
100
AcDbFaceRecord
 10
0.0
 20
0.0
 30
0.0
 70
   128
 71
   145
 72
   142
 73
   141
 74
   141
  0
VERTEX
  5
29C
330
92
100
AcDbEntity
  8
Form8
100
AcDbFaceRecord
 10
0.0
 20
0.0
 30
0.0
 70
   128
 71
   145
 72
   141
 73
   144
 74
   144
  0
VERTEX
  5
29D
330
92
100
AcDbEntity
  8
Form8
100
AcDbFaceRecord
 10
0.0
 20
0.0
 30
0.0
 70
   128
 71
   149
 72
   146
 73
   145
 74
   145
  0
VERTEX
  5
29E
330
92
100
AcDbEntity
  8
Form8
100
AcDbFaceRecord
 10
0.0
 20
0.0
 30
0.0
 70
   128
 71
   149
 72
   145
 73
   148
 74
   148
  0
VERTEX
  5
29F
330
92
100
AcDbEntity
  8
Form8
100
AcDbFaceRecord
 10
0.0
 20
0.0
 30
0.0
 70
   128
 71
   148
 72
   145
 73
   144
 74
   144
  0
VERTEX
  5
2A0
330
92
100
AcDbEntity
  8
Form8
100
AcDbFaceRecord
 10
0.0
 20
0.0
 30
0.0
 70
   128
 71
   148
 72
   144
 73
   147
 74
   147
  0
VERTEX
  5
2A1
330
92
100
AcDbEntity
  8
Form8
100
AcDbFaceRecord
 10
0.0
 20
0.0
 30
0.0
 70
   128
 71
   152
 72
   149
 73
   148
 74
   148
  0
VERTEX
  5
2A2
330
92
100
AcDbEntity
  8
Form8
100
AcDbFaceRecord
 10
0.0
 20
0.0
 30
0.0
 70
   128
 71
   152
 72
   148
 73
   151
 74
   151
  0
VERTEX
  5
2A3
330
92
100
AcDbEntity
  8
Form8
100
AcDbFaceRecord
 10
0.0
 20
0.0
 30
0.0
 70
   128
 71
   151
 72
   148
 73
   147
 74
   147
  0
VERTEX
  5
2A4
330
92
100
AcDbEntity
  8
Form8
100
AcDbFaceRecord
 10
0.0
 20
0.0
 30
0.0
 70
   128
 71
   151
 72
   147
 73
   150
 74
   150
  0
VERTEX
  5
2A5
330
92
100
AcDbEntity
  8
Form8
100
AcDbFaceRecord
 10
0.0
 20
0.0
 30
0.0
 70
   128
 71
   156
 72
   152
 73
   155
 74
   155
  0
VERTEX
  5
2A6
330
92
100
AcDbEntity
  8
Form8
100
AcDbFaceRecord
 10
0.0
 20
0.0
 30
0.0
 70
   128
 71
   152
 72
   151
 73
   155
 74
   155
  0
VERTEX
  5
2A7
330
92
100
AcDbEntity
  8
Form8
100
AcDbFaceRecord
 10
0.0
 20
0.0
 30
0.0
 70
   128
 71
   155
 72
   151
 73
   154
 74
   154
  0
VERTEX
  5
2A8
330
92
100
AcDbEntity
  8
Form8
100
AcDbFaceRecord
 10
0.0
 20
0.0
 30
0.0
 70
   128
 71
   151
 72
   150
 73
   154
 74
   154
  0
VERTEX
  5
2A9
330
92
100
AcDbEntity
  8
Form8
100
AcDbFaceRecord
 10
0.0
 20
0.0
 30
0.0
 70
   128
 71
   159
 72
   156
 73
   158
 74
   158
  0
VERTEX
  5
2AA
330
92
100
AcDbEntity
  8
Form8
100
AcDbFaceRecord
 10
0.0
 20
0.0
 30
0.0
 70
   128
 71
   156
 72
   155
 73
   158
 74
   158
  0
VERTEX
  5
2AB
330
92
100
AcDbEntity
  8
Form8
100
AcDbFaceRecord
 10
0.0
 20
0.0
 30
0.0
 70
   128
 71
   158
 72
   155
 73
   157
 74
   157
  0
VERTEX
  5
2AC
330
92
100
AcDbEntity
  8
Form8
100
AcDbFaceRecord
 10
0.0
 20
0.0
 30
0.0
 70
   128
 71
   155
 72
   154
 73
   157
 74
   157
  0
VERTEX
  5
2AD
330
92
100
AcDbEntity
  8
Form8
100
AcDbFaceRecord
 10
0.0
 20
0.0
 30
0.0
 70
   128
 71
   162
 72
   159
 73
   161
 74
   161
  0
VERTEX
  5
2AE
330
92
100
AcDbEntity
  8
Form8
100
AcDbFaceRecord
 10
0.0
 20
0.0
 30
0.0
 70
   128
 71
   159
 72
   158
 73
   161
 74
   161
  0
VERTEX
  5
2AF
330
92
100
AcDbEntity
  8
Form8
100
AcDbFaceRecord
 10
0.0
 20
0.0
 30
0.0
 70
   128
 71
   161
 72
   158
 73
   160
 74
   160
  0
VERTEX
  5
2B0
330
92
100
AcDbEntity
  8
Form8
100
AcDbFaceRecord
 10
0.0
 20
0.0
 30
0.0
 70
   128
 71
   158
 72
   157
 73
   160
 74
   160
  0
VERTEX
  5
2B1
330
92
100
AcDbEntity
  8
Form8
100
AcDbFaceRecord
 10
0.0
 20
0.0
 30
0.0
 70
   128
 71
   165
 72
   162
 73
   164
 74
   164
  0
VERTEX
  5
2B2
330
92
100
AcDbEntity
  8
Form8
100
AcDbFaceRecord
 10
0.0
 20
0.0
 30
0.0
 70
   128
 71
   162
 72
   161
 73
   164
 74
   164
  0
VERTEX
  5
2B3
330
92
100
AcDbEntity
  8
Form8
100
AcDbFaceRecord
 10
0.0
 20
0.0
 30
0.0
 70
   128
 71
   164
 72
   161
 73
   163
 74
   163
  0
VERTEX
  5
2B4
330
92
100
AcDbEntity
  8
Form8
100
AcDbFaceRecord
 10
0.0
 20
0.0
 30
0.0
 70
   128
 71
   161
 72
   160
 73
   163
 74
   163
  0
VERTEX
  5
2B5
330
92
100
AcDbEntity
  8
Form8
100
AcDbFaceRecord
 10
0.0
 20
0.0
 30
0.0
 70
   128
 71
   168
 72
   165
 73
   167
 74
   167
  0
VERTEX
  5
2B6
330
92
100
AcDbEntity
  8
Form8
100
AcDbFaceRecord
 10
0.0
 20
0.0
 30
0.0
 70
   128
 71
   165
 72
   164
 73
   167
 74
   167
  0
VERTEX
  5
2B7
330
92
100
AcDbEntity
  8
Form8
100
AcDbFaceRecord
 10
0.0
 20
0.0
 30
0.0
 70
   128
 71
   167
 72
   164
 73
   166
 74
   166
  0
VERTEX
  5
2B8
330
92
100
AcDbEntity
  8
Form8
100
AcDbFaceRecord
 10
0.0
 20
0.0
 30
0.0
 70
   128
 71
   164
 72
   163
 73
   166
 74
   166
  0
VERTEX
  5
2B9
330
92
100
AcDbEntity
  8
Form8
100
AcDbFaceRecord
 10
0.0
 20
0.0
 30
0.0
 70
   128
 71
   171
 72
   168
 73
   170
 74
   170
  0
VERTEX
  5
2BA
330
92
100
AcDbEntity
  8
Form8
100
AcDbFaceRecord
 10
0.0
 20
0.0
 30
0.0
 70
   128
 71
   168
 72
   167
 73
   170
 74
   170
  0
VERTEX
  5
2BB
330
92
100
AcDbEntity
  8
Form8
100
AcDbFaceRecord
 10
0.0
 20
0.0
 30
0.0
 70
   128
 71
   170
 72
   167
 73
   169
 74
   169
  0
VERTEX
  5
2BC
330
92
100
AcDbEntity
  8
Form8
100
AcDbFaceRecord
 10
0.0
 20
0.0
 30
0.0
 70
   128
 71
   167
 72
   166
 73
   169
 74
   169
  0
VERTEX
  5
2BD
330
92
100
AcDbEntity
  8
Form8
100
AcDbFaceRecord
 10
0.0
 20
0.0
 30
0.0
 70
   128
 71
   174
 72
   171
 73
   173
 74
   173
  0
VERTEX
  5
2BE
330
92
100
AcDbEntity
  8
Form8
100
AcDbFaceRecord
 10
0.0
 20
0.0
 30
0.0
 70
   128
 71
   171
 72
   170
 73
   173
 74
   173
  0
VERTEX
  5
2BF
330
92
100
AcDbEntity
  8
Form8
100
AcDbFaceRecord
 10
0.0
 20
0.0
 30
0.0
 70
   128
 71
   173
 72
   170
 73
   172
 74
   172
  0
VERTEX
  5
2C0
330
92
100
AcDbEntity
  8
Form8
100
AcDbFaceRecord
 10
0.0
 20
0.0
 30
0.0
 70
   128
 71
   170
 72
   169
 73
   172
 74
   172
  0
VERTEX
  5
2C1
330
92
100
AcDbEntity
  8
Form8
100
AcDbFaceRecord
 10
0.0
 20
0.0
 30
0.0
 70
   128
 71
   177
 72
   174
 73
   176
 74
   176
  0
VERTEX
  5
2C2
330
92
100
AcDbEntity
  8
Form8
100
AcDbFaceRecord
 10
0.0
 20
0.0
 30
0.0
 70
   128
 71
   174
 72
   173
 73
   176
 74
   176
  0
VERTEX
  5
2C3
330
92
100
AcDbEntity
  8
Form8
100
AcDbFaceRecord
 10
0.0
 20
0.0
 30
0.0
 70
   128
 71
   176
 72
   173
 73
   175
 74
   175
  0
VERTEX
  5
2C4
330
92
100
AcDbEntity
  8
Form8
100
AcDbFaceRecord
 10
0.0
 20
0.0
 30
0.0
 70
   128
 71
   173
 72
   172
 73
   175
 74
   175
  0
VERTEX
  5
2C5
330
92
100
AcDbEntity
  8
Form8
100
AcDbFaceRecord
 10
0.0
 20
0.0
 30
0.0
 70
   128
 71
   180
 72
   177
 73
   179
 74
   179
  0
VERTEX
  5
2C6
330
92
100
AcDbEntity
  8
Form8
100
AcDbFaceRecord
 10
0.0
 20
0.0
 30
0.0
 70
   128
 71
   177
 72
   176
 73
   179
 74
   179
  0
VERTEX
  5
2C7
330
92
100
AcDbEntity
  8
Form8
100
AcDbFaceRecord
 10
0.0
 20
0.0
 30
0.0
 70
   128
 71
   179
 72
   176
 73
   178
 74
   178
  0
VERTEX
  5
2C8
330
92
100
AcDbEntity
  8
Form8
100
AcDbFaceRecord
 10
0.0
 20
0.0
 30
0.0
 70
   128
 71
   176
 72
   175
 73
   178
 74
   178
  0
VERTEX
  5
2C9
330
92
100
AcDbEntity
  8
Form8
100
AcDbFaceRecord
 10
0.0
 20
0.0
 30
0.0
 70
   128
 71
   153
 72
   180
 73
   179
 74
   179
  0
VERTEX
  5
2CA
330
92
100
AcDbEntity
  8
Form8
100
AcDbFaceRecord
 10
0.0
 20
0.0
 30
0.0
 70
   128
 71
   153
 72
   179
 73
    46
 74
    46
  0
VERTEX
  5
2CB
330
92
100
AcDbEntity
  8
Form8
100
AcDbFaceRecord
 10
0.0
 20
0.0
 30
0.0
 70
   128
 71
    46
 72
   179
 73
   178
 74
   178
  0
VERTEX
  5
2CC
330
92
100
AcDbEntity
  8
Form8
100
AcDbFaceRecord
 10
0.0
 20
0.0
 30
0.0
 70
   128
 71
    46
 72
   178
 73
    37
 74
    37
  0
VERTEX
  5
2CD
330
92
100
AcDbEntity
  8
Form8
100
AcDbFaceRecord
 10
0.0
 20
0.0
 30
0.0
 70
   128
 71
   138
 72
    81
 73
   141
 74
   141
  0
VERTEX
  5
2CE
330
92
100
AcDbEntity
  8
Form8
100
AcDbFaceRecord
 10
0.0
 20
0.0
 30
0.0
 70
   128
 71
   141
 72
    81
 73
    84
 74
    84
  0
VERTEX
  5
2CF
330
92
100
AcDbEntity
  8
Form8
100
AcDbFaceRecord
 10
0.0
 20
0.0
 30
0.0
 70
   128
 71
    81
 72
   138
 73
    78
 74
    78
  0
VERTEX
  5
2D0
330
92
100
AcDbEntity
  8
Form8
100
AcDbFaceRecord
 10
0.0
 20
0.0
 30
0.0
 70
   128
 71
    75
 72
    78
 73
   135
 74
   135
  0
VERTEX
  5
2D1
330
92
100
AcDbEntity
  8
Form8
100
AcDbFaceRecord
 10
0.0
 20
0.0
 30
0.0
 70
   128
 71
   135
 72
    78
 73
   138
 74
   138
  0
VERTEX
  5
2D2
330
92
100
AcDbEntity
  8
Form8
100
AcDbFaceRecord
 10
0.0
 20
0.0
 30
0.0
 70
   128
 71
    75
 72
   135
 73
   132
 74
   132
  0
VERTEX
  5
2D3
330
92
100
AcDbEntity
  8
Form8
100
AcDbFaceRecord
 10
0.0
 20
0.0
 30
0.0
 70
   128
 71
   147
 72
    87
 73
    90
 74
    90
  0
VERTEX
  5
2D4
330
92
100
AcDbEntity
  8
Form8
100
AcDbFaceRecord
 10
0.0
 20
0.0
 30
0.0
 70
   128
 71
   150
 72
    90
 73
    93
 74
    93
  0
VERTEX
  5
2D5
330
92
100
AcDbEntity
  8
Form8
100
AcDbFaceRecord
 10
0.0
 20
0.0
 30
0.0
 70
   128
 71
   147
 72
    90
 73
   150
 74
   150
  0
VERTEX
  5
2D6
330
92
100
AcDbEntity
  8
Form8
100
AcDbFaceRecord
 10
0.0
 20
0.0
 30
0.0
 70
   128
 71
   141
 72
    84
 73
   144
 74
   144
  0
VERTEX
  5
2D7
330
92
100
AcDbEntity
  8
Form8
100
AcDbFaceRecord
 10
0.0
 20
0.0
 30
0.0
 70
   128
 71
   147
 72
   144
 73
    87
 74
    87
  0
VERTEX
  5
2D8
330
92
100
AcDbEntity
  8
Form8
100
AcDbFaceRecord
 10
0.0
 20
0.0
 30
0.0
 70
   128
 71
   144
 72
    84
 73
    87
 74
    87
  0
VERTEX
  5
2D9
330
92
100
AcDbEntity
  8
Form8
100
AcDbFaceRecord
 10
0.0
 20
0.0
 30
0.0
 70
   128
 71
   126
 72
    66
 73
    69
 74
    69
  0
VERTEX
  5
2DA
330
92
100
AcDbEntity
  8
Form8
100
AcDbFaceRecord
 10
0.0
 20
0.0
 30
0.0
 70
   128
 71
    31
 72
    66
 73
   123
 74
   123
  0
VERTEX
  5
2DB
330
92
100
AcDbEntity
  8
Form8
100
AcDbFaceRecord
 10
0.0
 20
0.0
 30
0.0
 70
   128
 71
    33
 72
    30
 73
    31
 74
    31
  0
VERTEX
  5
2DC
330
92
100
AcDbEntity
  8
Form8
100
AcDbFaceRecord
 10
0.0
 20
0.0
 30
0.0
 70
   128
 71
     6
 72
    30
 73
    34
 74
    34
  0
VERTEX
  5
2DD
330
92
100
AcDbEntity
  8
Form8
100
AcDbFaceRecord
 10
0.0
 20
0.0
 30
0.0
 70
   128
 71
    69
 72
    72
 73
   129
 74
   129
  0
VERTEX
  5
2DE
330
92
100
AcDbEntity
  8
Form8
100
AcDbFaceRecord
 10
0.0
 20
0.0
 30
0.0
 70
   128
 71
   129
 72
   126
 73
    69
 74
    69
  0
VERTEX
  5
2DF
330
92
100
AcDbEntity
  8
Form8
100
AcDbFaceRecord
 10
0.0
 20
0.0
 30
0.0
 70
   128
 71
   132
 72
   129
 73
    72
 74
    72
  0
VERTEX
  5
2E0
330
92
100
AcDbEntity
  8
Form8
100
AcDbFaceRecord
 10
0.0
 20
0.0
 30
0.0
 70
   128
 71
   123
 72
    32
 73
    31
 74
    31
  0
VERTEX
  5
2E1
330
92
100
AcDbEntity
  8
Form8
100
AcDbFaceRecord
 10
0.0
 20
0.0
 30
0.0
 70
   128
 71
    33
 72
    34
 73
    30
 74
    30
  0
VERTEX
  5
2E2
330
92
100
AcDbEntity
  8
Form8
100
AcDbFaceRecord
 10
0.0
 20
0.0
 30
0.0
 70
   128
 71
    32
 72
    33
 73
    31
 74
    31
  0
VERTEX
  5
2E3
330
92
100
AcDbEntity
  8
Form8
100
AcDbFaceRecord
 10
0.0
 20
0.0
 30
0.0
 70
   128
 71
   126
 72
   123
 73
    66
 74
    66
  0
VERTEX
  5
2E4
330
92
100
AcDbEntity
  8
Form8
100
AcDbFaceRecord
 10
0.0
 20
0.0
 30
0.0
 70
   128
 71
    72
 72
    75
 73
   132
 74
   132
  0
VERTEX
  5
2E5
330
92
100
AcDbEntity
  8
Form8
100
AcDbFaceRecord
 10
0.0
 20
0.0
 30
0.0
 70
   128
 71
     6
 72
    34
 73
    35
 74
    35
  0
VERTEX
  5
2E6
330
92
100
AcDbEntity
  8
Form8
100
AcDbFaceRecord
 10
0.0
 20
0.0
 30
0.0
 70
   128
 71
   150
 72
    96
 73
   154
 74
   154
  0
VERTEX
  5
2E7
330
92
100
AcDbEntity
  8
Form8
100
AcDbFaceRecord
 10
0.0
 20
0.0
 30
0.0
 70
   128
 71
   154
 72
    96
 73
    99
 74
    99
  0
VERTEX
  5
2E8
330
92
100
AcDbEntity
  8
Form8
100
AcDbFaceRecord
 10
0.0
 20
0.0
 30
0.0
 70
   128
 71
   157
 72
   154
 73
    99
 74
    99
  0
VERTEX
  5
2E9
330
92
100
AcDbEntity
  8
Form8
100
AcDbFaceRecord
 10
0.0
 20
0.0
 30
0.0
 70
   128
 71
   102
 72
   160
 73
   157
 74
   157
  0
VERTEX
  5
2EA
330
92
100
AcDbEntity
  8
Form8
100
AcDbFaceRecord
 10
0.0
 20
0.0
 30
0.0
 70
   128
 71
   157
 72
    99
 73
   102
 74
   102
  0
VERTEX
  5
2EB
330
92
100
AcDbEntity
  8
Form8
100
AcDbFaceRecord
 10
0.0
 20
0.0
 30
0.0
 70
   128
 71
   105
 72
   163
 73
   160
 74
   160
  0
VERTEX
  5
2EC
330
92
100
AcDbEntity
  8
Form8
100
AcDbFaceRecord
 10
0.0
 20
0.0
 30
0.0
 70
   128
 71
   163
 72
   105
 73
   108
 74
   108
  0
VERTEX
  5
2ED
330
92
100
AcDbEntity
  8
Form8
100
AcDbFaceRecord
 10
0.0
 20
0.0
 30
0.0
 70
   128
 71
   105
 72
   160
 73
   102
 74
   102
  0
VERTEX
  5
2EE
330
92
100
AcDbEntity
  8
Form8
100
AcDbFaceRecord
 10
0.0
 20
0.0
 30
0.0
 70
   128
 71
   166
 72
   108
 73
   111
 74
   111
  0
VERTEX
  5
2EF
330
92
100
AcDbEntity
  8
Form8
100
AcDbFaceRecord
 10
0.0
 20
0.0
 30
0.0
 70
   128
 71
   108
 72
   166
 73
   163
 74
   163
  0
VERTEX
  5
2F0
330
92
100
AcDbEntity
  8
Form8
100
AcDbFaceRecord
 10
0.0
 20
0.0
 30
0.0
 70
   128
 71
   166
 72
   111
 73
   169
 74
   169
  0
VERTEX
  5
2F1
330
92
100
AcDbEntity
  8
Form8
100
AcDbFaceRecord
 10
0.0
 20
0.0
 30
0.0
 70
   128
 71
   172
 72
   169
 73
   114
 74
   114
  0
VERTEX
  5
2F2
330
92
100
AcDbEntity
  8
Form8
100
AcDbFaceRecord
 10
0.0
 20
0.0
 30
0.0
 70
   128
 71
   175
 72
   172
 73
   117
 74
   117
  0
VERTEX
  5
2F3
330
92
100
AcDbEntity
  8
Form8
100
AcDbFaceRecord
 10
0.0
 20
0.0
 30
0.0
 70
   128
 71
    35
 72
    36
 73
    39
 74
    39
  0
VERTEX
  5
2F4
330
92
100
AcDbEntity
  8
Form8
100
AcDbFaceRecord
 10
0.0
 20
0.0
 30
0.0
 70
   128
 71
   175
 72
   120
 73
   178
 74
   178
  0
VERTEX
  5
2F5
330
92
100
AcDbEntity
  8
Form8
100
AcDbFaceRecord
 10
0.0
 20
0.0
 30
0.0
 70
   128
 71
   117
 72
   120
 73
   175
 74
   175
  0
VERTEX
  5
2F6
330
92
100
AcDbEntity
  8
Form8
100
AcDbFaceRecord
 10
0.0
 20
0.0
 30
0.0
 70
   128
 71
   120
 72
    38
 73
   178
 74
   178
  0
VERTEX
  5
2F7
330
92
100
AcDbEntity
  8
Form8
100
AcDbFaceRecord
 10
0.0
 20
0.0
 30
0.0
 70
   128
 71
    38
 72
    39
 73
    36
 74
    36
  0
VERTEX
  5
2F8
330
92
100
AcDbEntity
  8
Form8
100
AcDbFaceRecord
 10
0.0
 20
0.0
 30
0.0
 70
   128
 71
    37
 72
   178
 73
    38
 74
    38
  0
VERTEX
  5
2F9
330
92
100
AcDbEntity
  8
Form8
100
AcDbFaceRecord
 10
0.0
 20
0.0
 30
0.0
 70
   128
 71
    16
 72
    35
 73
    39
 74
    39
  0
VERTEX
  5
2FA
330
92
100
AcDbEntity
  8
Form8
100
AcDbFaceRecord
 10
0.0
 20
0.0
 30
0.0
 70
   128
 71
    36
 72
    37
 73
    38
 74
    38
  0
VERTEX
  5
2FB
330
92
100
AcDbEntity
  8
Form8
100
AcDbFaceRecord
 10
0.0
 20
0.0
 30
0.0
 70
   128
 71
   117
 72
   172
 73
   114
 74
   114
  0
VERTEX
  5
2FC
330
92
100
AcDbEntity
  8
Form8
100
AcDbFaceRecord
 10
0.0
 20
0.0
 30
0.0
 70
   128
 71
   169
 72
   111
 73
   114
 74
   114
  0
VERTEX
  5
2FD
330
92
100
AcDbEntity
  8
Form8
100
AcDbFaceRecord
 10
0.0
 20
0.0
 30
0.0
 70
   128
 71
    35
 72
    16
 73
     6
 74
     6
  0
VERTEX
  5
2FE
330
92
100
AcDbEntity
  8
Form8
100
AcDbFaceRecord
 10
0.0
 20
0.0
 30
0.0
 70
   128
 71
   150
 72
    93
 73
    96
 74
    96
  0
VERTEX
  5
2FF
330
92
100
AcDbEntity
  8
Form8
100
AcDbFaceRecord
 10
0.0
 20
0.0
 30
0.0
 70
   128
 71
   153
 72
    47
 73
   181
 74
   181
  0
VERTEX
  5
300
330
92
100
AcDbEntity
  8
Form8
100
AcDbFaceRecord
 10
0.0
 20
0.0
 30
0.0
 70
   128
 71
   153
 72
   181
 73
   180
 74
   180
  0
VERTEX
  5
301
330
92
100
AcDbEntity
  8
Form8
100
AcDbFaceRecord
 10
0.0
 20
0.0
 30
0.0
 70
   128
 71
   180
 72
   181
 73
   182
 74
   182
  0
VERTEX
  5
302
330
92
100
AcDbEntity
  8
Form8
100
AcDbFaceRecord
 10
0.0
 20
0.0
 30
0.0
 70
   128
 71
   180
 72
   182
 73
   177
 74
   177
  0
VERTEX
  5
303
330
92
100
AcDbEntity
  8
Form8
100
AcDbFaceRecord
 10
0.0
 20
0.0
 30
0.0
 70
   128
 71
   177
 72
   182
 73
   183
 74
   183
  0
VERTEX
  5
304
330
92
100
AcDbEntity
  8
Form8
100
AcDbFaceRecord
 10
0.0
 20
0.0
 30
0.0
 70
   128
 71
   177
 72
   183
 73
   174
 74
   174
  0
VERTEX
  5
305
330
92
100
AcDbEntity
  8
Form8
100
AcDbFaceRecord
 10
0.0
 20
0.0
 30
0.0
 70
   128
 71
   174
 72
   183
 73
   184
 74
   184
  0
VERTEX
  5
306
330
92
100
AcDbEntity
  8
Form8
100
AcDbFaceRecord
 10
0.0
 20
0.0
 30
0.0
 70
   128
 71
   174
 72
   184
 73
   171
 74
   171
  0
VERTEX
  5
307
330
92
100
AcDbEntity
  8
Form8
100
AcDbFaceRecord
 10
0.0
 20
0.0
 30
0.0
 70
   128
 71
   171
 72
   184
 73
   185
 74
   185
  0
VERTEX
  5
308
330
92
100
AcDbEntity
  8
Form8
100
AcDbFaceRecord
 10
0.0
 20
0.0
 30
0.0
 70
   128
 71
   171
 72
   185
 73
   168
 74
   168
  0
VERTEX
  5
309
330
92
100
AcDbEntity
  8
Form8
100
AcDbFaceRecord
 10
0.0
 20
0.0
 30
0.0
 70
   128
 71
   168
 72
   185
 73
   186
 74
   186
  0
VERTEX
  5
30A
330
92
100
AcDbEntity
  8
Form8
100
AcDbFaceRecord
 10
0.0
 20
0.0
 30
0.0
 70
   128
 71
   168
 72
   186
 73
   165
 74
   165
  0
VERTEX
  5
30B
330
92
100
AcDbEntity
  8
Form8
100
AcDbFaceRecord
 10
0.0
 20
0.0
 30
0.0
 70
   128
 71
   165
 72
   186
 73
   187
 74
   187
  0
VERTEX
  5
30C
330
92
100
AcDbEntity
  8
Form8
100
AcDbFaceRecord
 10
0.0
 20
0.0
 30
0.0
 70
   128
 71
   165
 72
   187
 73
   162
 74
   162
  0
VERTEX
  5
30D
330
92
100
AcDbEntity
  8
Form8
100
AcDbFaceRecord
 10
0.0
 20
0.0
 30
0.0
 70
   128
 71
   162
 72
   187
 73
   188
 74
   188
  0
VERTEX
  5
30E
330
92
100
AcDbEntity
  8
Form8
100
AcDbFaceRecord
 10
0.0
 20
0.0
 30
0.0
 70
   128
 71
   162
 72
   188
 73
   159
 74
   159
  0
VERTEX
  5
30F
330
92
100
AcDbEntity
  8
Form8
100
AcDbFaceRecord
 10
0.0
 20
0.0
 30
0.0
 70
   128
 71
   159
 72
   188
 73
   189
 74
   189
  0
VERTEX
  5
310
330
92
100
AcDbEntity
  8
Form8
100
AcDbFaceRecord
 10
0.0
 20
0.0
 30
0.0
 70
   128
 71
   159
 72
   189
 73
   156
 74
   156
  0
VERTEX
  5
311
330
92
100
AcDbEntity
  8
Form8
100
AcDbFaceRecord
 10
0.0
 20
0.0
 30
0.0
 70
   128
 71
   156
 72
   189
 73
   190
 74
   190
  0
VERTEX
  5
312
330
92
100
AcDbEntity
  8
Form8
100
AcDbFaceRecord
 10
0.0
 20
0.0
 30
0.0
 70
   128
 71
   156
 72
   190
 73
   152
 74
   152
  0
VERTEX
  5
313
330
92
100
AcDbEntity
  8
Form8
100
AcDbFaceRecord
 10
0.0
 20
0.0
 30
0.0
 70
   128
 71
   152
 72
   190
 73
   149
 74
   149
  0
VERTEX
  5
314
330
92
100
AcDbEntity
  8
Form8
100
AcDbFaceRecord
 10
0.0
 20
0.0
 30
0.0
 70
   128
 71
   190
 72
   191
 73
   149
 74
   149
  0
VERTEX
  5
315
330
92
100
AcDbEntity
  8
Form8
100
AcDbFaceRecord
 10
0.0
 20
0.0
 30
0.0
 70
   128
 71
   149
 72
   191
 73
   146
 74
   146
  0
VERTEX
  5
316
330
92
100
AcDbEntity
  8
Form8
100
AcDbFaceRecord
 10
0.0
 20
0.0
 30
0.0
 70
   128
 71
   191
 72
   192
 73
   146
 74
   146
  0
VERTEX
  5
317
330
92
100
AcDbEntity
  8
Form8
100
AcDbFaceRecord
 10
0.0
 20
0.0
 30
0.0
 70
   128
 71
   146
 72
   192
 73
   143
 74
   143
  0
VERTEX
  5
318
330
92
100
AcDbEntity
  8
Form8
100
AcDbFaceRecord
 10
0.0
 20
0.0
 30
0.0
 70
   128
 71
   192
 72
   193
 73
   143
 74
   143
  0
VERTEX
  5
319
330
92
100
AcDbEntity
  8
Form8
100
AcDbFaceRecord
 10
0.0
 20
0.0
 30
0.0
 70
   128
 71
   143
 72
   193
 73
   140
 74
   140
  0
VERTEX
  5
31A
330
92
100
AcDbEntity
  8
Form8
100
AcDbFaceRecord
 10
0.0
 20
0.0
 30
0.0
 70
   128
 71
   193
 72
   194
 73
   140
 74
   140
  0
VERTEX
  5
31B
330
92
100
AcDbEntity
  8
Form8
100
AcDbFaceRecord
 10
0.0
 20
0.0
 30
0.0
 70
   128
 71
   140
 72
   194
 73
   137
 74
   137
  0
VERTEX
  5
31C
330
92
100
AcDbEntity
  8
Form8
100
AcDbFaceRecord
 10
0.0
 20
0.0
 30
0.0
 70
   128
 71
   194
 72
   195
 73
   137
 74
   137
  0
VERTEX
  5
31D
330
92
100
AcDbEntity
  8
Form8
100
AcDbFaceRecord
 10
0.0
 20
0.0
 30
0.0
 70
   128
 71
   137
 72
   195
 73
   134
 74
   134
  0
VERTEX
  5
31E
330
92
100
AcDbEntity
  8
Form8
100
AcDbFaceRecord
 10
0.0
 20
0.0
 30
0.0
 70
   128
 71
   195
 72
   196
 73
   134
 74
   134
  0
VERTEX
  5
31F
330
92
100
AcDbEntity
  8
Form8
100
AcDbFaceRecord
 10
0.0
 20
0.0
 30
0.0
 70
   128
 71
   134
 72
   196
 73
   131
 74
   131
  0
VERTEX
  5
320
330
92
100
AcDbEntity
  8
Form8
100
AcDbFaceRecord
 10
0.0
 20
0.0
 30
0.0
 70
   128
 71
   196
 72
   197
 73
   131
 74
   131
  0
VERTEX
  5
321
330
92
100
AcDbEntity
  8
Form8
100
AcDbFaceRecord
 10
0.0
 20
0.0
 30
0.0
 70
   128
 71
   131
 72
   197
 73
   128
 74
   128
  0
VERTEX
  5
322
330
92
100
AcDbEntity
  8
Form8
100
AcDbFaceRecord
 10
0.0
 20
0.0
 30
0.0
 70
   128
 71
   197
 72
   198
 73
   128
 74
   128
  0
VERTEX
  5
323
330
92
100
AcDbEntity
  8
Form8
100
AcDbFaceRecord
 10
0.0
 20
0.0
 30
0.0
 70
   128
 71
   128
 72
   198
 73
   125
 74
   125
  0
VERTEX
  5
324
330
92
100
AcDbEntity
  8
Form8
100
AcDbFaceRecord
 10
0.0
 20
0.0
 30
0.0
 70
   128
 71
   198
 72
   199
 73
   125
 74
   125
  0
VERTEX
  5
325
330
92
100
AcDbEntity
  8
Form8
100
AcDbFaceRecord
 10
0.0
 20
0.0
 30
0.0
 70
   128
 71
   125
 72
   199
 73
    53
 74
    53
  0
VERTEX
  5
326
330
92
100
AcDbEntity
  8
Form8
100
AcDbFaceRecord
 10
0.0
 20
0.0
 30
0.0
 70
   128
 71
   199
 72
    54
 73
    53
 74
    53
  0
VERTEX
  5
327
330
92
100
AcDbEntity
  8
Form8
100
AcDbFaceRecord
 10
0.0
 20
0.0
 30
0.0
 70
   128
 71
     2
 72
     1
 73
    58
 74
    58
  0
VERTEX
  5
328
330
92
100
AcDbEntity
  8
Form8
100
AcDbFaceRecord
 10
0.0
 20
0.0
 30
0.0
 70
   128
 71
    58
 72
     1
 73
    61
 74
    61
  0
VERTEX
  5
329
330
92
100
AcDbEntity
  8
Form8
100
AcDbFaceRecord
 10
0.0
 20
0.0
 30
0.0
 70
   128
 71
     1
 72
     3
 73
    61
 74
    61
  0
VERTEX
  5
32A
330
92
100
AcDbEntity
  8
Form8
100
AcDbFaceRecord
 10
0.0
 20
0.0
 30
0.0
 70
   128
 71
    61
 72
     3
 73
     5
 74
     5
  0
VERTEX
  5
32B
330
92
100
AcDbEntity
  8
Form8
100
AcDbFaceRecord
 10
0.0
 20
0.0
 30
0.0
 70
   128
 71
    61
 72
     5
 73
    68
 74
    68
  0
VERTEX
  5
32C
330
92
100
AcDbEntity
  8
Form8
100
AcDbFaceRecord
 10
0.0
 20
0.0
 30
0.0
 70
   128
 71
    68
 72
     5
 73
    71
 74
    71
  0
VERTEX
  5
32D
330
92
100
AcDbEntity
  8
Form8
100
AcDbFaceRecord
 10
0.0
 20
0.0
 30
0.0
 70
   128
 71
     5
 72
     7
 73
    71
 74
    71
  0
VERTEX
  5
32E
330
92
100
AcDbEntity
  8
Form8
100
AcDbFaceRecord
 10
0.0
 20
0.0
 30
0.0
 70
   128
 71
    71
 72
     7
 73
     8
 74
     8
  0
VERTEX
  5
32F
330
92
100
AcDbEntity
  8
Form8
100
AcDbFaceRecord
 10
0.0
 20
0.0
 30
0.0
 70
   128
 71
    71
 72
     8
 73
    74
 74
    74
  0
VERTEX
  5
330
330
92
100
AcDbEntity
  8
Form8
100
AcDbFaceRecord
 10
0.0
 20
0.0
 30
0.0
 70
   128
 71
    74
 72
     8
 73
    77
 74
    77
  0
VERTEX
  5
331
330
92
100
AcDbEntity
  8
Form8
100
AcDbFaceRecord
 10
0.0
 20
0.0
 30
0.0
 70
   128
 71
     8
 72
     9
 73
    77
 74
    77
  0
VERTEX
  5
332
330
92
100
AcDbEntity
  8
Form8
100
AcDbFaceRecord
 10
0.0
 20
0.0
 30
0.0
 70
   128
 71
    77
 72
     9
 73
    10
 74
    10
  0
VERTEX
  5
333
330
92
100
AcDbEntity
  8
Form8
100
AcDbFaceRecord
 10
0.0
 20
0.0
 30
0.0
 70
   128
 71
    77
 72
    10
 73
    80
 74
    80
  0
VERTEX
  5
334
330
92
100
AcDbEntity
  8
Form8
100
AcDbFaceRecord
 10
0.0
 20
0.0
 30
0.0
 70
   128
 71
    80
 72
    10
 73
    83
 74
    83
  0
VERTEX
  5
335
330
92
100
AcDbEntity
  8
Form8
100
AcDbFaceRecord
 10
0.0
 20
0.0
 30
0.0
 70
   128
 71
    10
 72
    11
 73
    83
 74
    83
  0
VERTEX
  5
336
330
92
100
AcDbEntity
  8
Form8
100
AcDbFaceRecord
 10
0.0
 20
0.0
 30
0.0
 70
   128
 71
    83
 72
    11
 73
    12
 74
    12
  0
VERTEX
  5
337
330
92
100
AcDbEntity
  8
Form8
100
AcDbFaceRecord
 10
0.0
 20
0.0
 30
0.0
 70
   128
 71
    83
 72
    12
 73
    86
 74
    86
  0
VERTEX
  5
338
330
92
100
AcDbEntity
  8
Form8
100
AcDbFaceRecord
 10
0.0
 20
0.0
 30
0.0
 70
   128
 71
    86
 72
    12
 73
    89
 74
    89
  0
VERTEX
  5
339
330
92
100
AcDbEntity
  8
Form8
100
AcDbFaceRecord
 10
0.0
 20
0.0
 30
0.0
 70
   128
 71
    12
 72
    13
 73
    89
 74
    89
  0
VERTEX
  5
33A
330
92
100
AcDbEntity
  8
Form8
100
AcDbFaceRecord
 10
0.0
 20
0.0
 30
0.0
 70
   128
 71
    89
 72
    13
 73
    14
 74
    14
  0
VERTEX
  5
33B
330
92
100
AcDbEntity
  8
Form8
100
AcDbFaceRecord
 10
0.0
 20
0.0
 30
0.0
 70
   128
 71
    89
 72
    14
 73
    92
 74
    92
  0
VERTEX
  5
33C
330
92
100
AcDbEntity
  8
Form8
100
AcDbFaceRecord
 10
0.0
 20
0.0
 30
0.0
 70
   128
 71
    92
 72
    14
 73
    15
 74
    15
  0
VERTEX
  5
33D
330
92
100
AcDbEntity
  8
Form8
100
AcDbFaceRecord
 10
0.0
 20
0.0
 30
0.0
 70
   128
 71
    92
 72
    15
 73
    95
 74
    95
  0
VERTEX
  5
33E
330
92
100
AcDbEntity
  8
Form8
100
AcDbFaceRecord
 10
0.0
 20
0.0
 30
0.0
 70
   128
 71
    95
 72
    15
 73
    98
 74
    98
  0
VERTEX
  5
33F
330
92
100
AcDbEntity
  8
Form8
100
AcDbFaceRecord
 10
0.0
 20
0.0
 30
0.0
 70
   128
 71
    15
 72
    17
 73
    98
 74
    98
  0
VERTEX
  5
340
330
92
100
AcDbEntity
  8
Form8
100
AcDbFaceRecord
 10
0.0
 20
0.0
 30
0.0
 70
   128
 71
    98
 72
    17
 73
    18
 74
    18
  0
VERTEX
  5
341
330
92
100
AcDbEntity
  8
Form8
100
AcDbFaceRecord
 10
0.0
 20
0.0
 30
0.0
 70
   128
 71
    98
 72
    18
 73
   101
 74
   101
  0
VERTEX
  5
342
330
92
100
AcDbEntity
  8
Form8
100
AcDbFaceRecord
 10
0.0
 20
0.0
 30
0.0
 70
   128
 71
   101
 72
    18
 73
   104
 74
   104
  0
VERTEX
  5
343
330
92
100
AcDbEntity
  8
Form8
100
AcDbFaceRecord
 10
0.0
 20
0.0
 30
0.0
 70
   128
 71
    18
 72
    19
 73
   104
 74
   104
  0
VERTEX
  5
344
330
92
100
AcDbEntity
  8
Form8
100
AcDbFaceRecord
 10
0.0
 20
0.0
 30
0.0
 70
   128
 71
   104
 72
    19
 73
   107
 74
   107
  0
VERTEX
  5
345
330
92
100
AcDbEntity
  8
Form8
100
AcDbFaceRecord
 10
0.0
 20
0.0
 30
0.0
 70
   128
 71
    19
 72
    20
 73
   107
 74
   107
  0
VERTEX
  5
346
330
92
100
AcDbEntity
  8
Form8
100
AcDbFaceRecord
 10
0.0
 20
0.0
 30
0.0
 70
   128
 71
   107
 72
    20
 73
    21
 74
    21
  0
VERTEX
  5
347
330
92
100
AcDbEntity
  8
Form8
100
AcDbFaceRecord
 10
0.0
 20
0.0
 30
0.0
 70
   128
 71
   107
 72
    21
 73
   110
 74
   110
  0
VERTEX
  5
348
330
92
100
AcDbEntity
  8
Form8
100
AcDbFaceRecord
 10
0.0
 20
0.0
 30
0.0
 70
   128
 71
   110
 72
    21
 73
    22
 74
    22
  0
VERTEX
  5
349
330
92
100
AcDbEntity
  8
Form8
100
AcDbFaceRecord
 10
0.0
 20
0.0
 30
0.0
 70
   128
 71
   110
 72
    22
 73
   113
 74
   113
  0
VERTEX
  5
34A
330
92
100
AcDbEntity
  8
Form8
100
AcDbFaceRecord
 10
0.0
 20
0.0
 30
0.0
 70
   128
 71
   113
 72
    22
 73
    23
 74
    23
  0
VERTEX
  5
34B
330
92
100
AcDbEntity
  8
Form8
100
AcDbFaceRecord
 10
0.0
 20
0.0
 30
0.0
 70
   128
 71
   113
 72
    23
 73
   116
 74
   116
  0
VERTEX
  5
34C
330
92
100
AcDbEntity
  8
Form8
100
AcDbFaceRecord
 10
0.0
 20
0.0
 30
0.0
 70
   128
 71
   116
 72
    23
 73
    24
 74
    24
  0
VERTEX
  5
34D
330
92
100
AcDbEntity
  8
Form8
100
AcDbFaceRecord
 10
0.0
 20
0.0
 30
0.0
 70
   128
 71
   116
 72
    24
 73
   119
 74
   119
  0
VERTEX
  5
34E
330
92
100
AcDbEntity
  8
Form8
100
AcDbFaceRecord
 10
0.0
 20
0.0
 30
0.0
 70
   128
 71
   119
 72
    24
 73
    25
 74
    25
  0
VERTEX
  5
34F
330
92
100
AcDbEntity
  8
Form8
100
AcDbFaceRecord
 10
0.0
 20
0.0
 30
0.0
 70
   128
 71
   119
 72
    25
 73
   122
 74
   122
  0
VERTEX
  5
350
330
92
100
AcDbEntity
  8
Form8
100
AcDbFaceRecord
 10
0.0
 20
0.0
 30
0.0
 70
   128
 71
   122
 72
    25
 73
    63
 74
    63
  0
VERTEX
  5
351
330
92
100
AcDbEntity
  8
Form8
100
AcDbFaceRecord
 10
0.0
 20
0.0
 30
0.0
 70
   128
 71
    25
 72
    27
 73
    63
 74
    63
  0
VERTEX
  5
352
330
92
100
AcDbEntity
  8
Form8
100
AcDbFaceRecord
 10
0.0
 20
0.0
 30
0.0
 70
   128
 71
    63
 72
    27
 73
    29
 74
    29
  0
VERTEX
  5
353
330
92
100
AcDbEntity
  8
Form8
100
AcDbFaceRecord
 10
0.0
 20
0.0
 30
0.0
 70
   128
 71
    63
 72
    29
 73
    64
 74
    64
  0
VERTEX
  5
354
330
92
100
AcDbEntity
  8
Form8
100
AcDbFaceRecord
 10
0.0
 20
0.0
 30
0.0
 70
   128
 71
    64
 72
    29
 73
    28
 74
    28
  0
VERTEX
  5
355
330
92
100
AcDbEntity
  8
Form8
100
AcDbFaceRecord
 10
0.0
 20
0.0
 30
0.0
 70
   128
 71
    44
 72
    42
 73
    41
 74
    41
  0
VERTEX
  5
356
330
92
100
AcDbEntity
  8
Form8
100
AcDbFaceRecord
 10
0.0
 20
0.0
 30
0.0
 70
   128
 71
    44
 72
    41
 73
    45
 74
    45
  0
VERTEX
  5
357
330
92
100
AcDbEntity
  8
Form8
100
AcDbFaceRecord
 10
0.0
 20
0.0
 30
0.0
 70
   128
 71
    42
 72
    44
 73
    40
 74
    40
  0
VERTEX
  5
358
330
92
100
AcDbEntity
  8
Form8
100
AcDbFaceRecord
 10
0.0
 20
0.0
 30
0.0
 70
   128
 71
    44
 72
    43
 73
    40
 74
    40
  0
VERTEX
  5
359
330
92
100
AcDbEntity
  8
Form8
100
AcDbFaceRecord
 10
0.0
 20
0.0
 30
0.0
 70
   128
 71
    35
 72
    34
 73
    40
 74
    40
  0
VERTEX
  5
35A
330
92
100
AcDbEntity
  8
Form8
100
AcDbFaceRecord
 10
0.0
 20
0.0
 30
0.0
 70
   128
 71
    35
 72
    40
 73
    43
 74
    43
  0
VERTEX
  5
35B
330
92
100
AcDbEntity
  8
Form8
100
AcDbFaceRecord
 10
0.0
 20
0.0
 30
0.0
 70
   128
 71
     3
 72
    27
 73
     5
 74
     5
  0
VERTEX
  5
35C
330
92
100
AcDbEntity
  8
Form8
100
AcDbFaceRecord
 10
0.0
 20
0.0
 30
0.0
 70
   128
 71
     6
 72
     1
 73
     2
 74
     2
  0
VERTEX
  5
35D
330
92
100
AcDbEntity
  8
Form8
100
AcDbFaceRecord
 10
0.0
 20
0.0
 30
0.0
 70
   128
 71
     7
 72
     5
 73
    25
 74
    25
  0
VERTEX
  5
35E
330
92
100
AcDbEntity
  8
Form8
100
AcDbFaceRecord
 10
0.0
 20
0.0
 30
0.0
 70
   128
 71
    24
 72
     8
 73
     7
 74
     7
  0
VERTEX
  5
35F
330
92
100
AcDbEntity
  8
Form8
100
AcDbFaceRecord
 10
0.0
 20
0.0
 30
0.0
 70
   128
 71
     1
 72
    27
 73
     3
 74
     3
  0
VERTEX
  5
360
330
92
100
AcDbEntity
  8
Form8
100
AcDbFaceRecord
 10
0.0
 20
0.0
 30
0.0
 70
   128
 71
     6
 72
     2
 73
     4
 74
     4
  0
VERTEX
  5
361
330
92
100
AcDbEntity
  8
Form8
100
AcDbFaceRecord
 10
0.0
 20
0.0
 30
0.0
 70
   128
 71
    11
 72
    10
 73
    20
 74
    20
  0
VERTEX
  5
362
330
92
100
AcDbEntity
  8
Form8
100
AcDbFaceRecord
 10
0.0
 20
0.0
 30
0.0
 70
   128
 71
     9
 72
    22
 73
    10
 74
    10
  0
VERTEX
  5
363
330
92
100
AcDbEntity
  8
Form8
100
AcDbFaceRecord
 10
0.0
 20
0.0
 30
0.0
 70
   128
 71
    18
 72
    13
 73
    12
 74
    12
  0
VERTEX
  5
364
330
92
100
AcDbEntity
  8
Form8
100
AcDbFaceRecord
 10
0.0
 20
0.0
 30
0.0
 70
   128
 71
    17
 72
    14
 73
    13
 74
    13
  0
VERTEX
  5
365
330
92
100
AcDbEntity
  8
Form8
100
AcDbFaceRecord
 10
0.0
 20
0.0
 30
0.0
 70
   128
 71
    20
 72
    12
 73
    11
 74
    11
  0
VERTEX
  5
366
330
92
100
AcDbEntity
  8
Form8
100
AcDbFaceRecord
 10
0.0
 20
0.0
 30
0.0
 70
   128
 71
    22
 72
     9
 73
     8
 74
     8
  0
VERTEX
  5
367
330
92
100
AcDbEntity
  8
Form8
100
AcDbFaceRecord
 10
0.0
 20
0.0
 30
0.0
 70
   128
 71
     1
 72
     6
 73
    29
 74
    29
  0
VERTEX
  5
368
330
92
100
AcDbEntity
  8
Form8
100
AcDbFaceRecord
 10
0.0
 20
0.0
 30
0.0
 70
   128
 71
    24
 72
     7
 73
    25
 74
    25
  0
VERTEX
  5
369
330
92
100
AcDbEntity
  8
Form8
100
AcDbFaceRecord
 10
0.0
 20
0.0
 30
0.0
 70
   128
 71
     8
 72
    24
 73
    23
 74
    23
  0
VERTEX
  5
36A
330
92
100
AcDbEntity
  8
Form8
100
AcDbFaceRecord
 10
0.0
 20
0.0
 30
0.0
 70
   128
 71
    27
 72
    25
 73
     5
 74
     5
  0
VERTEX
  5
36B
330
92
100
AcDbEntity
  8
Form8
100
AcDbFaceRecord
 10
0.0
 20
0.0
 30
0.0
 70
   128
 71
    28
 72
    29
 73
    16
 74
    16
  0
VERTEX
  5
36C
330
92
100
AcDbEntity
  8
Form8
100
AcDbFaceRecord
 10
0.0
 20
0.0
 30
0.0
 70
   128
 71
     1
 72
    29
 73
    27
 74
    27
  0
VERTEX
  5
36D
330
92
100
AcDbEntity
  8
Form8
100
AcDbFaceRecord
 10
0.0
 20
0.0
 30
0.0
 70
   128
 71
    16
 72
    26
 73
    28
 74
    28
  0
VERTEX
  5
36E
330
92
100
AcDbEntity
  8
Form8
100
AcDbFaceRecord
 10
0.0
 20
0.0
 30
0.0
 70
   128
 71
    17
 72
    13
 73
    18
 74
    18
  0
VERTEX
  5
36F
330
92
100
AcDbEntity
  8
Form8
100
AcDbFaceRecord
 10
0.0
 20
0.0
 30
0.0
 70
   128
 71
    15
 72
    14
 73
    17
 74
    17
  0
VERTEX
  5
370
330
92
100
AcDbEntity
  8
Form8
100
AcDbFaceRecord
 10
0.0
 20
0.0
 30
0.0
 70
   128
 71
    12
 72
    19
 73
    18
 74
    18
  0
VERTEX
  5
371
330
92
100
AcDbEntity
  8
Form8
100
AcDbFaceRecord
 10
0.0
 20
0.0
 30
0.0
 70
   128
 71
    10
 72
    21
 73
    20
 74
    20
  0
VERTEX
  5
372
330
92
100
AcDbEntity
  8
Form8
100
AcDbFaceRecord
 10
0.0
 20
0.0
 30
0.0
 70
   128
 71
    12
 72
    20
 73
    19
 74
    19
  0
VERTEX
  5
373
330
92
100
AcDbEntity
  8
Form8
100
AcDbFaceRecord
 10
0.0
 20
0.0
 30
0.0
 70
   128
 71
    10
 72
    22
 73
    21
 74
    21
  0
VERTEX
  5
374
330
92
100
AcDbEntity
  8
Form8
100
AcDbFaceRecord
 10
0.0
 20
0.0
 30
0.0
 70
   128
 71
    23
 72
    22
 73
     8
 74
     8
  0
VERTEX
  5
375
330
92
100
AcDbEntity
  8
Form8
100
AcDbFaceRecord
 10
0.0
 20
0.0
 30
0.0
 70
   128
 71
    29
 72
     6
 73
    16
 74
    16
  0
VERTEX
  5
376
330
92
100
AcDbEntity
  8
Form8
100
AcDbFaceRecord
 10
0.0
 20
0.0
 30
0.0
 70
   128
 71
   200
 72
   201
 73
   222
 74
   222
  0
VERTEX
  5
377
330
92
100
AcDbEntity
  8
Form8
100
AcDbFaceRecord
 10
0.0
 20
0.0
 30
0.0
 70
   128
 71
   200
 72
   222
 73
   221
 74
   221
  0
VERTEX
  5
378
330
92
100
AcDbEntity
  8
Form8
100
AcDbFaceRecord
 10
0.0
 20
0.0
 30
0.0
 70
   128
 71
   201
 72
   202
 73
   223
 74
   223
  0
VERTEX
  5
379
330
92
100
AcDbEntity
  8
Form8
100
AcDbFaceRecord
 10
0.0
 20
0.0
 30
0.0
 70
   128
 71
   201
 72
   223
 73
   222
 74
   222
  0
VERTEX
  5
37A
330
92
100
AcDbEntity
  8
Form8
100
AcDbFaceRecord
 10
0.0
 20
0.0
 30
0.0
 70
   128
 71
   202
 72
   203
 73
   224
 74
   224
  0
VERTEX
  5
37B
330
92
100
AcDbEntity
  8
Form8
100
AcDbFaceRecord
 10
0.0
 20
0.0
 30
0.0
 70
   128
 71
   202
 72
   224
 73
   223
 74
   223
  0
VERTEX
  5
37C
330
92
100
AcDbEntity
  8
Form8
100
AcDbFaceRecord
 10
0.0
 20
0.0
 30
0.0
 70
   128
 71
   203
 72
   204
 73
   225
 74
   225
  0
VERTEX
  5
37D
330
92
100
AcDbEntity
  8
Form8
100
AcDbFaceRecord
 10
0.0
 20
0.0
 30
0.0
 70
   128
 71
   203
 72
   225
 73
   224
 74
   224
  0
VERTEX
  5
37E
330
92
100
AcDbEntity
  8
Form8
100
AcDbFaceRecord
 10
0.0
 20
0.0
 30
0.0
 70
   128
 71
   204
 72
   205
 73
   226
 74
   226
  0
VERTEX
  5
37F
330
92
100
AcDbEntity
  8
Form8
100
AcDbFaceRecord
 10
0.0
 20
0.0
 30
0.0
 70
   128
 71
   204
 72
   226
 73
   225
 74
   225
  0
VERTEX
  5
380
330
92
100
AcDbEntity
  8
Form8
100
AcDbFaceRecord
 10
0.0
 20
0.0
 30
0.0
 70
   128
 71
   205
 72
   206
 73
   227
 74
   227
  0
VERTEX
  5
381
330
92
100
AcDbEntity
  8
Form8
100
AcDbFaceRecord
 10
0.0
 20
0.0
 30
0.0
 70
   128
 71
   205
 72
   227
 73
   226
 74
   226
  0
VERTEX
  5
382
330
92
100
AcDbEntity
  8
Form8
100
AcDbFaceRecord
 10
0.0
 20
0.0
 30
0.0
 70
   128
 71
   206
 72
   207
 73
   227
 74
   227
  0
VERTEX
  5
383
330
92
100
AcDbEntity
  8
Form8
100
AcDbFaceRecord
 10
0.0
 20
0.0
 30
0.0
 70
   128
 71
   207
 72
   228
 73
   227
 74
   227
  0
VERTEX
  5
384
330
92
100
AcDbEntity
  8
Form8
100
AcDbFaceRecord
 10
0.0
 20
0.0
 30
0.0
 70
   128
 71
   207
 72
   208
 73
   228
 74
   228
  0
VERTEX
  5
385
330
92
100
AcDbEntity
  8
Form8
100
AcDbFaceRecord
 10
0.0
 20
0.0
 30
0.0
 70
   128
 71
   208
 72
   229
 73
   228
 74
   228
  0
VERTEX
  5
386
330
92
100
AcDbEntity
  8
Form8
100
AcDbFaceRecord
 10
0.0
 20
0.0
 30
0.0
 70
   128
 71
   208
 72
   209
 73
   229
 74
   229
  0
VERTEX
  5
387
330
92
100
AcDbEntity
  8
Form8
100
AcDbFaceRecord
 10
0.0
 20
0.0
 30
0.0
 70
   128
 71
   209
 72
   230
 73
   229
 74
   229
  0
VERTEX
  5
388
330
92
100
AcDbEntity
  8
Form8
100
AcDbFaceRecord
 10
0.0
 20
0.0
 30
0.0
 70
   128
 71
   209
 72
   210
 73
   230
 74
   230
  0
VERTEX
  5
389
330
92
100
AcDbEntity
  8
Form8
100
AcDbFaceRecord
 10
0.0
 20
0.0
 30
0.0
 70
   128
 71
   210
 72
   231
 73
   230
 74
   230
  0
VERTEX
  5
38A
330
92
100
AcDbEntity
  8
Form8
100
AcDbFaceRecord
 10
0.0
 20
0.0
 30
0.0
 70
   128
 71
   210
 72
   211
 73
   232
 74
   232
  0
VERTEX
  5
38B
330
92
100
AcDbEntity
  8
Form8
100
AcDbFaceRecord
 10
0.0
 20
0.0
 30
0.0
 70
   128
 71
   210
 72
   232
 73
   231
 74
   231
  0
VERTEX
  5
38C
330
92
100
AcDbEntity
  8
Form8
100
AcDbFaceRecord
 10
0.0
 20
0.0
 30
0.0
 70
   128
 71
   211
 72
   212
 73
   233
 74
   233
  0
VERTEX
  5
38D
330
92
100
AcDbEntity
  8
Form8
100
AcDbFaceRecord
 10
0.0
 20
0.0
 30
0.0
 70
   128
 71
   211
 72
   233
 73
   232
 74
   232
  0
VERTEX
  5
38E
330
92
100
AcDbEntity
  8
Form8
100
AcDbFaceRecord
 10
0.0
 20
0.0
 30
0.0
 70
   128
 71
   212
 72
   213
 73
   234
 74
   234
  0
VERTEX
  5
38F
330
92
100
AcDbEntity
  8
Form8
100
AcDbFaceRecord
 10
0.0
 20
0.0
 30
0.0
 70
   128
 71
   212
 72
   234
 73
   233
 74
   233
  0
VERTEX
  5
390
330
92
100
AcDbEntity
  8
Form8
100
AcDbFaceRecord
 10
0.0
 20
0.0
 30
0.0
 70
   128
 71
   213
 72
   214
 73
   235
 74
   235
  0
VERTEX
  5
391
330
92
100
AcDbEntity
  8
Form8
100
AcDbFaceRecord
 10
0.0
 20
0.0
 30
0.0
 70
   128
 71
   213
 72
   235
 73
   234
 74
   234
  0
VERTEX
  5
392
330
92
100
AcDbEntity
  8
Form8
100
AcDbFaceRecord
 10
0.0
 20
0.0
 30
0.0
 70
   128
 71
   214
 72
   215
 73
   235
 74
   235
  0
VERTEX
  5
393
330
92
100
AcDbEntity
  8
Form8
100
AcDbFaceRecord
 10
0.0
 20
0.0
 30
0.0
 70
   128
 71
   215
 72
   236
 73
   235
 74
   235
  0
VERTEX
  5
394
330
92
100
AcDbEntity
  8
Form8
100
AcDbFaceRecord
 10
0.0
 20
0.0
 30
0.0
 70
   128
 71
   215
 72
   216
 73
   236
 74
   236
  0
VERTEX
  5
395
330
92
100
AcDbEntity
  8
Form8
100
AcDbFaceRecord
 10
0.0
 20
0.0
 30
0.0
 70
   128
 71
   216
 72
   237
 73
   236
 74
   236
  0
VERTEX
  5
396
330
92
100
AcDbEntity
  8
Form8
100
AcDbFaceRecord
 10
0.0
 20
0.0
 30
0.0
 70
   128
 71
   216
 72
   217
 73
   237
 74
   237
  0
VERTEX
  5
397
330
92
100
AcDbEntity
  8
Form8
100
AcDbFaceRecord
 10
0.0
 20
0.0
 30
0.0
 70
   128
 71
   217
 72
   238
 73
   237
 74
   237
  0
VERTEX
  5
398
330
92
100
AcDbEntity
  8
Form8
100
AcDbFaceRecord
 10
0.0
 20
0.0
 30
0.0
 70
   128
 71
   217
 72
   218
 73
   238
 74
   238
  0
VERTEX
  5
399
330
92
100
AcDbEntity
  8
Form8
100
AcDbFaceRecord
 10
0.0
 20
0.0
 30
0.0
 70
   128
 71
   218
 72
   239
 73
   238
 74
   238
  0
VERTEX
  5
39A
330
92
100
AcDbEntity
  8
Form8
100
AcDbFaceRecord
 10
0.0
 20
0.0
 30
0.0
 70
   128
 71
   218
 72
   219
 73
   239
 74
   239
  0
VERTEX
  5
39B
330
92
100
AcDbEntity
  8
Form8
100
AcDbFaceRecord
 10
0.0
 20
0.0
 30
0.0
 70
   128
 71
   219
 72
   240
 73
   239
 74
   239
  0
VERTEX
  5
39C
330
92
100
AcDbEntity
  8
Form8
100
AcDbFaceRecord
 10
0.0
 20
0.0
 30
0.0
 70
   128
 71
   219
 72
   220
 73
   240
 74
   240
  0
VERTEX
  5
39D
330
92
100
AcDbEntity
  8
Form8
100
AcDbFaceRecord
 10
0.0
 20
0.0
 30
0.0
 70
   128
 71
   220
 72
   241
 73
   240
 74
   240
  0
VERTEX
  5
39E
330
92
100
AcDbEntity
  8
Form8
100
AcDbFaceRecord
 10
0.0
 20
0.0
 30
0.0
 70
   128
 71
   220
 72
   200
 73
   241
 74
   241
  0
VERTEX
  5
39F
330
92
100
AcDbEntity
  8
Form8
100
AcDbFaceRecord
 10
0.0
 20
0.0
 30
0.0
 70
   128
 71
   200
 72
   221
 73
   241
 74
   241
  0
VERTEX
  5
3A0
330
92
100
AcDbEntity
  8
Form8
100
AcDbFaceRecord
 10
0.0
 20
0.0
 30
0.0
 70
   128
 71
   221
 72
   222
 73
   243
 74
   243
  0
VERTEX
  5
3A1
330
92
100
AcDbEntity
  8
Form8
100
AcDbFaceRecord
 10
0.0
 20
0.0
 30
0.0
 70
   128
 71
   221
 72
   243
 73
   242
 74
   242
  0
VERTEX
  5
3A2
330
92
100
AcDbEntity
  8
Form8
100
AcDbFaceRecord
 10
0.0
 20
0.0
 30
0.0
 70
   128
 71
   222
 72
   223
 73
   244
 74
   244
  0
VERTEX
  5
3A3
330
92
100
AcDbEntity
  8
Form8
100
AcDbFaceRecord
 10
0.0
 20
0.0
 30
0.0
 70
   128
 71
   222
 72
   244
 73
   243
 74
   243
  0
VERTEX
  5
3A4
330
92
100
AcDbEntity
  8
Form8
100
AcDbFaceRecord
 10
0.0
 20
0.0
 30
0.0
 70
   128
 71
   223
 72
   224
 73
   245
 74
   245
  0
VERTEX
  5
3A5
330
92
100
AcDbEntity
  8
Form8
100
AcDbFaceRecord
 10
0.0
 20
0.0
 30
0.0
 70
   128
 71
   223
 72
   245
 73
   244
 74
   244
  0
VERTEX
  5
3A6
330
92
100
AcDbEntity
  8
Form8
100
AcDbFaceRecord
 10
0.0
 20
0.0
 30
0.0
 70
   128
 71
   224
 72
   225
 73
   246
 74
   246
  0
VERTEX
  5
3A7
330
92
100
AcDbEntity
  8
Form8
100
AcDbFaceRecord
 10
0.0
 20
0.0
 30
0.0
 70
   128
 71
   224
 72
   246
 73
   245
 74
   245
  0
VERTEX
  5
3A8
330
92
100
AcDbEntity
  8
Form8
100
AcDbFaceRecord
 10
0.0
 20
0.0
 30
0.0
 70
   128
 71
   225
 72
   226
 73
   247
 74
   247
  0
VERTEX
  5
3A9
330
92
100
AcDbEntity
  8
Form8
100
AcDbFaceRecord
 10
0.0
 20
0.0
 30
0.0
 70
   128
 71
   225
 72
   247
 73
   246
 74
   246
  0
VERTEX
  5
3AA
330
92
100
AcDbEntity
  8
Form8
100
AcDbFaceRecord
 10
0.0
 20
0.0
 30
0.0
 70
   128
 71
   226
 72
   227
 73
   248
 74
   248
  0
VERTEX
  5
3AB
330
92
100
AcDbEntity
  8
Form8
100
AcDbFaceRecord
 10
0.0
 20
0.0
 30
0.0
 70
   128
 71
   226
 72
   248
 73
   247
 74
   247
  0
VERTEX
  5
3AC
330
92
100
AcDbEntity
  8
Form8
100
AcDbFaceRecord
 10
0.0
 20
0.0
 30
0.0
 70
   128
 71
   227
 72
   228
 73
   249
 74
   249
  0
VERTEX
  5
3AD
330
92
100
AcDbEntity
  8
Form8
100
AcDbFaceRecord
 10
0.0
 20
0.0
 30
0.0
 70
   128
 71
   227
 72
   249
 73
   248
 74
   248
  0
VERTEX
  5
3AE
330
92
100
AcDbEntity
  8
Form8
100
AcDbFaceRecord
 10
0.0
 20
0.0
 30
0.0
 70
   128
 71
   228
 72
   229
 73
   249
 74
   249
  0
VERTEX
  5
3AF
330
92
100
AcDbEntity
  8
Form8
100
AcDbFaceRecord
 10
0.0
 20
0.0
 30
0.0
 70
   128
 71
   229
 72
   250
 73
   249
 74
   249
  0
VERTEX
  5
3B0
330
92
100
AcDbEntity
  8
Form8
100
AcDbFaceRecord
 10
0.0
 20
0.0
 30
0.0
 70
   128
 71
   229
 72
   230
 73
   250
 74
   250
  0
VERTEX
  5
3B1
330
92
100
AcDbEntity
  8
Form8
100
AcDbFaceRecord
 10
0.0
 20
0.0
 30
0.0
 70
   128
 71
   230
 72
   251
 73
   250
 74
   250
  0
VERTEX
  5
3B2
330
92
100
AcDbEntity
  8
Form8
100
AcDbFaceRecord
 10
0.0
 20
0.0
 30
0.0
 70
   128
 71
   230
 72
   231
 73
   251
 74
   251
  0
VERTEX
  5
3B3
330
92
100
AcDbEntity
  8
Form8
100
AcDbFaceRecord
 10
0.0
 20
0.0
 30
0.0
 70
   128
 71
   231
 72
   252
 73
   251
 74
   251
  0
VERTEX
  5
3B4
330
92
100
AcDbEntity
  8
Form8
100
AcDbFaceRecord
 10
0.0
 20
0.0
 30
0.0
 70
   128
 71
   231
 72
   232
 73
   253
 74
   253
  0
VERTEX
  5
3B5
330
92
100
AcDbEntity
  8
Form8
100
AcDbFaceRecord
 10
0.0
 20
0.0
 30
0.0
 70
   128
 71
   231
 72
   253
 73
   252
 74
   252
  0
VERTEX
  5
3B6
330
92
100
AcDbEntity
  8
Form8
100
AcDbFaceRecord
 10
0.0
 20
0.0
 30
0.0
 70
   128
 71
   232
 72
   233
 73
   254
 74
   254
  0
VERTEX
  5
3B7
330
92
100
AcDbEntity
  8
Form8
100
AcDbFaceRecord
 10
0.0
 20
0.0
 30
0.0
 70
   128
 71
   232
 72
   254
 73
   253
 74
   253
  0
VERTEX
  5
3B8
330
92
100
AcDbEntity
  8
Form8
100
AcDbFaceRecord
 10
0.0
 20
0.0
 30
0.0
 70
   128
 71
   233
 72
   234
 73
   255
 74
   255
  0
VERTEX
  5
3B9
330
92
100
AcDbEntity
  8
Form8
100
AcDbFaceRecord
 10
0.0
 20
0.0
 30
0.0
 70
   128
 71
   233
 72
   255
 73
   254
 74
   254
  0
VERTEX
  5
3BA
330
92
100
AcDbEntity
  8
Form8
100
AcDbFaceRecord
 10
0.0
 20
0.0
 30
0.0
 70
   128
 71
   234
 72
   235
 73
   255
 74
   255
  0
VERTEX
  5
3BB
330
92
100
AcDbEntity
  8
Form8
100
AcDbFaceRecord
 10
0.0
 20
0.0
 30
0.0
 70
   128
 71
   235
 72
   256
 73
   255
 74
   255
  0
VERTEX
  5
3BC
330
92
100
AcDbEntity
  8
Form8
100
AcDbFaceRecord
 10
0.0
 20
0.0
 30
0.0
 70
   128
 71
   235
 72
   236
 73
   256
 74
   256
  0
VERTEX
  5
3BD
330
92
100
AcDbEntity
  8
Form8
100
AcDbFaceRecord
 10
0.0
 20
0.0
 30
0.0
 70
   128
 71
   236
 72
   257
 73
   256
 74
   256
  0
VERTEX
  5
3BE
330
92
100
AcDbEntity
  8
Form8
100
AcDbFaceRecord
 10
0.0
 20
0.0
 30
0.0
 70
   128
 71
   236
 72
   237
 73
   257
 74
   257
  0
VERTEX
  5
3BF
330
92
100
AcDbEntity
  8
Form8
100
AcDbFaceRecord
 10
0.0
 20
0.0
 30
0.0
 70
   128
 71
   237
 72
   258
 73
   257
 74
   257
  0
VERTEX
  5
3C0
330
92
100
AcDbEntity
  8
Form8
100
AcDbFaceRecord
 10
0.0
 20
0.0
 30
0.0
 70
   128
 71
   237
 72
   238
 73
   258
 74
   258
  0
VERTEX
  5
3C1
330
92
100
AcDbEntity
  8
Form8
100
AcDbFaceRecord
 10
0.0
 20
0.0
 30
0.0
 70
   128
 71
   238
 72
   259
 73
   258
 74
   258
  0
VERTEX
  5
3C2
330
92
100
AcDbEntity
  8
Form8
100
AcDbFaceRecord
 10
0.0
 20
0.0
 30
0.0
 70
   128
 71
   238
 72
   239
 73
   259
 74
   259
  0
VERTEX
  5
3C3
330
92
100
AcDbEntity
  8
Form8
100
AcDbFaceRecord
 10
0.0
 20
0.0
 30
0.0
 70
   128
 71
   239
 72
   260
 73
   259
 74
   259
  0
VERTEX
  5
3C4
330
92
100
AcDbEntity
  8
Form8
100
AcDbFaceRecord
 10
0.0
 20
0.0
 30
0.0
 70
   128
 71
   239
 72
   240
 73
   260
 74
   260
  0
VERTEX
  5
3C5
330
92
100
AcDbEntity
  8
Form8
100
AcDbFaceRecord
 10
0.0
 20
0.0
 30
0.0
 70
   128
 71
   240
 72
   261
 73
   260
 74
   260
  0
VERTEX
  5
3C6
330
92
100
AcDbEntity
  8
Form8
100
AcDbFaceRecord
 10
0.0
 20
0.0
 30
0.0
 70
   128
 71
   240
 72
   241
 73
   261
 74
   261
  0
VERTEX
  5
3C7
330
92
100
AcDbEntity
  8
Form8
100
AcDbFaceRecord
 10
0.0
 20
0.0
 30
0.0
 70
   128
 71
   241
 72
   262
 73
   261
 74
   261
  0
VERTEX
  5
3C8
330
92
100
AcDbEntity
  8
Form8
100
AcDbFaceRecord
 10
0.0
 20
0.0
 30
0.0
 70
   128
 71
   241
 72
   221
 73
   262
 74
   262
  0
VERTEX
  5
3C9
330
92
100
AcDbEntity
  8
Form8
100
AcDbFaceRecord
 10
0.0
 20
0.0
 30
0.0
 70
   128
 71
   221
 72
   242
 73
   262
 74
   262
  0
VERTEX
  5
3CA
330
92
100
AcDbEntity
  8
Form8
100
AcDbFaceRecord
 10
0.0
 20
0.0
 30
0.0
 70
   128
 71
   260
 72
   245
 73
   259
 74
   259
  0
VERTEX
  5
3CB
330
92
100
AcDbEntity
  8
Form8
100
AcDbFaceRecord
 10
0.0
 20
0.0
 30
0.0
 70
   128
 71
   257
 72
   258
 73
   247
 74
   247
  0
VERTEX
  5
3CC
330
92
100
AcDbEntity
  8
Form8
100
AcDbFaceRecord
 10
0.0
 20
0.0
 30
0.0
 70
   128
 71
   245
 72
   258
 73
   259
 74
   259
  0
VERTEX
  5
3CD
330
92
100
AcDbEntity
  8
Form8
100
AcDbFaceRecord
 10
0.0
 20
0.0
 30
0.0
 70
   128
 71
   243
 72
   260
 73
   261
 74
   261
  0
VERTEX
  5
3CE
330
92
100
AcDbEntity
  8
Form8
100
AcDbFaceRecord
 10
0.0
 20
0.0
 30
0.0
 70
   128
 71
   256
 72
   257
 73
   247
 74
   247
  0
VERTEX
  5
3CF
330
92
100
AcDbEntity
  8
Form8
100
AcDbFaceRecord
 10
0.0
 20
0.0
 30
0.0
 70
   128
 71
   254
 72
   251
 73
   253
 74
   253
  0
VERTEX
  5
3D0
330
92
100
AcDbEntity
  8
Form8
100
AcDbFaceRecord
 10
0.0
 20
0.0
 30
0.0
 70
   128
 71
   255
 72
   249
 73
   254
 74
   254
  0
VERTEX
  5
3D1
330
92
100
AcDbEntity
  8
Form8
100
AcDbFaceRecord
 10
0.0
 20
0.0
 30
0.0
 70
   128
 71
   255
 72
   256
 73
   249
 74
   249
  0
VERTEX
  5
3D2
330
92
100
AcDbEntity
  8
Form8
100
AcDbFaceRecord
 10
0.0
 20
0.0
 30
0.0
 70
   128
 71
   261
 72
   262
 73
   242
 74
   242
  0
VERTEX
  5
3D3
330
92
100
AcDbEntity
  8
Form8
100
AcDbFaceRecord
 10
0.0
 20
0.0
 30
0.0
 70
   128
 71
   246
 72
   258
 73
   245
 74
   245
  0
VERTEX
  5
3D4
330
92
100
AcDbEntity
  8
Form8
100
AcDbFaceRecord
 10
0.0
 20
0.0
 30
0.0
 70
   128
 71
   260
 72
   244
 73
   245
 74
   245
  0
VERTEX
  5
3D5
330
92
100
AcDbEntity
  8
Form8
100
AcDbFaceRecord
 10
0.0
 20
0.0
 30
0.0
 70
   128
 71
   244
 72
   260
 73
   243
 74
   243
  0
VERTEX
  5
3D6
330
92
100
AcDbEntity
  8
Form8
100
AcDbFaceRecord
 10
0.0
 20
0.0
 30
0.0
 70
   128
 71
   258
 72
   246
 73
   247
 74
   247
  0
VERTEX
  5
3D7
330
92
100
AcDbEntity
  8
Form8
100
AcDbFaceRecord
 10
0.0
 20
0.0
 30
0.0
 70
   128
 71
   253
 72
   251
 73
   252
 74
   252
  0
VERTEX
  5
3D8
330
92
100
AcDbEntity
  8
Form8
100
AcDbFaceRecord
 10
0.0
 20
0.0
 30
0.0
 70
   128
 71
   254
 72
   250
 73
   251
 74
   251
  0
VERTEX
  5
3D9
330
92
100
AcDbEntity
  8
Form8
100
AcDbFaceRecord
 10
0.0
 20
0.0
 30
0.0
 70
   128
 71
   249
 72
   250
 73
   254
 74
   254
  0
VERTEX
  5
3DA
330
92
100
AcDbEntity
  8
Form8
100
AcDbFaceRecord
 10
0.0
 20
0.0
 30
0.0
 70
   128
 71
   256
 72
   248
 73
   249
 74
   249
  0
VERTEX
  5
3DB
330
92
100
AcDbEntity
  8
Form8
100
AcDbFaceRecord
 10
0.0
 20
0.0
 30
0.0
 70
   128
 71
   247
 72
   248
 73
   256
 74
   256
  0
VERTEX
  5
3DC
330
92
100
AcDbEntity
  8
Form8
100
AcDbFaceRecord
 10
0.0
 20
0.0
 30
0.0
 70
   128
 71
   243
 72
   261
 73
   242
 74
   242
  0
VERTEX
  5
3DD
330
92
100
AcDbEntity
  8
Form8
100
AcDbFaceRecord
 10
0.0
 20
0.0
 30
0.0
 70
   128
 71
   266
 72
   263
 73
   267
 74
   267
  0
VERTEX
  5
3DE
330
92
100
AcDbEntity
  8
Form8
100
AcDbFaceRecord
 10
0.0
 20
0.0
 30
0.0
 70
   128
 71
   263
 72
   264
 73
   267
 74
   267
  0
VERTEX
  5
3DF
330
92
100
AcDbEntity
  8
Form8
100
AcDbFaceRecord
 10
0.0
 20
0.0
 30
0.0
 70
   128
 71
   267
 72
   264
 73
   265
 74
   265
  0
VERTEX
  5
3E0
330
92
100
AcDbEntity
  8
Form8
100
AcDbFaceRecord
 10
0.0
 20
0.0
 30
0.0
 70
   128
 71
   267
 72
   265
 73
   268
 74
   268
  0
VERTEX
  5
3E1
330
92
100
AcDbEntity
  8
Form8
100
AcDbFaceRecord
 10
0.0
 20
0.0
 30
0.0
 70
   128
 71
   271
 72
   265
 73
   270
 74
   270
  0
VERTEX
  5
3E2
330
92
100
AcDbEntity
  8
Form8
100
AcDbFaceRecord
 10
0.0
 20
0.0
 30
0.0
 70
   128
 71
   265
 72
   264
 73
   270
 74
   270
  0
VERTEX
  5
3E3
330
92
100
AcDbEntity
  8
Form8
100
AcDbFaceRecord
 10
0.0
 20
0.0
 30
0.0
 70
   128
 71
   270
 72
   264
 73
   269
 74
   269
  0
VERTEX
  5
3E4
330
92
100
AcDbEntity
  8
Form8
100
AcDbFaceRecord
 10
0.0
 20
0.0
 30
0.0
 70
   128
 71
   264
 72
   263
 73
   269
 74
   269
  0
VERTEX
  5
3E5
330
92
100
AcDbEntity
  8
Form8
100
AcDbFaceRecord
 10
0.0
 20
0.0
 30
0.0
 70
   128
 71
   274
 72
   271
 73
   273
 74
   273
  0
VERTEX
  5
3E6
330
92
100
AcDbEntity
  8
Form8
100
AcDbFaceRecord
 10
0.0
 20
0.0
 30
0.0
 70
   128
 71
   271
 72
   270
 73
   273
 74
   273
  0
VERTEX
  5
3E7
330
92
100
AcDbEntity
  8
Form8
100
AcDbFaceRecord
 10
0.0
 20
0.0
 30
0.0
 70
   128
 71
   273
 72
   270
 73
   269
 74
   269
  0
VERTEX
  5
3E8
330
92
100
AcDbEntity
  8
Form8
100
AcDbFaceRecord
 10
0.0
 20
0.0
 30
0.0
 70
   128
 71
   273
 72
   269
 73
   272
 74
   272
  0
VERTEX
  5
3E9
330
92
100
AcDbEntity
  8
Form8
100
AcDbFaceRecord
 10
0.0
 20
0.0
 30
0.0
 70
   128
 71
   298
 72
   274
 73
   273
 74
   273
  0
VERTEX
  5
3EA
330
92
100
AcDbEntity
  8
Form8
100
AcDbFaceRecord
 10
0.0
 20
0.0
 30
0.0
 70
   128
 71
   298
 72
   273
 73
   297
 74
   297
  0
VERTEX
  5
3EB
330
92
100
AcDbEntity
  8
Form8
100
AcDbFaceRecord
 10
0.0
 20
0.0
 30
0.0
 70
   128
 71
   297
 72
   273
 73
   272
 74
   272
  0
VERTEX
  5
3EC
330
92
100
AcDbEntity
  8
Form8
100
AcDbFaceRecord
 10
0.0
 20
0.0
 30
0.0
 70
   128
 71
   297
 72
   272
 73
   296
 74
   296
  0
VERTEX
  5
3ED
330
92
100
AcDbEntity
  8
Form8
100
AcDbFaceRecord
 10
0.0
 20
0.0
 30
0.0
 70
   128
 71
   301
 72
   298
 73
   297
 74
   297
  0
VERTEX
  5
3EE
330
92
100
AcDbEntity
  8
Form8
100
AcDbFaceRecord
 10
0.0
 20
0.0
 30
0.0
 70
   128
 71
   301
 72
   297
 73
   300
 74
   300
  0
VERTEX
  5
3EF
330
92
100
AcDbEntity
  8
Form8
100
AcDbFaceRecord
 10
0.0
 20
0.0
 30
0.0
 70
   128
 71
   300
 72
   297
 73
   299
 74
   299
  0
VERTEX
  5
3F0
330
92
100
AcDbEntity
  8
Form8
100
AcDbFaceRecord
 10
0.0
 20
0.0
 30
0.0
 70
   128
 71
   297
 72
   296
 73
   299
 74
   299
  0
VERTEX
  5
3F1
330
92
100
AcDbEntity
  8
Form8
100
AcDbFaceRecord
 10
0.0
 20
0.0
 30
0.0
 70
   128
 71
   304
 72
   301
 73
   300
 74
   300
  0
VERTEX
  5
3F2
330
92
100
AcDbEntity
  8
Form8
100
AcDbFaceRecord
 10
0.0
 20
0.0
 30
0.0
 70
   128
 71
   304
 72
   300
 73
   303
 74
   303
  0
VERTEX
  5
3F3
330
92
100
AcDbEntity
  8
Form8
100
AcDbFaceRecord
 10
0.0
 20
0.0
 30
0.0
 70
   128
 71
   303
 72
   300
 73
   299
 74
   299
  0
VERTEX
  5
3F4
330
92
100
AcDbEntity
  8
Form8
100
AcDbFaceRecord
 10
0.0
 20
0.0
 30
0.0
 70
   128
 71
   303
 72
   299
 73
   302
 74
   302
  0
VERTEX
  5
3F5
330
92
100
AcDbEntity
  8
Form8
100
AcDbFaceRecord
 10
0.0
 20
0.0
 30
0.0
 70
   128
 71
   305
 72
   304
 73
   306
 74
   306
  0
VERTEX
  5
3F6
330
92
100
AcDbEntity
  8
Form8
100
AcDbFaceRecord
 10
0.0
 20
0.0
 30
0.0
 70
   128
 71
   304
 72
   303
 73
   306
 74
   306
  0
VERTEX
  5
3F7
330
92
100
AcDbEntity
  8
Form8
100
AcDbFaceRecord
 10
0.0
 20
0.0
 30
0.0
 70
   128
 71
   306
 72
   303
 73
   307
 74
   307
  0
VERTEX
  5
3F8
330
92
100
AcDbEntity
  8
Form8
100
AcDbFaceRecord
 10
0.0
 20
0.0
 30
0.0
 70
   128
 71
   303
 72
   302
 73
   307
 74
   307
  0
VERTEX
  5
3F9
330
92
100
AcDbEntity
  8
Form8
100
AcDbFaceRecord
 10
0.0
 20
0.0
 30
0.0
 70
   128
 71
   263
 72
   329
 73
   269
 74
   269
  0
VERTEX
  5
3FA
330
92
100
AcDbEntity
  8
Form8
100
AcDbFaceRecord
 10
0.0
 20
0.0
 30
0.0
 70
   128
 71
   329
 72
   330
 73
   269
 74
   269
  0
VERTEX
  5
3FB
330
92
100
AcDbEntity
  8
Form8
100
AcDbFaceRecord
 10
0.0
 20
0.0
 30
0.0
 70
   128
 71
   269
 72
   330
 73
   272
 74
   272
  0
VERTEX
  5
3FC
330
92
100
AcDbEntity
  8
Form8
100
AcDbFaceRecord
 10
0.0
 20
0.0
 30
0.0
 70
   128
 71
   330
 72
   275
 73
   272
 74
   272
  0
VERTEX
  5
3FD
330
92
100
AcDbEntity
  8
Form8
100
AcDbFaceRecord
 10
0.0
 20
0.0
 30
0.0
 70
   128
 71
   329
 72
   331
 73
   332
 74
   332
  0
VERTEX
  5
3FE
330
92
100
AcDbEntity
  8
Form8
100
AcDbFaceRecord
 10
0.0
 20
0.0
 30
0.0
 70
   128
 71
   329
 72
   332
 73
   330
 74
   330
  0
VERTEX
  5
3FF
330
92
100
AcDbEntity
  8
Form8
100
AcDbFaceRecord
 10
0.0
 20
0.0
 30
0.0
 70
   128
 71
   330
 72
   332
 73
   276
 74
   276
  0
VERTEX
  5
400
330
92
100
AcDbEntity
  8
Form8
100
AcDbFaceRecord
 10
0.0
 20
0.0
 30
0.0
 70
   128
 71
   330
 72
   276
 73
   275
 74
   275
  0
VERTEX
  5
401
330
92
100
AcDbEntity
  8
Form8
100
AcDbFaceRecord
 10
0.0
 20
0.0
 30
0.0
 70
   128
 71
   331
 72
   333
 73
   334
 74
   334
  0
VERTEX
  5
402
330
92
100
AcDbEntity
  8
Form8
100
AcDbFaceRecord
 10
0.0
 20
0.0
 30
0.0
 70
   128
 71
   331
 72
   334
 73
   332
 74
   332
  0
VERTEX
  5
403
330
92
100
AcDbEntity
  8
Form8
100
AcDbFaceRecord
 10
0.0
 20
0.0
 30
0.0
 70
   128
 71
   332
 72
   334
 73
   277
 74
   277
  0
VERTEX
  5
404
330
92
100
AcDbEntity
  8
Form8
100
AcDbFaceRecord
 10
0.0
 20
0.0
 30
0.0
 70
   128
 71
   332
 72
   277
 73
   276
 74
   276
  0
VERTEX
  5
405
330
92
100
AcDbEntity
  8
Form8
100
AcDbFaceRecord
 10
0.0
 20
0.0
 30
0.0
 70
   128
 71
   333
 72
   335
 73
   334
 74
   334
  0
VERTEX
  5
406
330
92
100
AcDbEntity
  8
Form8
100
AcDbFaceRecord
 10
0.0
 20
0.0
 30
0.0
 70
   128
 71
   335
 72
   336
 73
   334
 74
   334
  0
VERTEX
  5
407
330
92
100
AcDbEntity
  8
Form8
100
AcDbFaceRecord
 10
0.0
 20
0.0
 30
0.0
 70
   128
 71
   334
 72
   336
 73
   278
 74
   278
  0
VERTEX
  5
408
330
92
100
AcDbEntity
  8
Form8
100
AcDbFaceRecord
 10
0.0
 20
0.0
 30
0.0
 70
   128
 71
   334
 72
   278
 73
   277
 74
   277
  0
VERTEX
  5
409
330
92
100
AcDbEntity
  8
Form8
100
AcDbFaceRecord
 10
0.0
 20
0.0
 30
0.0
 70
   128
 71
   335
 72
   337
 73
   338
 74
   338
  0
VERTEX
  5
40A
330
92
100
AcDbEntity
  8
Form8
100
AcDbFaceRecord
 10
0.0
 20
0.0
 30
0.0
 70
   128
 71
   335
 72
   338
 73
   336
 74
   336
  0
VERTEX
  5
40B
330
92
100
AcDbEntity
  8
Form8
100
AcDbFaceRecord
 10
0.0
 20
0.0
 30
0.0
 70
   128
 71
   336
 72
   338
 73
   279
 74
   279
  0
VERTEX
  5
40C
330
92
100
AcDbEntity
  8
Form8
100
AcDbFaceRecord
 10
0.0
 20
0.0
 30
0.0
 70
   128
 71
   336
 72
   279
 73
   278
 74
   278
  0
VERTEX
  5
40D
330
92
100
AcDbEntity
  8
Form8
100
AcDbFaceRecord
 10
0.0
 20
0.0
 30
0.0
 70
   128
 71
   337
 72
   339
 73
   340
 74
   340
  0
VERTEX
  5
40E
330
92
100
AcDbEntity
  8
Form8
100
AcDbFaceRecord
 10
0.0
 20
0.0
 30
0.0
 70
   128
 71
   337
 72
   340
 73
   338
 74
   338
  0
VERTEX
  5
40F
330
92
100
AcDbEntity
  8
Form8
100
AcDbFaceRecord
 10
0.0
 20
0.0
 30
0.0
 70
   128
 71
   338
 72
   340
 73
   280
 74
   280
  0
VERTEX
  5
410
330
92
100
AcDbEntity
  8
Form8
100
AcDbFaceRecord
 10
0.0
 20
0.0
 30
0.0
 70
   128
 71
   338
 72
   280
 73
   279
 74
   279
  0
VERTEX
  5
411
330
92
100
AcDbEntity
  8
Form8
100
AcDbFaceRecord
 10
0.0
 20
0.0
 30
0.0
 70
   128
 71
   339
 72
   341
 73
   342
 74
   342
  0
VERTEX
  5
412
330
92
100
AcDbEntity
  8
Form8
100
AcDbFaceRecord
 10
0.0
 20
0.0
 30
0.0
 70
   128
 71
   339
 72
   342
 73
   340
 74
   340
  0
VERTEX
  5
413
330
92
100
AcDbEntity
  8
Form8
100
AcDbFaceRecord
 10
0.0
 20
0.0
 30
0.0
 70
   128
 71
   340
 72
   342
 73
   281
 74
   281
  0
VERTEX
  5
414
330
92
100
AcDbEntity
  8
Form8
100
AcDbFaceRecord
 10
0.0
 20
0.0
 30
0.0
 70
   128
 71
   340
 72
   281
 73
   280
 74
   280
  0
VERTEX
  5
415
330
92
100
AcDbEntity
  8
Form8
100
AcDbFaceRecord
 10
0.0
 20
0.0
 30
0.0
 70
   128
 71
   341
 72
   343
 73
   342
 74
   342
  0
VERTEX
  5
416
330
92
100
AcDbEntity
  8
Form8
100
AcDbFaceRecord
 10
0.0
 20
0.0
 30
0.0
 70
   128
 71
   343
 72
   344
 73
   342
 74
   342
  0
VERTEX
  5
417
330
92
100
AcDbEntity
  8
Form8
100
AcDbFaceRecord
 10
0.0
 20
0.0
 30
0.0
 70
   128
 71
   342
 72
   344
 73
   282
 74
   282
  0
VERTEX
  5
418
330
92
100
AcDbEntity
  8
Form8
100
AcDbFaceRecord
 10
0.0
 20
0.0
 30
0.0
 70
   128
 71
   342
 72
   282
 73
   281
 74
   281
  0
VERTEX
  5
419
330
92
100
AcDbEntity
  8
Form8
100
AcDbFaceRecord
 10
0.0
 20
0.0
 30
0.0
 70
   128
 71
   343
 72
   345
 73
   346
 74
   346
  0
VERTEX
  5
41A
330
92
100
AcDbEntity
  8
Form8
100
AcDbFaceRecord
 10
0.0
 20
0.0
 30
0.0
 70
   128
 71
   343
 72
   346
 73
   344
 74
   344
  0
VERTEX
  5
41B
330
92
100
AcDbEntity
  8
Form8
100
AcDbFaceRecord
 10
0.0
 20
0.0
 30
0.0
 70
   128
 71
   344
 72
   346
 73
   283
 74
   283
  0
VERTEX
  5
41C
330
92
100
AcDbEntity
  8
Form8
100
AcDbFaceRecord
 10
0.0
 20
0.0
 30
0.0
 70
   128
 71
   344
 72
   283
 73
   282
 74
   282
  0
VERTEX
  5
41D
330
92
100
AcDbEntity
  8
Form8
100
AcDbFaceRecord
 10
0.0
 20
0.0
 30
0.0
 70
   128
 71
   345
 72
   347
 73
   348
 74
   348
  0
VERTEX
  5
41E
330
92
100
AcDbEntity
  8
Form8
100
AcDbFaceRecord
 10
0.0
 20
0.0
 30
0.0
 70
   128
 71
   345
 72
   348
 73
   346
 74
   346
  0
VERTEX
  5
41F
330
92
100
AcDbEntity
  8
Form8
100
AcDbFaceRecord
 10
0.0
 20
0.0
 30
0.0
 70
   128
 71
   346
 72
   348
 73
   284
 74
   284
  0
VERTEX
  5
420
330
92
100
AcDbEntity
  8
Form8
100
AcDbFaceRecord
 10
0.0
 20
0.0
 30
0.0
 70
   128
 71
   346
 72
   284
 73
   283
 74
   283
  0
VERTEX
  5
421
330
92
100
AcDbEntity
  8
Form8
100
AcDbFaceRecord
 10
0.0
 20
0.0
 30
0.0
 70
   128
 71
   347
 72
   349
 73
   350
 74
   350
  0
VERTEX
  5
422
330
92
100
AcDbEntity
  8
Form8
100
AcDbFaceRecord
 10
0.0
 20
0.0
 30
0.0
 70
   128
 71
   347
 72
   350
 73
   348
 74
   348
  0
VERTEX
  5
423
330
92
100
AcDbEntity
  8
Form8
100
AcDbFaceRecord
 10
0.0
 20
0.0
 30
0.0
 70
   128
 71
   348
 72
   350
 73
   285
 74
   285
  0
VERTEX
  5
424
330
92
100
AcDbEntity
  8
Form8
100
AcDbFaceRecord
 10
0.0
 20
0.0
 30
0.0
 70
   128
 71
   348
 72
   285
 73
   284
 74
   284
  0
VERTEX
  5
425
330
92
100
AcDbEntity
  8
Form8
100
AcDbFaceRecord
 10
0.0
 20
0.0
 30
0.0
 70
   128
 71
   349
 72
   351
 73
   350
 74
   350
  0
VERTEX
  5
426
330
92
100
AcDbEntity
  8
Form8
100
AcDbFaceRecord
 10
0.0
 20
0.0
 30
0.0
 70
   128
 71
   351
 72
   352
 73
   350
 74
   350
  0
VERTEX
  5
427
330
92
100
AcDbEntity
  8
Form8
100
AcDbFaceRecord
 10
0.0
 20
0.0
 30
0.0
 70
   128
 71
   350
 72
   352
 73
   285
 74
   285
  0
VERTEX
  5
428
330
92
100
AcDbEntity
  8
Form8
100
AcDbFaceRecord
 10
0.0
 20
0.0
 30
0.0
 70
   128
 71
   352
 72
   286
 73
   285
 74
   285
  0
VERTEX
  5
429
330
92
100
AcDbEntity
  8
Form8
100
AcDbFaceRecord
 10
0.0
 20
0.0
 30
0.0
 70
   128
 71
   351
 72
   353
 73
   352
 74
   352
  0
VERTEX
  5
42A
330
92
100
AcDbEntity
  8
Form8
100
AcDbFaceRecord
 10
0.0
 20
0.0
 30
0.0
 70
   128
 71
   353
 72
   354
 73
   352
 74
   352
  0
VERTEX
  5
42B
330
92
100
AcDbEntity
  8
Form8
100
AcDbFaceRecord
 10
0.0
 20
0.0
 30
0.0
 70
   128
 71
   352
 72
   354
 73
   286
 74
   286
  0
VERTEX
  5
42C
330
92
100
AcDbEntity
  8
Form8
100
AcDbFaceRecord
 10
0.0
 20
0.0
 30
0.0
 70
   128
 71
   354
 72
   287
 73
   286
 74
   286
  0
VERTEX
  5
42D
330
92
100
AcDbEntity
  8
Form8
100
AcDbFaceRecord
 10
0.0
 20
0.0
 30
0.0
 70
   128
 71
   353
 72
   355
 73
   354
 74
   354
  0
VERTEX
  5
42E
330
92
100
AcDbEntity
  8
Form8
100
AcDbFaceRecord
 10
0.0
 20
0.0
 30
0.0
 70
   128
 71
   355
 72
   356
 73
   354
 74
   354
  0
VERTEX
  5
42F
330
92
100
AcDbEntity
  8
Form8
100
AcDbFaceRecord
 10
0.0
 20
0.0
 30
0.0
 70
   128
 71
   354
 72
   356
 73
   287
 74
   287
  0
VERTEX
  5
430
330
92
100
AcDbEntity
  8
Form8
100
AcDbFaceRecord
 10
0.0
 20
0.0
 30
0.0
 70
   128
 71
   356
 72
   288
 73
   287
 74
   287
  0
VERTEX
  5
431
330
92
100
AcDbEntity
  8
Form8
100
AcDbFaceRecord
 10
0.0
 20
0.0
 30
0.0
 70
   128
 71
   355
 72
   357
 73
   356
 74
   356
  0
VERTEX
  5
432
330
92
100
AcDbEntity
  8
Form8
100
AcDbFaceRecord
 10
0.0
 20
0.0
 30
0.0
 70
   128
 71
   357
 72
   358
 73
   356
 74
   356
  0
VERTEX
  5
433
330
92
100
AcDbEntity
  8
Form8
100
AcDbFaceRecord
 10
0.0
 20
0.0
 30
0.0
 70
   128
 71
   356
 72
   358
 73
   288
 74
   288
  0
VERTEX
  5
434
330
92
100
AcDbEntity
  8
Form8
100
AcDbFaceRecord
 10
0.0
 20
0.0
 30
0.0
 70
   128
 71
   358
 72
   289
 73
   288
 74
   288
  0
VERTEX
  5
435
330
92
100
AcDbEntity
  8
Form8
100
AcDbFaceRecord
 10
0.0
 20
0.0
 30
0.0
 70
   128
 71
   357
 72
   359
 73
   358
 74
   358
  0
VERTEX
  5
436
330
92
100
AcDbEntity
  8
Form8
100
AcDbFaceRecord
 10
0.0
 20
0.0
 30
0.0
 70
   128
 71
   359
 72
   360
 73
   358
 74
   358
  0
VERTEX
  5
437
330
92
100
AcDbEntity
  8
Form8
100
AcDbFaceRecord
 10
0.0
 20
0.0
 30
0.0
 70
   128
 71
   358
 72
   360
 73
   289
 74
   289
  0
VERTEX
  5
438
330
92
100
AcDbEntity
  8
Form8
100
AcDbFaceRecord
 10
0.0
 20
0.0
 30
0.0
 70
   128
 71
   360
 72
   290
 73
   289
 74
   289
  0
VERTEX
  5
439
330
92
100
AcDbEntity
  8
Form8
100
AcDbFaceRecord
 10
0.0
 20
0.0
 30
0.0
 70
   128
 71
   359
 72
   361
 73
   360
 74
   360
  0
VERTEX
  5
43A
330
92
100
AcDbEntity
  8
Form8
100
AcDbFaceRecord
 10
0.0
 20
0.0
 30
0.0
 70
   128
 71
   361
 72
   362
 73
   360
 74
   360
  0
VERTEX
  5
43B
330
92
100
AcDbEntity
  8
Form8
100
AcDbFaceRecord
 10
0.0
 20
0.0
 30
0.0
 70
   128
 71
   360
 72
   362
 73
   290
 74
   290
  0
VERTEX
  5
43C
330
92
100
AcDbEntity
  8
Form8
100
AcDbFaceRecord
 10
0.0
 20
0.0
 30
0.0
 70
   128
 71
   362
 72
   291
 73
   290
 74
   290
  0
VERTEX
  5
43D
330
92
100
AcDbEntity
  8
Form8
100
AcDbFaceRecord
 10
0.0
 20
0.0
 30
0.0
 70
   128
 71
   361
 72
   363
 73
   362
 74
   362
  0
VERTEX
  5
43E
330
92
100
AcDbEntity
  8
Form8
100
AcDbFaceRecord
 10
0.0
 20
0.0
 30
0.0
 70
   128
 71
   363
 72
   364
 73
   362
 74
   362
  0
VERTEX
  5
43F
330
92
100
AcDbEntity
  8
Form8
100
AcDbFaceRecord
 10
0.0
 20
0.0
 30
0.0
 70
   128
 71
   362
 72
   364
 73
   291
 74
   291
  0
VERTEX
  5
440
330
92
100
AcDbEntity
  8
Form8
100
AcDbFaceRecord
 10
0.0
 20
0.0
 30
0.0
 70
   128
 71
   364
 72
   292
 73
   291
 74
   291
  0
VERTEX
  5
441
330
92
100
AcDbEntity
  8
Form8
100
AcDbFaceRecord
 10
0.0
 20
0.0
 30
0.0
 70
   128
 71
   363
 72
   365
 73
   366
 74
   366
  0
VERTEX
  5
442
330
92
100
AcDbEntity
  8
Form8
100
AcDbFaceRecord
 10
0.0
 20
0.0
 30
0.0
 70
   128
 71
   363
 72
   366
 73
   364
 74
   364
  0
VERTEX
  5
443
330
92
100
AcDbEntity
  8
Form8
100
AcDbFaceRecord
 10
0.0
 20
0.0
 30
0.0
 70
   128
 71
   364
 72
   366
 73
   292
 74
   292
  0
VERTEX
  5
444
330
92
100
AcDbEntity
  8
Form8
100
AcDbFaceRecord
 10
0.0
 20
0.0
 30
0.0
 70
   128
 71
   366
 72
   293
 73
   292
 74
   292
  0
VERTEX
  5
445
330
92
100
AcDbEntity
  8
Form8
100
AcDbFaceRecord
 10
0.0
 20
0.0
 30
0.0
 70
   128
 71
   365
 72
   367
 73
   366
 74
   366
  0
VERTEX
  5
446
330
92
100
AcDbEntity
  8
Form8
100
AcDbFaceRecord
 10
0.0
 20
0.0
 30
0.0
 70
   128
 71
   367
 72
   368
 73
   366
 74
   366
  0
VERTEX
  5
447
330
92
100
AcDbEntity
  8
Form8
100
AcDbFaceRecord
 10
0.0
 20
0.0
 30
0.0
 70
   128
 71
   366
 72
   368
 73
   293
 74
   293
  0
VERTEX
  5
448
330
92
100
AcDbEntity
  8
Form8
100
AcDbFaceRecord
 10
0.0
 20
0.0
 30
0.0
 70
   128
 71
   368
 72
   294
 73
   293
 74
   293
  0
VERTEX
  5
449
330
92
100
AcDbEntity
  8
Form8
100
AcDbFaceRecord
 10
0.0
 20
0.0
 30
0.0
 70
   128
 71
   367
 72
   369
 73
   368
 74
   368
  0
VERTEX
  5
44A
330
92
100
AcDbEntity
  8
Form8
100
AcDbFaceRecord
 10
0.0
 20
0.0
 30
0.0
 70
   128
 71
   369
 72
   370
 73
   368
 74
   368
  0
VERTEX
  5
44B
330
92
100
AcDbEntity
  8
Form8
100
AcDbFaceRecord
 10
0.0
 20
0.0
 30
0.0
 70
   128
 71
   368
 72
   370
 73
   294
 74
   294
  0
VERTEX
  5
44C
330
92
100
AcDbEntity
  8
Form8
100
AcDbFaceRecord
 10
0.0
 20
0.0
 30
0.0
 70
   128
 71
   370
 72
   295
 73
   294
 74
   294
  0
VERTEX
  5
44D
330
92
100
AcDbEntity
  8
Form8
100
AcDbFaceRecord
 10
0.0
 20
0.0
 30
0.0
 70
   128
 71
   369
 72
   302
 73
   299
 74
   299
  0
VERTEX
  5
44E
330
92
100
AcDbEntity
  8
Form8
100
AcDbFaceRecord
 10
0.0
 20
0.0
 30
0.0
 70
   128
 71
   369
 72
   299
 73
   370
 74
   370
  0
VERTEX
  5
44F
330
92
100
AcDbEntity
  8
Form8
100
AcDbFaceRecord
 10
0.0
 20
0.0
 30
0.0
 70
   128
 71
   370
 72
   299
 73
   296
 74
   296
  0
VERTEX
  5
450
330
92
100
AcDbEntity
  8
Form8
100
AcDbFaceRecord
 10
0.0
 20
0.0
 30
0.0
 70
   128
 71
   370
 72
   296
 73
   295
 74
   295
  0
VERTEX
  5
451
330
92
100
AcDbEntity
  8
Form8
100
AcDbFaceRecord
 10
0.0
 20
0.0
 30
0.0
 70
   128
 71
   266
 72
   308
 73
   263
 74
   263
  0
VERTEX
  5
452
330
92
100
AcDbEntity
  8
Form8
100
AcDbFaceRecord
 10
0.0
 20
0.0
 30
0.0
 70
   128
 71
   308
 72
   329
 73
   263
 74
   263
  0
VERTEX
  5
453
330
92
100
AcDbEntity
  8
Form8
100
AcDbFaceRecord
 10
0.0
 20
0.0
 30
0.0
 70
   128
 71
   308
 72
   309
 73
   329
 74
   329
  0
VERTEX
  5
454
330
92
100
AcDbEntity
  8
Form8
100
AcDbFaceRecord
 10
0.0
 20
0.0
 30
0.0
 70
   128
 71
   309
 72
   331
 73
   329
 74
   329
  0
VERTEX
  5
455
330
92
100
AcDbEntity
  8
Form8
100
AcDbFaceRecord
 10
0.0
 20
0.0
 30
0.0
 70
   128
 71
   309
 72
   310
 73
   331
 74
   331
  0
VERTEX
  5
456
330
92
100
AcDbEntity
  8
Form8
100
AcDbFaceRecord
 10
0.0
 20
0.0
 30
0.0
 70
   128
 71
   310
 72
   333
 73
   331
 74
   331
  0
VERTEX
  5
457
330
92
100
AcDbEntity
  8
Form8
100
AcDbFaceRecord
 10
0.0
 20
0.0
 30
0.0
 70
   128
 71
   310
 72
   311
 73
   333
 74
   333
  0
VERTEX
  5
458
330
92
100
AcDbEntity
  8
Form8
100
AcDbFaceRecord
 10
0.0
 20
0.0
 30
0.0
 70
   128
 71
   311
 72
   335
 73
   333
 74
   333
  0
VERTEX
  5
459
330
92
100
AcDbEntity
  8
Form8
100
AcDbFaceRecord
 10
0.0
 20
0.0
 30
0.0
 70
   128
 71
   311
 72
   312
 73
   335
 74
   335
  0
VERTEX
  5
45A
330
92
100
AcDbEntity
  8
Form8
100
AcDbFaceRecord
 10
0.0
 20
0.0
 30
0.0
 70
   128
 71
   312
 72
   337
 73
   335
 74
   335
  0
VERTEX
  5
45B
330
92
100
AcDbEntity
  8
Form8
100
AcDbFaceRecord
 10
0.0
 20
0.0
 30
0.0
 70
   128
 71
   312
 72
   313
 73
   337
 74
   337
  0
VERTEX
  5
45C
330
92
100
AcDbEntity
  8
Form8
100
AcDbFaceRecord
 10
0.0
 20
0.0
 30
0.0
 70
   128
 71
   313
 72
   339
 73
   337
 74
   337
  0
VERTEX
  5
45D
330
92
100
AcDbEntity
  8
Form8
100
AcDbFaceRecord
 10
0.0
 20
0.0
 30
0.0
 70
   128
 71
   313
 72
   314
 73
   339
 74
   339
  0
VERTEX
  5
45E
330
92
100
AcDbEntity
  8
Form8
100
AcDbFaceRecord
 10
0.0
 20
0.0
 30
0.0
 70
   128
 71
   314
 72
   341
 73
   339
 74
   339
  0
VERTEX
  5
45F
330
92
100
AcDbEntity
  8
Form8
100
AcDbFaceRecord
 10
0.0
 20
0.0
 30
0.0
 70
   128
 71
   314
 72
   315
 73
   341
 74
   341
  0
VERTEX
  5
460
330
92
100
AcDbEntity
  8
Form8
100
AcDbFaceRecord
 10
0.0
 20
0.0
 30
0.0
 70
   128
 71
   315
 72
   343
 73
   341
 74
   341
  0
VERTEX
  5
461
330
92
100
AcDbEntity
  8
Form8
100
AcDbFaceRecord
 10
0.0
 20
0.0
 30
0.0
 70
   128
 71
   315
 72
   316
 73
   343
 74
   343
  0
VERTEX
  5
462
330
92
100
AcDbEntity
  8
Form8
100
AcDbFaceRecord
 10
0.0
 20
0.0
 30
0.0
 70
   128
 71
   316
 72
   345
 73
   343
 74
   343
  0
VERTEX
  5
463
330
92
100
AcDbEntity
  8
Form8
100
AcDbFaceRecord
 10
0.0
 20
0.0
 30
0.0
 70
   128
 71
   316
 72
   317
 73
   345
 74
   345
  0
VERTEX
  5
464
330
92
100
AcDbEntity
  8
Form8
100
AcDbFaceRecord
 10
0.0
 20
0.0
 30
0.0
 70
   128
 71
   317
 72
   347
 73
   345
 74
   345
  0
VERTEX
  5
465
330
92
100
AcDbEntity
  8
Form8
100
AcDbFaceRecord
 10
0.0
 20
0.0
 30
0.0
 70
   128
 71
   317
 72
   318
 73
   347
 74
   347
  0
VERTEX
  5
466
330
92
100
AcDbEntity
  8
Form8
100
AcDbFaceRecord
 10
0.0
 20
0.0
 30
0.0
 70
   128
 71
   318
 72
   349
 73
   347
 74
   347
  0
VERTEX
  5
467
330
92
100
AcDbEntity
  8
Form8
100
AcDbFaceRecord
 10
0.0
 20
0.0
 30
0.0
 70
   128
 71
   318
 72
   319
 73
   351
 74
   351
  0
VERTEX
  5
468
330
92
100
AcDbEntity
  8
Form8
100
AcDbFaceRecord
 10
0.0
 20
0.0
 30
0.0
 70
   128
 71
   318
 72
   351
 73
   349
 74
   349
  0
VERTEX
  5
469
330
92
100
AcDbEntity
  8
Form8
100
AcDbFaceRecord
 10
0.0
 20
0.0
 30
0.0
 70
   128
 71
   319
 72
   320
 73
   353
 74
   353
  0
VERTEX
  5
46A
330
92
100
AcDbEntity
  8
Form8
100
AcDbFaceRecord
 10
0.0
 20
0.0
 30
0.0
 70
   128
 71
   319
 72
   353
 73
   351
 74
   351
  0
VERTEX
  5
46B
330
92
100
AcDbEntity
  8
Form8
100
AcDbFaceRecord
 10
0.0
 20
0.0
 30
0.0
 70
   128
 71
   320
 72
   321
 73
   355
 74
   355
  0
VERTEX
  5
46C
330
92
100
AcDbEntity
  8
Form8
100
AcDbFaceRecord
 10
0.0
 20
0.0
 30
0.0
 70
   128
 71
   320
 72
   355
 73
   353
 74
   353
  0
VERTEX
  5
46D
330
92
100
AcDbEntity
  8
Form8
100
AcDbFaceRecord
 10
0.0
 20
0.0
 30
0.0
 70
   128
 71
   321
 72
   322
 73
   357
 74
   357
  0
VERTEX
  5
46E
330
92
100
AcDbEntity
  8
Form8
100
AcDbFaceRecord
 10
0.0
 20
0.0
 30
0.0
 70
   128
 71
   321
 72
   357
 73
   355
 74
   355
  0
VERTEX
  5
46F
330
92
100
AcDbEntity
  8
Form8
100
AcDbFaceRecord
 10
0.0
 20
0.0
 30
0.0
 70
   128
 71
   322
 72
   323
 73
   359
 74
   359
  0
VERTEX
  5
470
330
92
100
AcDbEntity
  8
Form8
100
AcDbFaceRecord
 10
0.0
 20
0.0
 30
0.0
 70
   128
 71
   322
 72
   359
 73
   357
 74
   357
  0
VERTEX
  5
471
330
92
100
AcDbEntity
  8
Form8
100
AcDbFaceRecord
 10
0.0
 20
0.0
 30
0.0
 70
   128
 71
   323
 72
   324
 73
   361
 74
   361
  0
VERTEX
  5
472
330
92
100
AcDbEntity
  8
Form8
100
AcDbFaceRecord
 10
0.0
 20
0.0
 30
0.0
 70
   128
 71
   323
 72
   361
 73
   359
 74
   359
  0
VERTEX
  5
473
330
92
100
AcDbEntity
  8
Form8
100
AcDbFaceRecord
 10
0.0
 20
0.0
 30
0.0
 70
   128
 71
   324
 72
   325
 73
   363
 74
   363
  0
VERTEX
  5
474
330
92
100
AcDbEntity
  8
Form8
100
AcDbFaceRecord
 10
0.0
 20
0.0
 30
0.0
 70
   128
 71
   324
 72
   363
 73
   361
 74
   361
  0
VERTEX
  5
475
330
92
100
AcDbEntity
  8
Form8
100
AcDbFaceRecord
 10
0.0
 20
0.0
 30
0.0
 70
   128
 71
   325
 72
   326
 73
   365
 74
   365
  0
VERTEX
  5
476
330
92
100
AcDbEntity
  8
Form8
100
AcDbFaceRecord
 10
0.0
 20
0.0
 30
0.0
 70
   128
 71
   325
 72
   365
 73
   363
 74
   363
  0
VERTEX
  5
477
330
92
100
AcDbEntity
  8
Form8
100
AcDbFaceRecord
 10
0.0
 20
0.0
 30
0.0
 70
   128
 71
   326
 72
   327
 73
   367
 74
   367
  0
VERTEX
  5
478
330
92
100
AcDbEntity
  8
Form8
100
AcDbFaceRecord
 10
0.0
 20
0.0
 30
0.0
 70
   128
 71
   326
 72
   367
 73
   365
 74
   365
  0
VERTEX
  5
479
330
92
100
AcDbEntity
  8
Form8
100
AcDbFaceRecord
 10
0.0
 20
0.0
 30
0.0
 70
   128
 71
   327
 72
   328
 73
   369
 74
   369
  0
VERTEX
  5
47A
330
92
100
AcDbEntity
  8
Form8
100
AcDbFaceRecord
 10
0.0
 20
0.0
 30
0.0
 70
   128
 71
   327
 72
   369
 73
   367
 74
   367
  0
VERTEX
  5
47B
330
92
100
AcDbEntity
  8
Form8
100
AcDbFaceRecord
 10
0.0
 20
0.0
 30
0.0
 70
   128
 71
   328
 72
   307
 73
   302
 74
   302
  0
VERTEX
  5
47C
330
92
100
AcDbEntity
  8
Form8
100
AcDbFaceRecord
 10
0.0
 20
0.0
 30
0.0
 70
   128
 71
   328
 72
   302
 73
   369
 74
   369
  0
VERTEX
  5
47D
330
92
100
AcDbEntity
  8
Form8
100
AcDbFaceRecord
 10
0.0
 20
0.0
 30
0.0
 70
   128
 71
   271
 72
   274
 73
   265
 74
   265
  0
VERTEX
  5
47E
330
92
100
AcDbEntity
  8
Form8
100
AcDbFaceRecord
 10
0.0
 20
0.0
 30
0.0
 70
   128
 71
   268
 72
   265
 73
   274
 74
   274
  0
VERTEX
  5
47F
330
92
100
AcDbEntity
  8
Form8
100
AcDbFaceRecord
 10
0.0
 20
0.0
 30
0.0
 70
   128
 71
   274
 72
   298
 73
   268
 74
   268
  0
VERTEX
  5
480
330
92
100
AcDbEntity
  8
Form8
100
AcDbFaceRecord
 10
0.0
 20
0.0
 30
0.0
 70
   128
 71
   298
 72
   301
 73
   304
 74
   304
  0
VERTEX
  5
481
330
92
100
AcDbEntity
  8
Form8
100
AcDbFaceRecord
 10
0.0
 20
0.0
 30
0.0
 70
   128
 71
   304
 72
   305
 73
   298
 74
   298
  0
VERTEX
  5
482
330
92
100
AcDbEntity
  8
Form8
100
AcDbFaceRecord
 10
0.0
 20
0.0
 30
0.0
 70
   128
 71
   298
 72
   305
 73
   268
 74
   268
  0
VERTEX
  5
483
330
92
100
AcDbEntity
  8
Form8
100
AcDbFaceRecord
 10
0.0
 20
0.0
 30
0.0
 70
   128
 71
   289
 72
   280
 73
   281
 74
   281
  0
VERTEX
  5
484
330
92
100
AcDbEntity
  8
Form8
100
AcDbFaceRecord
 10
0.0
 20
0.0
 30
0.0
 70
   128
 71
   287
 72
   282
 73
   283
 74
   283
  0
VERTEX
  5
485
330
92
100
AcDbEntity
  8
Form8
100
AcDbFaceRecord
 10
0.0
 20
0.0
 30
0.0
 70
   128
 71
   281
 72
   282
 73
   289
 74
   289
  0
VERTEX
  5
486
330
92
100
AcDbEntity
  8
Form8
100
AcDbFaceRecord
 10
0.0
 20
0.0
 30
0.0
 70
   128
 71
   279
 72
   280
 73
   291
 74
   291
  0
VERTEX
  5
487
330
92
100
AcDbEntity
  8
Form8
100
AcDbFaceRecord
 10
0.0
 20
0.0
 30
0.0
 70
   128
 71
   276
 72
   277
 73
   293
 74
   293
  0
VERTEX
  5
488
330
92
100
AcDbEntity
  8
Form8
100
AcDbFaceRecord
 10
0.0
 20
0.0
 30
0.0
 70
   128
 71
   275
 72
   276
 73
   294
 74
   294
  0
VERTEX
  5
489
330
92
100
AcDbEntity
  8
Form8
100
AcDbFaceRecord
 10
0.0
 20
0.0
 30
0.0
 70
   128
 71
   292
 72
   278
 73
   279
 74
   279
  0
VERTEX
  5
48A
330
92
100
AcDbEntity
  8
Form8
100
AcDbFaceRecord
 10
0.0
 20
0.0
 30
0.0
 70
   128
 71
   278
 72
   293
 73
   277
 74
   277
  0
VERTEX
  5
48B
330
92
100
AcDbEntity
  8
Form8
100
AcDbFaceRecord
 10
0.0
 20
0.0
 30
0.0
 70
   128
 71
   272
 72
   275
 73
   296
 74
   296
  0
VERTEX
  5
48C
330
92
100
AcDbEntity
  8
Form8
100
AcDbFaceRecord
 10
0.0
 20
0.0
 30
0.0
 70
   128
 71
   284
 72
   287
 73
   283
 74
   283
  0
VERTEX
  5
48D
330
92
100
AcDbEntity
  8
Form8
100
AcDbFaceRecord
 10
0.0
 20
0.0
 30
0.0
 70
   128
 71
   286
 72
   287
 73
   284
 74
   284
  0
VERTEX
  5
48E
330
92
100
AcDbEntity
  8
Form8
100
AcDbFaceRecord
 10
0.0
 20
0.0
 30
0.0
 70
   128
 71
   287
 72
   288
 73
   282
 74
   282
  0
VERTEX
  5
48F
330
92
100
AcDbEntity
  8
Form8
100
AcDbFaceRecord
 10
0.0
 20
0.0
 30
0.0
 70
   128
 71
   290
 72
   280
 73
   289
 74
   289
  0
VERTEX
  5
490
330
92
100
AcDbEntity
  8
Form8
100
AcDbFaceRecord
 10
0.0
 20
0.0
 30
0.0
 70
   128
 71
   282
 72
   288
 73
   289
 74
   289
  0
VERTEX
  5
491
330
92
100
AcDbEntity
  8
Form8
100
AcDbFaceRecord
 10
0.0
 20
0.0
 30
0.0
 70
   128
 71
   290
 72
   291
 73
   280
 74
   280
  0
VERTEX
  5
492
330
92
100
AcDbEntity
  8
Form8
100
AcDbFaceRecord
 10
0.0
 20
0.0
 30
0.0
 70
   128
 71
   293
 72
   278
 73
   292
 74
   292
  0
VERTEX
  5
493
330
92
100
AcDbEntity
  8
Form8
100
AcDbFaceRecord
 10
0.0
 20
0.0
 30
0.0
 70
   128
 71
   294
 72
   276
 73
   293
 74
   293
  0
VERTEX
  5
494
330
92
100
AcDbEntity
  8
Form8
100
AcDbFaceRecord
 10
0.0
 20
0.0
 30
0.0
 70
   128
 71
   275
 72
   295
 73
   296
 74
   296
  0
VERTEX
  5
495
330
92
100
AcDbEntity
  8
Form8
100
AcDbFaceRecord
 10
0.0
 20
0.0
 30
0.0
 70
   128
 71
   275
 72
   294
 73
   295
 74
   295
  0
VERTEX
  5
496
330
92
100
AcDbEntity
  8
Form8
100
AcDbFaceRecord
 10
0.0
 20
0.0
 30
0.0
 70
   128
 71
   279
 72
   291
 73
   292
 74
   292
  0
VERTEX
  5
497
330
92
100
AcDbEntity
  8
Form8
100
AcDbFaceRecord
 10
0.0
 20
0.0
 30
0.0
 70
   128
 71
   286
 72
   284
 73
   285
 74
   285
  0
SEQEND
  5
498
330
92
100
AcDbEntity
  8
Form8
  0
ENDSEC
  0
SECTION
  2
OBJECTS
  0
DICTIONARY
  5
C
330
0
100
AcDbDictionary
281
     1
  3
ACAD_BACKGROUND
350
49C
  3
ACAD_COLOR
350
6A
  3
ACAD_GROUP
350
D
  3
ACAD_LAYOUT
350
69
  3
ACAD_MATERIAL
350
10
  3
ACAD_MLEADERSTYLE
350
6D
  3
ACAD_MLINESTYLE
350
66
  3
ACAD_PLOTSETTINGS
350
68
  3
ACAD_PLOTSTYLENAME
350
E
  3
ACAD_SCALELIST
350
3A
  3
ACAD_TABLESTYLE
350
6B
  3
ACAD_VISUALSTYLE
350
29
  3
ACDB_RECOMPOSE_DATA
350
4B1
  3
AcDbVariableDictionary
350
4A7
  0
DICTIONARY
  5
49F
330
5C
100
AcDbDictionary
280
     1
281
     1
  3
ADSK_XREC_LAYER_RECONCILED
360
4A0
  0
DICTIONARY
  5
4A1
330
78
100
AcDbDictionary
280
     1
281
     1
  3
ADSK_XREC_LAYER_RECONCILED
360
4A2
  0
DICTIONARY
  5
4A3
330
7B
100
AcDbDictionary
280
     1
281
     1
  3
ADSK_XREC_LAYER_RECONCILED
360
4A4
  0
DICTIONARY
  5
4A5
330
91
100
AcDbDictionary
280
     1
281
     1
  3
ADSK_XREC_LAYER_RECONCILED
360
4A6
  0
DICTIONARY
  5
49C
102
{ACAD_REACTORS
330
C
102
}
330
C
100
AcDbDictionary
281
     1
  0
DICTIONARY
  5
6A
102
{ACAD_REACTORS
330
C
102
}
330
C
100
AcDbDictionary
281
     1
  0
DICTIONARY
  5
D
102
{ACAD_REACTORS
330
C
102
}
330
C
100
AcDbDictionary
281
     1
  0
DICTIONARY
  5
69
102
{ACAD_REACTORS
330
C
102
}
330
C
100
AcDbDictionary
281
     1
  3
Model
350
77
  3
Présentation1
350
73
  0
DICTIONARY
  5
10
102
{ACAD_REACTORS
330
C
102
}
330
C
100
AcDbDictionary
281
     1
  3
ByBlock
350
19
  3
ByLayer
350
11
  3
Global
350
21
  0
DICTIONARY
  5
6D
102
{ACAD_REACTORS
330
C
102
}
330
C
100
AcDbDictionary
281
     1
  3
Standard
350
6E
  0
DICTIONARY
  5
66
102
{ACAD_REACTORS
330
C
102
}
330
C
100
AcDbDictionary
281
     1
  3
Standard
350
67
  0
DICTIONARY
  5
68
102
{ACAD_REACTORS
330
C
102
}
330
C
100
AcDbDictionary
281
     1
  0
ACDBDICTIONARYWDFLT
  5
E
102
{ACAD_REACTORS
330
C
102
}
330
C
100
AcDbDictionary
281
     1
  3
Normal
350
F
100
AcDbDictionaryWithDefault
340
F
  0
DICTIONARY
  5
3A
102
{ACAD_REACTORS
330
C
102
}
330
C
100
AcDbDictionary
281
     1
  3
A0
350
3B
  3
A1
350
3C
  3
A2
350
3D
  3
A3
350
3E
  3
A4
350
3F
  3
A5
350
40
  3
A6
350
41
  3
A7
350
42
  3
A8
350
43
  3
A9
350
44
  3
B0
350
45
  3
B1
350
46
  3
B2
350
47
  3
B3
350
48
  3
B4
350
49
  3
B5
350
4A
  3
B6
350
4B
  3
B7
350
4C
  3
B8
350
4D
  3
B9
350
4E
  3
C0
350
4F
  3
C1
350
50
  3
C2
350
51
  3
C3
350
52
  3
C4
350
53
  3
C5
350
54
  3
C6
350
55
  3
C7
350
56
  3
C8
350
57
  3
C9
350
58
  3
D0
350
59
  3
D1
350
5A
  3
D2
350
5B
  0
DICTIONARY
  5
6B
102
{ACAD_REACTORS
330
C
102
}
330
C
100
AcDbDictionary
281
     1
  3
Standard
350
6C
  0
DICTIONARY
  5
29
102
{ACAD_REACTORS
330
C
102
}
330
C
100
AcDbDictionary
281
     1
  3
2dWireframe
350
2F
  3
3D Hidden
350
31
  3
3dWireframe
350
30
  3
Basic
350
2E
  3
Brighten
350
35
  3
ColorChange
350
39
  3
Conceptual
350
32
  3
Dim
350
34
  3
Facepattern
350
38
  3
Flat
350
2A
  3
FlatWithEdges
350
2B
  3
Gouraud
350
2C
  3
GouraudWithEdges
350
2D
  3
Linepattern
350
37
  3
Realistic
350
33
  3
Thicken
350
36
  0
XRECORD
  5
4B1
102
{ACAD_REACTORS
330
C
102
}
330
C
100
AcDbXrecord
280
     1
 90
        1
330
6C
  0
DICTIONARY
  5
4A7
102
{ACAD_REACTORS
330
C
102
}
330
C
100
AcDbDictionary
281
     1
  3
CANNOSCALE
350
4AB
  3
CMLEADERSTYLE
350
4A9
  3
CTABLESTYLE
350
4A8
  3
LAYEREVAL
350
4AD
  3
LAYERNOTIFY
350
4AE
  3
LIGHTINGUNITS
350
4AC
  3
MSLTSCALE
350
4AA
  0
XRECORD
  5
4A0
102
{ACAD_REACTORS
330
49F
102
}
330
49F
100
AcDbXrecord
280
     1
290
     1
  0
XRECORD
  5
4A2
102
{ACAD_REACTORS
330
4A1
102
}
330
4A1
100
AcDbXrecord
280
     1
290
     1
  0
XRECORD
  5
4A4
102
{ACAD_REACTORS
330
4A3
102
}
330
4A3
100
AcDbXrecord
280
     1
290
     1
  0
XRECORD
  5
4A6
102
{ACAD_REACTORS
330
4A5
102
}
330
4A5
100
AcDbXrecord
280
     1
290
     1
  0
LAYOUT
  5
77
102
{ACAD_REACTORS
330
69
102
}
330
69
100
AcDbPlotSettings
  1

  2
\\3DFR-02263A6533\EPSON Stylus Photo R300 Series
  4

  6

 40
0.0
 41
0.0
 42
0.0
 43
0.0
 44
0.0
 45
0.0
 46
0.0
 47
0.0
 48
0.0
 49
0.0
140
0.0
141
0.0
142
1.0
143
1.0
 70
  1712
 72
     0
 73
     0
 74
     0
  7

 75
     0
147
1.0
 76
     0
 77
     2
 78
   300
148
0.0
149
0.0
100
AcDbLayout
  1
Model
 70
     1
 71
     0
 10
0.0
 20
0.0
 11
12.0
 21
9.0
 12
0.0
 22
0.0
 32
0.0
 14
0.0
 24
0.0
 34
0.0
 15
0.0
 25
0.0
 35
0.0
146
0.0
 13
0.0
 23
0.0
 33
0.0
 16
1.0
 26
0.0
 36
0.0
 17
0.0
 27
1.0
 37
0.0
 76
     0
330
74
331
49B
  0
LAYOUT
  5
73
102
{ACAD_REACTORS
330
69
102
}
330
69
100
AcDbPlotSettings
  1

  2
\\3DFR-02263A6533\EPSON Stylus Photo R300 Series
  4

  6

 40
0.0
 41
0.0
 42
0.0
 43
0.0
 44
0.0
 45
0.0
 46
0.0
 47
0.0
 48
0.0
 49
0.0
140
0.0
141
0.0
142
1.0
143
1.0
 70
   688
 72
     0
 73
     0
 74
     5
  7

 75
    16
147
1.0
 76
     0
 77
     2
 78
   300
148
0.0
149
0.0
100
AcDbLayout
  1
Présentation1
 70
     1
 71
     1
 10
0.0
 20
0.0
 11
12.0
 21
9.0
 12
0.0
 22
0.0
 32
0.0
 14
1.000000000000000E+20
 24
1.000000000000000E+20
 34
1.000000000000000E+20
 15
-1.000000000000000E+20
 25
-1.000000000000000E+20
 35
-1.000000000000000E+20
146
0.0
 13
0.0
 23
0.0
 33
0.0
 16
1.0
 26
0.0
 36
0.0
 17
0.0
 27
1.0
 37
0.0
 76
     0
330
70
  0
MATERIAL
  5
19
102
{ACAD_XDICTIONARY
360
1A
102
}
102
{ACAD_REACTORS
330
10
102
}
330
10
100
AcDbMaterial
  1
ByBlock
 72
     0
 43
0.0208333333333333
 43
0.0
 43
0.0
 43
0.0
 43
0.0
 43
0.0208333333333333
 43
0.0
 43
0.0
 43
0.0
 43
0.0
 43
1.0
 43
0.0
 43
0.0
 43
0.0
 43
0.0
 43
1.0
 77
     0
 47
0.0208333333333333
 47
0.0
 47
0.0
 47
0.0
 47
0.0
 47
0.0208333333333333
 47
0.0
 47
0.0
 47
0.0
 47
0.0
 47
1.0
 47
0.0
 47
0.0
 47
0.0
 47
0.0
 47
1.0
171
     0
 49
0.0208333333333333
 49
0.0
 49
0.0
 49
0.0
 49
0.0
 49
0.0208333333333333
 49
0.0
 49
0.0
 49
0.0
 49
0.0
 49
1.0
 49
0.0
 49
0.0
 49
0.0
 49
0.0
 49
1.0
175
     0
142
0.0208333333333333
142
0.0
142
0.0
142
0.0
142
0.0
142
0.0208333333333333
142
0.0
142
0.0
142
0.0
142
0.0
142
1.0
142
0.0
142
0.0
142
0.0
142
0.0
142
1.0
179
     0
144
0.0208333333333333
144
0.0
144
0.0
144
0.0
144
0.0
144
0.0208333333333333
144
0.0
144
0.0
144
0.0
144
0.0
144
1.0
144
0.0
144
0.0
144
0.0
144
0.0
144
1.0
147
0.0208333333333333
147
0.0
147
0.0
147
0.0
147
0.0
147
0.0208333333333333
147
0.0
147
0.0
147
0.0
147
0.0
147
1.0
147
0.0
147
0.0
147
0.0
147
0.0
147
1.0
  0
MATERIAL
  5
11
102
{ACAD_XDICTIONARY
360
12
102
}
102
{ACAD_REACTORS
330
10
102
}
330
10
100
AcDbMaterial
  1
ByLayer
 72
     0
 43
0.0208333333333333
 43
0.0
 43
0.0
 43
0.0
 43
0.0
 43
0.0208333333333333
 43
0.0
 43
0.0
 43
0.0
 43
0.0
 43
1.0
 43
0.0
 43
0.0
 43
0.0
 43
0.0
 43
1.0
 77
     0
 47
0.0208333333333333
 47
0.0
 47
0.0
 47
0.0
 47
0.0
 47
0.0208333333333333
 47
0.0
 47
0.0
 47
0.0
 47
0.0
 47
1.0
 47
0.0
 47
0.0
 47
0.0
 47
0.0
 47
1.0
171
     0
 49
0.0208333333333333
 49
0.0
 49
0.0
 49
0.0
 49
0.0
 49
0.0208333333333333
 49
0.0
 49
0.0
 49
0.0
 49
0.0
 49
1.0
 49
0.0
 49
0.0
 49
0.0
 49
0.0
 49
1.0
175
     0
142
0.0208333333333333
142
0.0
142
0.0
142
0.0
142
0.0
142
0.0208333333333333
142
0.0
142
0.0
142
0.0
142
0.0
142
1.0
142
0.0
142
0.0
142
0.0
142
0.0
142
1.0
179
     0
144
0.0208333333333333
144
0.0
144
0.0
144
0.0
144
0.0
144
0.0208333333333333
144
0.0
144
0.0
144
0.0
144
0.0
144
1.0
144
0.0
144
0.0
144
0.0
144
0.0
144
1.0
147
0.0208333333333333
147
0.0
147
0.0
147
0.0
147
0.0
147
0.0208333333333333
147
0.0
147
0.0
147
0.0
147
0.0
147
1.0
147
0.0
147
0.0
147
0.0
147
0.0
147
1.0
  0
MATERIAL
  5
21
102
{ACAD_XDICTIONARY
360
22
102
}
102
{ACAD_REACTORS
330
10
102
}
330
10
100
AcDbMaterial
  1
Global
 72
     0
 43
0.0208333333333333
 43
0.0
 43
0.0
 43
0.0
 43
0.0
 43
0.0208333333333333
 43
0.0
 43
0.0
 43
0.0
 43
0.0
 43
1.0
 43
0.0
 43
0.0
 43
0.0
 43
0.0
 43
1.0
 77
     0
 47
0.0208333333333333
 47
0.0
 47
0.0
 47
0.0
 47
0.0
 47
0.0208333333333333
 47
0.0
 47
0.0
 47
0.0
 47
0.0
 47
1.0
 47
0.0
 47
0.0
 47
0.0
 47
0.0
 47
1.0
171
     0
 49
0.0208333333333333
 49
0.0
 49
0.0
 49
0.0
 49
0.0
 49
0.0208333333333333
 49
0.0
 49
0.0
 49
0.0
 49
0.0
 49
1.0
 49
0.0
 49
0.0
 49
0.0
 49
0.0
 49
1.0
175
     0
142
0.0208333333333333
142
0.0
142
0.0
142
0.0
142
0.0
142
0.0208333333333333
142
0.0
142
0.0
142
0.0
142
0.0
142
1.0
142
0.0
142
0.0
142
0.0
142
0.0
142
1.0
179
     0
144
0.0208333333333333
144
0.0
144
0.0
144
0.0
144
0.0
144
0.0208333333333333
144
0.0
144
0.0
144
0.0
144
0.0
144
1.0
144
0.0
144
0.0
144
0.0
144
0.0
144
1.0
147
0.0208333333333333
147
0.0
147
0.0
147
0.0
147
0.0
147
0.0208333333333333
147
0.0
147
0.0
147
0.0
147
0.0
147
1.0
147
0.0
147
0.0
147
0.0
147
0.0
147
1.0
  0
MLEADERSTYLE
  5
6E
102
{ACAD_REACTORS
330
6D
102
}
330
6D
100
AcDbMLeaderStyle
170
     2
171
     1
172
     0
 90
        2
 40
0.0
 41
0.0
173
     1
 91
-1056964608
340
62
 92
       -2
290
     1
 42
0.09
291
     1
 43
0.36
  3
Standard
 44
0.18
300

342
5D
174
     1
178
     6
175
     1
176
     0
 93
-1056964608
 45
0.18
292
     0
297
     0
 46
0.18
 94
-1056964608
 47
1.0
 49
1.0
140
1.0
293
     1
141
0.0
294
     1
177
     0
142
1.0
295
     0
296
     0
143
0.125
1001
ACAD_MLEADERVER
1070
     2
  0
MLINESTYLE
  5
67
102
{ACAD_REACTORS
330
66
102
}
330
66
100
AcDbMlineStyle
  2
STANDARD
 70
     0
  3

 62
   256
 51
90.0
 52
90.0
 71
     2
 49
0.5
 62
   256
  6
BYLAYER
 49
-0.5
 62
   256
  6
BYLAYER
  0
ACDBPLACEHOLDER
  5
F
102
{ACAD_REACTORS
330
E
102
}
330
E
  0
SCALE
  5
3B
102
{ACAD_REACTORS
330
3A
102
}
330
3A
100
AcDbScale
 70
     0
300
1:1
140
1.0
141
1.0
290
     1
  0
SCALE
  5
3C
102
{ACAD_REACTORS
330
3A
102
}
330
3A
100
AcDbScale
 70
     0
300
1:2
140
1.0
141
2.0
290
     0
  0
SCALE
  5
3D
102
{ACAD_REACTORS
330
3A
102
}
330
3A
100
AcDbScale
 70
     0
300
1:4
140
1.0
141
4.0
290
     0
  0
SCALE
  5
3E
102
{ACAD_REACTORS
330
3A
102
}
330
3A
100
AcDbScale
 70
     0
300
1:5
140
1.0
141
5.0
290
     0
  0
SCALE
  5
3F
102
{ACAD_REACTORS
330
3A
102
}
330
3A
100
AcDbScale
 70
     0
300
1:8
140
1.0
141
8.0
290
     0
  0
SCALE
  5
40
102
{ACAD_REACTORS
330
3A
102
}
330
3A
100
AcDbScale
 70
     0
300
1:10
140
1.0
141
10.0
290
     0
  0
SCALE
  5
41
102
{ACAD_REACTORS
330
3A
102
}
330
3A
100
AcDbScale
 70
     0
300
1:16
140
1.0
141
16.0
290
     0
  0
SCALE
  5
42
102
{ACAD_REACTORS
330
3A
102
}
330
3A
100
AcDbScale
 70
     0
300
1:20
140
1.0
141
20.0
290
     0
  0
SCALE
  5
43
102
{ACAD_REACTORS
330
3A
102
}
330
3A
100
AcDbScale
 70
     0
300
1:30
140
1.0
141
30.0
290
     0
  0
SCALE
  5
44
102
{ACAD_REACTORS
330
3A
102
}
330
3A
100
AcDbScale
 70
     0
300
1:40
140
1.0
141
40.0
290
     0
  0
SCALE
  5
45
102
{ACAD_REACTORS
330
3A
102
}
330
3A
100
AcDbScale
 70
     0
300
1:50
140
1.0
141
50.0
290
     0
  0
SCALE
  5
46
102
{ACAD_REACTORS
330
3A
102
}
330
3A
100
AcDbScale
 70
     0
300
1:100
140
1.0
141
100.0
290
     0
  0
SCALE
  5
47
102
{ACAD_REACTORS
330
3A
102
}
330
3A
100
AcDbScale
 70
     0
300
2:1
140
2.0
141
1.0
290
     0
  0
SCALE
  5
48
102
{ACAD_REACTORS
330
3A
102
}
330
3A
100
AcDbScale
 70
     0
300
4:1
140
4.0
141
1.0
290
     0
  0
SCALE
  5
49
102
{ACAD_REACTORS
330
3A
102
}
330
3A
100
AcDbScale
 70
     0
300
8:1
140
8.0
141
1.0
290
     0
  0
SCALE
  5
4A
102
{ACAD_REACTORS
330
3A
102
}
330
3A
100
AcDbScale
 70
     0
300
10:1
140
10.0
141
1.0
290
     0
  0
SCALE
  5
4B
102
{ACAD_REACTORS
330
3A
102
}
330
3A
100
AcDbScale
 70
     0
300
100:1
140
100.0
141
1.0
290
     0
  0
SCALE
  5
4C
102
{ACAD_REACTORS
330
3A
102
}
330
3A
100
AcDbScale
 70
     0
300
1/128" = 1'-0"
140
0.0078125
141
12.0
290
     0
  0
SCALE
  5
4D
102
{ACAD_REACTORS
330
3A
102
}
330
3A
100
AcDbScale
 70
     0
300
1/64" = 1'-0"
140
0.015625
141
12.0
290
     0
  0
SCALE
  5
4E
102
{ACAD_REACTORS
330
3A
102
}
330
3A
100
AcDbScale
 70
     0
300
1/32" = 1'-0"
140
0.03125
141
12.0
290
     0
  0
SCALE
  5
4F
102
{ACAD_REACTORS
330
3A
102
}
330
3A
100
AcDbScale
 70
     0
300
1/16" = 1'-0"
140
0.0625
141
12.0
290
     0
  0
SCALE
  5
50
102
{ACAD_REACTORS
330
3A
102
}
330
3A
100
AcDbScale
 70
     0
300
3/32" = 1'-0"
140
0.09375
141
12.0
290
     0
  0
SCALE
  5
51
102
{ACAD_REACTORS
330
3A
102
}
330
3A
100
AcDbScale
 70
     0
300
1/8" = 1'-0"
140
0.125
141
12.0
290
     0
  0
SCALE
  5
52
102
{ACAD_REACTORS
330
3A
102
}
330
3A
100
AcDbScale
 70
     0
300
3/16" = 1'-0"
140
0.1875
141
12.0
290
     0
  0
SCALE
  5
53
102
{ACAD_REACTORS
330
3A
102
}
330
3A
100
AcDbScale
 70
     0
300
1/4" = 1'-0"
140
0.25
141
12.0
290
     0
  0
SCALE
  5
54
102
{ACAD_REACTORS
330
3A
102
}
330
3A
100
AcDbScale
 70
     0
300
3/8" = 1'-0"
140
0.375
141
12.0
290
     0
  0
SCALE
  5
55
102
{ACAD_REACTORS
330
3A
102
}
330
3A
100
AcDbScale
 70
     0
300
1/2" = 1'-0"
140
0.5
141
12.0
290
     0
  0
SCALE
  5
56
102
{ACAD_REACTORS
330
3A
102
}
330
3A
100
AcDbScale
 70
     0
300
3/4" = 1'-0"
140
0.75
141
12.0
290
     0
  0
SCALE
  5
57
102
{ACAD_REACTORS
330
3A
102
}
330
3A
100
AcDbScale
 70
     0
300
1" = 1'-0"
140
1.0
141
12.0
290
     0
  0
SCALE
  5
58
102
{ACAD_REACTORS
330
3A
102
}
330
3A
100
AcDbScale
 70
     0
300
1-1/2" = 1'-0"
140
1.5
141
12.0
290
     0
  0
SCALE
  5
59
102
{ACAD_REACTORS
330
3A
102
}
330
3A
100
AcDbScale
 70
     0
300
3" = 1'-0"
140
3.0
141
12.0
290
     0
  0
SCALE
  5
5A
102
{ACAD_REACTORS
330
3A
102
}
330
3A
100
AcDbScale
 70
     0
300
6" = 1'-0"
140
6.0
141
12.0
290
     0
  0
SCALE
  5
5B
102
{ACAD_REACTORS
330
3A
102
}
330
3A
100
AcDbScale
 70
     0
300
1'-0" = 1'-0"
140
12.0
141
12.0
290
     0
  0
TABLESTYLE
  5
6C
102
{ACAD_XDICTIONARY
360
4AF
102
}
102
{ACAD_REACTORS
330
6B
102
}
330
6B
100
AcDbTableStyle
  3
Standard
 70
     0
 71
     0
 40
0.06
 41
0.06
280
     0
281
     0
  7
Standard
140
0.18
170
     2
 62
     0
 63
     7
283
     0
 90
      512
 91
        0
  1

274
    -2
284
     1
 64
     0
275
    -2
285
     1
 65
     0
276
    -2
286
     1
 66
     0
277
    -2
287
     1
 67
     0
278
    -2
288
     1
 68
     0
279
    -2
289
     1
 69
     0
  7
Standard
140
0.25
170
     5
 62
     0
 63
     7
283
     0
 90
      512
 91
        0
  1

274
    -2
284
     1
 64
     0
275
    -2
285
     1
 65
     0
276
    -2
286
     1
 66
     0
277
    -2
287
     1
 67
     0
278
    -2
288
     1
 68
     0
279
    -2
289
     1
 69
     0
  7
Standard
140
0.18
170
     5
 62
     0
 63
     7
283
     0
 90
      512
 91
        0
  1

274
    -2
284
     1
 64
     0
275
    -2
285
     1
 65
     0
276
    -2
286
     1
 66
     0
277
    -2
287
     1
 67
     0
278
    -2
288
     1
 68
     0
279
    -2
289
     1
 69
     0
  0
VISUALSTYLE
  5
2F
102
{ACAD_REACTORS
330
29
102
}
330
29
100
AcDbVisualStyle
  2
2dWireframe
 70
     4
 71
     0
 72
     2
 73
     0
 90
        0
 40
-0.6
 41
-30.0
 62
     5
 63
     7
421
 16777215
 74
     1
 91
        4
 64
     7
 65
   257
 75
     1
175
     1
 42
1.0
 92
        0
 66
   257
 43
1.0
 76
     1
 77
     6
 78
     2
 67
     7
 79
     5
170
     0
171
     0
290
     0
174
     0
 93
        1
 44
0.0
173
     0
291
     0
 45
0.0
  0
VISUALSTYLE
  5
31
102
{ACAD_REACTORS
330
29
102
}
330
29
100
AcDbVisualStyle
  2
3D Hidden
 70
     6
 71
     1
 72
     2
 73
     2
 90
        0
 40
-0.6
 41
-30.0
 62
     5
 63
     7
421
 16777215
 74
     2
 91
        2
 64
     7
 65
   257
 75
     2
175
     1
 42
40.0
 92
        0
 66
   257
 43
1.0
 76
     1
 77
     6
 78
     2
 67
     7
 79
     3
170
     0
171
     0
290
     0
174
     0
 93
        1
 44
0.0
173
     0
291
     0
 45
0.0
  0
VISUALSTYLE
  5
30
102
{ACAD_REACTORS
330
29
102
}
330
29
100
AcDbVisualStyle
  2
3dWireframe
 70
     5
 71
     0
 72
     2
 73
     0
 90
        0
 40
-0.6
 41
-30.0
 62
     5
 63
     7
421
 16777215
 74
     1
 91
        4
 64
     7
 65
   257
 75
     1
175
     1
 42
1.0
 92
        0
 66
   257
 43
1.0
 76
     1
 77
     6
 78
     2
 67
     7
 79
     5
170
     0
171
     0
290
     0
174
     0
 93
        1
 44
0.0
173
     0
291
     0
 45
0.0
  0
VISUALSTYLE
  5
2E
102
{ACAD_REACTORS
330
29
102
}
330
29
100
AcDbVisualStyle
  2
Basic
 70
     7
 71
     1
 72
     0
 73
     1
 90
        0
 40
-0.6
 41
-30.0
 62
     5
 63
     7
421
 16777215
 74
     0
 91
        4
 64
     7
 65
   257
 75
     1
175
     1
 42
1.0
 92
        8
 66
     7
 43
1.0
 76
     1
 77
     6
 78
     2
 67
     7
 79
     5
170
     0
171
     0
290
     0
174
     0
 93
        1
 44
0.0
173
     0
291
     1
 45
0.0
  0
VISUALSTYLE
  5
35
102
{ACAD_REACTORS
330
29
102
}
330
29
100
AcDbVisualStyle
  2
Brighten
 70
    12
 71
     2
 72
     2
 73
     0
 90
        0
 40
-0.6
 41
-30.0
 62
     5
 63
     7
421
 16777215
 74
     1
 91
        4
 64
     7
 65
   257
 75
     1
175
     1
 42
1.0
 92
        8
 66
     7
 43
1.0
 76
     1
 77
     6
 78
     2
 67
     7
 79
     5
170
     0
171
     0
290
     0
174
     0
 93
        1
 44
50.0
173
     0
291
     1
 45
0.0
  0
VISUALSTYLE
  5
39
102
{ACAD_REACTORS
330
29
102
}
330
29
100
AcDbVisualStyle
  2
ColorChange
 70
    16
 71
     2
 72
     2
 73
     3
 90
        0
 40
-0.6
 41
-30.0
 62
     5
 63
     8
421
  8421504
 74
     1
 91
        4
 64
     7
 65
   257
 75
     1
175
     1
 42
1.0
 92
        8
 66
     8
424
  8421504
 43
1.0
 76
     1
 77
     6
 78
     2
 67
     7
 79
     5
170
     0
171
     0
290
     0
174
     0
 93
        1
 44
0.0
173
     0
291
     1
 45
0.0
  0
VISUALSTYLE
  5
32
102
{ACAD_REACTORS
330
29
102
}
330
29
100
AcDbVisualStyle
  2
Conceptual
 70
     9
 71
     3
 72
     2
 73
     0
 90
        0
 40
-0.6
 41
-30.0
 62
     5
 63
     7
421
 16777215
 74
     2
 91
        2
 64
     7
 65
   257
 75
     1
175
     1
 42
40.0
 92
        8
 66
     7
 43
1.0
 76
     1
 77
     6
 78
     2
 67
     7
 79
     3
170
     0
171
     0
290
     0
174
     0
 93
        1
 44
0.0
173
     0
291
     0
 45
0.0
  0
VISUALSTYLE
  5
34
102
{ACAD_REACTORS
330
29
102
}
330
29
100
AcDbVisualStyle
  2
Dim
 70
    11
 71
     2
 72
     2
 73
     0
 90
        0
 40
-0.6
 41
-30.0
 62
     5
 63
     7
421
 16777215
 74
     1
 91
        4
 64
     7
 65
   257
 75
     1
175
     1
 42
1.0
 92
        8
 66
     7
 43
1.0
 76
     1
 77
     6
 78
     2
 67
     7
 79
     5
170
     0
171
     0
290
     0
174
     0
 93
        1
 44
-50.0
173
     0
291
     1
 45
0.0
  0
VISUALSTYLE
  5
38
102
{ACAD_REACTORS
330
29
102
}
330
29
100
AcDbVisualStyle
  2
Facepattern
 70
    15
 71
     2
 72
     2
 73
     0
 90
        0
 40
-0.6
 41
-30.0
 62
     5
 63
     7
421
 16777215
 74
     1
 91
        4
 64
     7
 65
   257
 75
     1
175
     1
 42
1.0
 92
        8
 66
     7
 43
1.0
 76
     1
 77
     6
 78
     2
 67
     7
 79
     5
170
     0
171
     0
290
     0
174
     0
 93
        1
 44
0.0
173
     0
291
     1
 45
0.0
  0
VISUALSTYLE
  5
2A
102
{ACAD_REACTORS
330
29
102
}
330
29
100
AcDbVisualStyle
  2
Flat
 70
     0
 71
     2
 72
     1
 73
     1
 90
        2
 40
-0.6
 41
30.0
 62
     5
 63
     7
421
 16777215
 74
     0
 91
        4
 64
     7
 65
   257
 75
     1
175
     1
 42
1.0
 92
        8
 66
     7
 43
1.0
 76
     1
 77
     6
 78
     2
 67
     7
 79
     5
170
     0
171
     0
290
     0
174
     0
 93
       13
 44
0.0
173
     0
291
     1
 45
0.0
  0
VISUALSTYLE
  5
2B
102
{ACAD_REACTORS
330
29
102
}
330
29
100
AcDbVisualStyle
  2
FlatWithEdges
 70
     1
 71
     2
 72
     1
 73
     1
 90
        2
 40
-0.6
 41
30.0
 62
     5
 63
     7
421
 16777215
 74
     1
 91
        4
 64
     7
 65
   257
 75
     1
175
     1
 42
1.0
 92
        0
 66
   257
 43
1.0
 76
     1
 77
     6
 78
     2
 67
     7
 79
     5
170
     0
171
     0
290
     0
174
     0
 93
       13
 44
0.0
173
     0
291
     1
 45
0.0
  0
VISUALSTYLE
  5
2C
102
{ACAD_REACTORS
330
29
102
}
330
29
100
AcDbVisualStyle
  2
Gouraud
 70
     2
 71
     2
 72
     2
 73
     1
 90
        2
 40
-0.6
 41
30.0
 62
     5
 63
     7
421
 16777215
 74
     0
 91
        4
 64
     7
 65
   257
 75
     1
175
     1
 42
1.0
 92
        0
 66
     7
 43
1.0
 76
     1
 77
     6
 78
     2
 67
     7
 79
     5
170
     0
171
     0
290
     0
174
     0
 93
       13
 44
0.0
173
     0
291
     1
 45
0.0
  0
VISUALSTYLE
  5
2D
102
{ACAD_REACTORS
330
29
102
}
330
29
100
AcDbVisualStyle
  2
GouraudWithEdges
 70
     3
 71
     2
 72
     2
 73
     1
 90
        2
 40
-0.6
 41
30.0
 62
     5
 63
     7
421
 16777215
 74
     1
 91
        4
 64
     7
 65
   257
 75
     1
175
     1
 42
1.0
 92
        0
 66
   257
 43
1.0
 76
     1
 77
     6
 78
     2
 67
     7
 79
     5
170
     0
171
     0
290
     0
174
     0
 93
       13
 44
0.0
173
     0
291
     1
 45
0.0
  0
VISUALSTYLE
  5
37
102
{ACAD_REACTORS
330
29
102
}
330
29
100
AcDbVisualStyle
  2
Linepattern
 70
    14
 71
     2
 72
     2
 73
     0
 90
        0
 40
-0.6
 41
-30.0
 62
     5
 63
     7
421
 16777215
 74
     1
 91
        4
 64
     7
 65
   257
 75
     7
175
     7
 42
1.0
 92
        8
 66
     7
 43
1.0
 76
     1
 77
     6
 78
     2
 67
     7
 79
     5
170
     0
171
     0
290
     0
174
     0
 93
        1
 44
0.0
173
     0
291
     1
 45
0.0
  0
VISUALSTYLE
  5
33
102
{ACAD_REACTORS
330
29
102
}
330
29
100
AcDbVisualStyle
  2
Realistic
 70
     8
 71
     2
 72
     2
 73
     0
 90
        0
 40
-0.6
 41
-30.0
 62
     5
 63
     7
421
 16777215
 74
     1
 91
        0
 64
     7
 65
   257
 75
     1
175
     1
 42
1.0
 92
        8
 66
     8
424
  7895160
 43
1.0
 76
     1
 77
     6
 78
     2
 67
     7
 79
     5
170
     0
171
     0
290
     0
174
     0
 93
       13
 44
0.0
173
     0
291
     0
 45
0.0
  0
VISUALSTYLE
  5
36
102
{ACAD_REACTORS
330
29
102
}
330
29
100
AcDbVisualStyle
  2
Thicken
 70
    13
 71
     2
 72
     2
 73
     0
 90
        0
 40
-0.6
 41
-30.0
 62
     5
 63
     7
421
 16777215
 74
     1
 91
        4
 64
     7
 65
   257
 75
     1
175
     1
 42
1.0
 92
       12
 66
     7
 43
1.0
 76
     1
 77
     6
 78
     2
 67
     7
 79
     5
170
     0
171
     0
290
     0
174
     0
 93
        1
 44
0.0
173
     0
291
     1
 45
0.0
  0
DICTIONARYVAR
  5
4AB
102
{ACAD_REACTORS
330
4A7
102
}
330
4A7
100
DictionaryVariables
280
     0
  1
1:1
  0
DICTIONARYVAR
  5
4A9
102
{ACAD_REACTORS
330
4A7
102
}
330
4A7
100
DictionaryVariables
280
     0
  1
STANDARD
  0
DICTIONARYVAR
  5
4A8
102
{ACAD_REACTORS
330
4A7
102
}
330
4A7
100
DictionaryVariables
280
     0
  1
STANDARD
  0
DICTIONARYVAR
  5
4AD
102
{ACAD_REACTORS
330
4A7
102
}
330
4A7
100
DictionaryVariables
280
     0
  1
1
  0
DICTIONARYVAR
  5
4AE
102
{ACAD_REACTORS
330
4A7
102
}
330
4A7
100
DictionaryVariables
280
     0
  1
15
  0
DICTIONARYVAR
  5
4AC
102
{ACAD_REACTORS
330
4A7
102
}
330
4A7
100
DictionaryVariables
280
     0
  1
0
  0
DICTIONARYVAR
  5
4AA
102
{ACAD_REACTORS
330
4A7
102
}
330
4A7
100
DictionaryVariables
280
     0
  1
0
  0
DICTIONARY
  5
1A
330
19
100
AcDbDictionary
280
     1
281
     1
  3
BUMPTILE
360
1C
  3
DIFFUSETILE
360
1B
  3
OPACITYTILE
360
1F
  3
REFLECTIONTILE
360
1E
  3
REFRACTIONTILE
360
20
  3
SPECULARTILE
360
1D
  0
DICTIONARY
  5
12
330
11
100
AcDbDictionary
280
     1
281
     1
  3
BUMPTILE
360
14
  3
DIFFUSETILE
360
13
  3
OPACITYTILE
360
17
  3
REFLECTIONTILE
360
16
  3
REFRACTIONTILE
360
18
  3
SPECULARTILE
360
15
  0
DICTIONARY
  5
22
330
21
100
AcDbDictionary
280
     1
281
     1
  3
BUMPTILE
360
24
  3
DIFFUSETILE
360
23
  3
OPACITYTILE
360
27
  3
REFLECTIONTILE
360
26
  3
REFRACTIONTILE
360
28
  3
SPECULARTILE
360
25
  0
DICTIONARY
  5
4AF
330
6C
100
AcDbDictionary
280
     1
281
     1
  3
ACAD_ROUNDTRIP_2008_TABLESTYLE_CELLSTYLEMAP
360
4B0
  0
XRECORD
  5
1C
102
{ACAD_REACTORS
330
1A
102
}
330
1A
100
AcDbXrecord
280
     1
270
     1
271
     1
  0
XRECORD
  5
1B
102
{ACAD_REACTORS
330
1A
102
}
330
1A
100
AcDbXrecord
280
     1
270
     1
271
     1
  0
XRECORD
  5
1F
102
{ACAD_REACTORS
330
1A
102
}
330
1A
100
AcDbXrecord
280
     1
270
     1
271
     1
  0
XRECORD
  5
1E
102
{ACAD_REACTORS
330
1A
102
}
330
1A
100
AcDbXrecord
280
     1
270
     1
271
     1
  0
XRECORD
  5
20
102
{ACAD_REACTORS
330
1A
102
}
330
1A
100
AcDbXrecord
280
     1
270
     1
271
     1
  0
XRECORD
  5
1D
102
{ACAD_REACTORS
330
1A
102
}
330
1A
100
AcDbXrecord
280
     1
270
     1
271
     1
  0
XRECORD
  5
14
102
{ACAD_REACTORS
330
12
102
}
330
12
100
AcDbXrecord
280
     1
270
     1
271
     1
  0
XRECORD
  5
13
102
{ACAD_REACTORS
330
12
102
}
330
12
100
AcDbXrecord
280
     1
270
     1
271
     1
  0
XRECORD
  5
17
102
{ACAD_REACTORS
330
12
102
}
330
12
100
AcDbXrecord
280
     1
270
     1
271
     1
  0
XRECORD
  5
16
102
{ACAD_REACTORS
330
12
102
}
330
12
100
AcDbXrecord
280
     1
270
     1
271
     1
  0
XRECORD
  5
18
102
{ACAD_REACTORS
330
12
102
}
330
12
100
AcDbXrecord
280
     1
270
     1
271
     1
  0
XRECORD
  5
15
102
{ACAD_REACTORS
330
12
102
}
330
12
100
AcDbXrecord
280
     1
270
     1
271
     1
  0
XRECORD
  5
24
102
{ACAD_REACTORS
330
22
102
}
330
22
100
AcDbXrecord
280
     1
270
     1
271
     1
  0
XRECORD
  5
23
102
{ACAD_REACTORS
330
22
102
}
330
22
100
AcDbXrecord
280
     1
270
     1
271
     1
  0
XRECORD
  5
27
102
{ACAD_REACTORS
330
22
102
}
330
22
100
AcDbXrecord
280
     1
270
     1
271
     1
  0
XRECORD
  5
26
102
{ACAD_REACTORS
330
22
102
}
330
22
100
AcDbXrecord
280
     1
270
     1
271
     1
  0
XRECORD
  5
28
102
{ACAD_REACTORS
330
22
102
}
330
22
100
AcDbXrecord
280
     1
270
     1
271
     1
  0
XRECORD
  5
25
102
{ACAD_REACTORS
330
22
102
}
330
22
100
AcDbXrecord
280
     1
270
     1
271
     1
  0
CELLSTYLEMAP
  5
4B0
102
{ACAD_REACTORS
330
4AF
102
}
330
4AF
100
AcDbCellStyleMap
 90
        3
300
CELLSTYLE
  1
TABLEFORMAT_BEGIN
 90
        5
170
     1
 91
        0
 92
    32768
 62
   257
 93
        1
300
CONTENTFORMAT
  1
CONTENTFORMAT_BEGIN
 90
        0
 91
        0
 92
      512
 93
        0
300

 40
0.0
140
1.0
 94
        5
 62
     0
340
5D
144
0.25
309
CONTENTFORMAT_END
171
     0
 94
        0
309
TABLEFORMAT_END
  1
CELLSTYLE_BEGIN
 90
        1
 91
        1
300
_TITLE
309
CELLSTYLE_END
300
CELLSTYLE
  1
TABLEFORMAT_BEGIN
 90
        5
170
     1
 91
        0
 92
        0
 62
   257
 93
        1
300
CONTENTFORMAT
  1
CONTENTFORMAT_BEGIN
 90
        0
 91
        0
 92
      512
 93
        0
300

 40
0.0
140
1.0
 94
        5
 62
     0
340
5D
144
0.18
309
CONTENTFORMAT_END
171
     0
 94
        0
309
TABLEFORMAT_END
  1
CELLSTYLE_BEGIN
 90
        2
 91
        1
300
_HEADER
309
CELLSTYLE_END
300
CELLSTYLE
  1
TABLEFORMAT_BEGIN
 90
        5
170
     1
 91
        0
 92
        0
 62
   257
 93
        1
300
CONTENTFORMAT
  1
CONTENTFORMAT_BEGIN
 90
        0
 91
        0
 92
      512
 93
        0
300

 40
0.0
140
1.0
 94
        2
 62
     0
340
5D
144
0.18
309
CONTENTFORMAT_END
171
     0
 94
        0
309
TABLEFORMAT_END
  1
CELLSTYLE_BEGIN
 90
        3
 91
        2
300
_DATA
309
CELLSTYLE_END
  0
ENDSEC
  0
EOF
